Big Me - Foo Fighters
00:00 / 00:00
Tabs and lyrics
Tunning: Standard (E A D G B e)
Song: Big Me
Artist: Foo Fighters
Album: Foo Fighters
Standard Tuning
Moderately - 130 b.p.m.
4/4
Tabbed by ben3296(bptrules@hotmail.com

tablature key
-------------
h-hammer on
p-pull off
LR-let ring
rit.-slow down


Intro
-----
e-|------3---3-----|------3---3-----|------3---3-----|------1---1-----|
B-|1---1-1---1-1-1-|1---1-1---1-1-0-|1---1-1---1-1-0-|----1-1---1-1-0-|
G-|0---0-0---0-0-0-|2h0p2-2---2-2-0-|0---0-0---0-0-0-|2-2---2---2-2-0-|play
D-|2---2-------2-2-|2---2-------2-0-|0---0-------0-0-|3-----------3-0-| x2
A-|3---3-------3-3-|0---0-------0---|2---2-------2---|3-----------3---|
E-|----------------|----------------|3---3-------0---|----------------|
LR____

Verse
-----
e-|------3---3-----|------3---3-----|------3---3-----|------1---1-----|
B-|1---1-1---1-1-1-|1---1-1---1-1-0-|1---1-1---1-1-0-|----1-1---1-1-0-|
G-|0---0-0---0-0-0-|2h0p2-2---2-2-0-|0---0-0---0-0-0-|2-2---2---2-2-0-|play
D-|2---2-------2-2-|2---2-------2-0-|0---0-------0-0-|3-----------3-0-| x2
A-|3---3-------3-3-|0---0-------0---|2---2-------2---|3-----------3---|
E-|----------------|----------------|3---3-------0---|----------------|
LR____

Chorus
------
e-|0---------------|1---------------|----------------|------3---3-----|
B-|0---------------|1-------------0-|1---1-1---1-1-1-|--1---1---1-1-0-|
G-|1---1-1---1-1-1-|2-2-2-2---2-2-0-|0---0-0---0-0-0-|3---3-3---3-3-0-|
D-|2---2-2---2-2-2-|3-3-3-3---3-3-0-|2---2-2---2-2-2-|2-----------2-0-|
A-|2---2-2---2-2-2-|3-3-3-3---3-3---|3---3-------3-3-|3-----------3---|
E-|0---0-0---0-0-0-|1-1-1-1---1-1---|3---3-------3-3-|----------------|
LR____

e-|0---------------|1---------------|1-----1---1-----|------3---3-----|
B-|0---------------|1-------------0-|1---1-1---1-1---|--0---0---0---0-|
G-|1---1-1---1-1-1-|2-2-2-2---2-2-0-|2---2-2---2-2---|0---0-0---0-0-0-|
D-|2---2-2---2-2-2-|3-3-3-3---3-3-0-|3---3-3---3-3-3-|0-----0---0-0-0-|
A-|2---2-2---2-2-2-|3-3-3-3---3-3---|3---3-------3-3-|2-----------2---|
E-|0---0-0---0-0-0-|1-1-1-1---1-1---|1---1-------1-1-|3-----------3---|
LR____

e-|------3---3-----|------3---3-----|------3---3-----|------1---1-----|
B-|1---1-1---1-1-1-|1---1-1---1-1-0-|1---1-1---1-1-0-|----1-1---1-1-0-|
G-|0---0-0---0-0-0-|2h0p2-2---2-2-0-|0---0-0---0-0-0-|2-2---2---2-2-0-|
D-|2---2-------2-2-|2---2-------2-0-|0---0-------0-0-|3-----------3-0-|
A-|3---3-------3-3-|0---0-------0---|2---2-------2---|3-----------3---|
E-|----------------|----------------|3---3-------0---|----------------|
LR____

e-|------3---3-----|3---3---1---1---|------3---3-----|--3-3-3-3-3-3---|
B-|1---1-1---1-1-0-|3---3-0-1---1-0-|1---1-1---1-1--1|--3-3-0-0-0-0-0-|
G-|0---0-0---0-0-0-|0---0-0-2---2-0-|0---0-0---0-0--0|--0-0-0-0-0-0-0-|
D-|2---2-------2-0-|0---0-0-3---3-0-|2---2-------2--2|0-0-0-0-0-0-0-0-|
A-|3---3-------3---|2---2---1---1---|3---3-------3--3|2-2-2-2-2-2-2---|
E-|----------------|3---3---1---1---|----------------|3-3-3-3-3-3-3---|


Verse
-----
e-|------3---3-----|------3---3-----|------3---3-----|------1---1-----|
B-|1---1-1---1-1-1-|1---1-1---1-1-0-|1---1-1---1-1-0-|----1-1---1-1-0-|
G-|0---0-0---0-0-0-|2h0p2-2---2-2-0-|0---0-0---0-0-0-|2-2---2---2-2-0-|play
D-|2---2-------2-2-|2---2-------2-0-|0---0-------0-0-|3-----------3-0-| x2
A-|3---3-------3-3-|0---0-------0---|2---2-------2---|3-----------3---|
E-|----------------|----------------|3---3-------0---|----------------|
LR____

Chorus
------
e-|0---------------|1---------------|----------------|------3---3-----|
B-|0---------------|1-------------0-|1---1-1---1-1-1-|--1---1---1-1-0-|
G-|1---1-1---1-1-1-|2-2-2-2---2-2-0-|0---0-0---0-0-0-|3---3-3---3-3-0-|
D-|2---2-2---2-2-2-|3-3-3-3---3-3-0-|2---2-2---2-2-2-|2-----------2-0-|
A-|2---2-2---2-2-2-|3-3-3-3---3-3---|3---3-------3-3-|3-----------3---|
E-|0---0-0---0-0-0-|1-1-1-1---1-1---|3---3-------3-3-|----------------|
LR____

e-|0---------------|1---------------|1-----1---1-----|------3---3-----|
B-|0---------------|1-------------0-|1---1-1---1-1---|--0---0---0---0-|
G-|1---1-1---1-1-1-|2-2-2-2---2-2-0-|2---2-2---2-2---|0---0-0---0-0-0-|
D-|2---2-2---2-2-2-|3-3-3-3---3-3-0-|3---3-3---3-3-3-|0-----0---0-0-0-|
A-|2---2-2---2-2-2-|3-3-3-3---3-3---|3---3-------3-3-|2-----------2---|
E-|0---0-0---0-0-0-|1-1-1-1---1-1---|1---1-------1-1-|3-----------3---|
LR____

e-|------3---3-----|------3---3-----|------3---3-----|------1---1-----|
B-|1---1-1---1-1-1-|1---1-1---1-1-0-|1---1-1---1-1-0-|----1-1---1-1-0-|
G-|0---0-0---0-0-0-|2h0p2-2---2-2-0-|0---0-0---0-0-0-|2-2---2---2-2-0-|
D-|2---2-------2-2-|2---2-------2-0-|0---0-------0-0-|3-----------3-0-|
A-|3---3-------3-3-|0---0-------0---|2---2-------2---|3-----------3---|
E-|----------------|----------------|3---3-------0---|----------------|
LR____

e-|------3---3-----|3---3---1---1---|------3---3-----|--3-3-3-3-3-3---|
B-|1---1-1---1-1-0-|3---3-0-1---1-0-|1---1-1---1-1--1|--3-3-0-0-0-0-0-|
G-|0---0-0---0-0-0-|0---0-0-2---2-0-|0---0-0---0-0--0|--0-0-0-0-0-0-0-|
D-|2---2-------2-0-|0---0-0-3---3-0-|2---2-------2--2|0-0-0-0-0-0-0-0-|
A-|3---3-------3---|2---2---1---1---|3---3-------3--3|2-2-2-2-2-2-2---|
E-|----------------|3---3---1---1---|----------------|3-3-3-3-3-3-3---|


Outro
-----

e-|------3---3-----|------3---3-----|------3---3-----|------1---1-----|
B-|1---1-1---1-1-1-|1---1-1---1-1-0-|1---1-1---1-1-0-|----1-1---1-1-0-|
G-|0---0-0---0-0-0-|2h0p2-2---2-2-0-|0---0-0---0-0-0-|2-2---2---2-2-0-|
D-|2---2-------2-2-|2---2-------2-0-|0---0-------0-0-|3-----------3-0-|
A-|3---3-------3-3-|0---0-------0---|2---2-------2---|3-----------3---|
E-|----------------|----------------|3---3-------0---|----------------|
LR____

e-|------3---3-----|3---3---1---1---|------3---3-----|3---3---1---1---|
B-|1---1-1---1-1-0-|3---3-0-1---1-0-|1---1-1---1-1--1|3---3-0-1---1-0-|
G-|0---0-0---0-0-0-|0---0-0-2---2-0-|0---0-0---0-0--0|0---0-0-2---2-0-|
D-|2---2-------2-0-|0---0-0-3---3-0-|2---2-------2--2|0---0-0-3---3-0-|
A-|3---3-------3---|2---2---1---1---|3---3-------3--3|2---2---1---1---|
E-|----------------|3---3---1---1---|----------------|3---3---1---1---|


e-|------3---3-----|3---3---1---1---|----------------|
B-|1---1-1---1-1-0-|3---3-0-1---1-0-|1-------1-------|
G-|0---0-0---0-0-0-|0---0-0-2---2-0-|0-------3-------|
D-|2---2-------2-0-|0---0-0-3---3-0-|2-------2-------|
A-|3---3-------3---|2---2---1---1---|3-------3-------|
E-|----------------|3---3---1---1---|----------------|
rit._____________________pause then fade


hope this helps you learn this song
its very simple
please leave comments or let me know if i've made any mistakes
ben3296(bptrules@hotmail.com)
thanks and good luck with playing!
Song info
Big Me
Foo Fighters
2001
  • Rock
  • Alternative Rock
  • Grunge
  • Hard Rock
Similar songs
Ici Paris - Noir Désir
Keep The Faith - Bon Jovi
Fall At Your Feet - Crowded House
Angry Chair - Alice in Chains
Megalomaniac - Incubus

Hi! Hope you enjoy backing track experience.
If you want to help us in the development of the project, feel free to donate!