Ill Stick Around - Foo Fighters
00:00 / 00:00
Tabs and lyrics
Tunning: Standard (E A D G B e)
Band: Foo Fighters
Song: I'll Stick Around

The drum roll thing starts it off and then you play this.

[Intro/Chorus]
(Play the intro without singing)
e:----------------------------|
B:----------------------------|
G:------------8---8-------5---|
D:-5---5------8---8---8---5---|
A:-5---5------6---6---8---3---|
E:-3---3--------------6-------|
I don't owe you...

[Verse]
e:----------------------------------------------------------------|
B:----------------------------------------------------------------|
G:---------------------------------5---5---5---5------------------|
D:-5---5---5---5---3---3---3---3---5---5---5---5---5---5---5---5--|
A:-5---5---5---5---3---3---3---3---3---3---3---3---5---5---5---5--|
E:-3---3---3---3---1---1---1---1-------------------3---3---3---3--|
I thought I knew what it took to bother you

e:-----------------------------------------------|
B:-----------------------------------------------|
G:-----------------5---5---5---5-----------------|
D:-3---3---3---3---5---5---5---5---5---5---5---5-|
A:-3---3---3---3---3---3---3---3---5---5---5---5-|
E:-1---1---1---1-------------------3---3---3---3-|
Every word I said was true. And that you'll see

[Pre-Chorus]
e:------------------------------------------------------|
B:------------------------------------------------------|
G:----------------------------------5---5---5---5---5~~-|
D:-8---8---8---8---5---5---5----5---5---5---5---5---5~~-|
A:-8---8---8---8---5---5---5----5---3---3---3---3---3~~-|
E:-6---6---6---6---3---3---3----3-----------------------|
I'm taking all of that and more...

[Bridge]
e:--------------------------------------------------------------------------|
B:--------------------------------------------------------------------------|
G:8-8-8-8-8-8-8-8--10-10-10-10-10-10-10-10-------------------7-7-7-7-7-7-7-7|
D:8-8-8-8-8-8-8-8--10-10-10-10-10-10-10-10--5-5-5-5-5-5-5-5--7-7-7-7-7-7-7-7|
A:6-6-6-6-6-6-6-6--8--8--8--8--8--8--8--8---5-5-5-5-5-5-5-5--5-5-5-5-5-5-5-5|
E:------------------------------------------3-3-3-3-3-3-3-3-----------------|
I'll stick around, I'll stick around...
Tunning: Standard (E A D G B e)
#-----------------------------------------------------------------------------#
#-- File created with Instab - http://www.pconline.com/~smcarey/instab.html --#
#-----------------------------------------------------------------------------#

Author/Artist: Foo Fighters
Title: I'll Stick Around
Album: Foo Fighters
Transcribed by: Hararge
Email: Haz@d-oh.co.uk

This is an easier way to play the song, and it also
includes a slide from F to G that I haven't seen before.
I know the tab is 5 years too late, but I wasn't old enough
to like the foos when they started out. All the pieces are
here, you just have to put them together. All the chords
(apart from intro + chorus ones) need to bit hit more than
once, I just couldn't be bothered to write them in. Send
any questions or comments to the address above. The
rest of th lyrics can be found at www.foofighters.com.
Standard tuning

------------------------------------------------------------------------------|
------------------------------------------------------------------------------|
----------8-8---3---5------------8-8---3---5----------------------------------|
----5-5---8-8---3---5---3/-5-5---8-8---3---5---3/-5---------------------------|
----5-5---6-6---1---3---3/-5-5---6-6---1---3---3/-5---------------------------|
----3-3-----------------1/-3-3-----------------1/-3---------------------------|
I don't owe you anything! (no lyrics during intro)

------------------------------------------------------------------------------|
------------------------------------------------------------------------------|
-----------------------------5----------------------------------------5-------|
----5--------------3---------5--------------5----------3--------------5-------|
----5--------------3---------3--------------5----------3--------------3-------|
----3--------------1------------------------3----------1----------------------|
I thought I knew all it took to bother you every word I said was true

------------------------------------------------------------------------------|
------------------------------------------------------------------------------|
------------------------------------------------------------------------------|
-----------------5------------------------------------------------------------|
-----------------5------------------------------------------------------------|
-----------------3------------------------------------------------------------|
that you'll see

------------------------------------------------------------------------------|
------------------------------------------------------------------------------|
--------------------------------5---------------------------------------5-----|
------8----------5--------------5--------8----------5-------------------5-----|
------8----------5--------------3--------8----------5-------------------3-----|
------6----------3-----------------------6----------3-------------------------|
I've taken all and I've endured....One day this all will fade I'm sure

------------------------------------------------------------------------------|
------------------------------------------------------------------------------|
-----8--------------10--------------------------------7-----------------------|
-----8--------------10----------------5---------------7-----------------------|
-----6--------------8-----------------5---------------5-----------------------|
--------------------------------------3---------------------------------------|
I'll sick around, I'll stick around, Learn from all that came from it
Tunning: Standard (E A D G B e)
Band: Foo Fighters
Title: I'll Stick Around
Album: Foo Fighters
Transcribed by: Jamie Kral
Standard Tuning

Use the neck pickup (humbucker if you have it) with a decent amount of distortion.
During the verses play a little softer and closer to the bridge of the guitar and
try to make the strums bleed into each other. Great beginner song if you have someone
to play bass guitar along with you.

Intro: play 2x
|||
e|--------------------------------|--------------------------------|
B|--------------------------------|--------------------------------|
G|------------8-8-8-----------10--|------------8-8-8---------------|
D|5---5-------8-8-8---8---10--10--|5---5-------8-8-8---8---10--8---|
A|5---5-------6-6-6---8---10--8---|5---5-------6-6-6---8---10--8---|
E|3---3---------------6---8-------|3---3---------------6---8---6---|

Verse 2&3: play 2x
G F
e|3-------3---3-------3---3---3---|--------------------------------|
B|3-------3---3-------3---3---3---|1-------1---1-------1---1---1---|
G|0-------0---0-------0---0---0---|2-------2---2-------2---2---2---|
D|0-------0---0-------0---0---0---|3-------3---3-------3---3---3---|
A|2-------2---2-------2---2---2---|3-------3---3-------3---3---3---|
E|3-------3---3-------3---3---3---|--------------------------------|

Am G
e|0-------0---0-------0---0---0---|3-------3---3-------3---3---3---|
B|1-------1---1-------1---1---1---|3-------3---3-------3---3---3---|
G|2-------2---2-------2---2---2---|0-------0---0-------0---0---0---|
D|2-------2---2-------2---2---2---|0-------0---0-------0---0---0---|
A|0-------0---0-------0---0---0---|2-------2---2-------2---2---2---|
E|--------------------------------|3-------3---3-------3---3---3---|

A# Am
e|--------------------------------|0-------0---0-------0---0---0---|
B|3-------3---3-------3---3---3---|1-------1---1-------1---1---1---|
G|3-------3---3-------3---3---3---|2-------2---2-------2---2---2---|
D|3-------3---3-------3---3---3---|2-------2---2-------2---2---2---|
A|1-------1---1-------1---1---1---|0-------0---0-------0---0---0---|
E|--------------------------------|--------------------------------|

G G
e|3-------3---3-------3---3---3---|3-------3---3-------3---3---3---|
B|3-------3---3-------3---3---3---|3-------3---3-------3---3---3---|
G|0-------0---0-------0---0---0---|0-------0---0-------0---0---0---|
D|0-------0---0-------0---0---0---|0-------0---0-------0---0---0---|
A|2-------2---2-------2---2---2---|2-------2---2-------2---2---2---|
E|3-------3---3-------3---3---3---|3-------3---3-------3---3---3---|

Pre-Chorus:
A# G C9
e|----------------------------3---|----3---3-------3---3---3-------|
B|3-------3-------3---3---3---3---|----3---3-------3---3---3---3---|
G|3-------3-------3---3---3---0---|----0---0-------0---0---0---3---|
D|3-------3-------3---3---3---0---|----0---0-------0---0---0---2---|
A|1-------1-------1---1---1---2---|----3---3-------3---3---3---3---|
E|----------------------------3---|----3---3-------3---3---3-------|
I've taken all and I've endured...


e|--------------------------------|--------------------------------|
B|----------(3)-------------------|------(3)-------3---3---3---3---|
G|----------(3)-------------------|------(3)-------3---3---3---3---|
D|----------(2)-------------------|------(2)-------2---2---2---2---|
A|----------(3)-------------------|------(3)-------3---3---3---3---|
E|--------------------------------|--------------------------------|

A# G C9
e|----------------------------3---|----3---3-------3---3---3-------|
B|3-------3-------3---3---3---3---|----3---3-------3---3---3---3---|
G|3-------3-------3---3---3---0---|----0---0-------0---0---0---3---|
D|3-------3-------3---3---3---0---|----0---0-------0---0---0---2---|
A|1-------1-------1---1---1---2---|----3---3-------3---3---3---3---|
E|----------------------------3---|----3---3-------3---3---3-------|

e|--------------------------------|--------------------------------|
B|----3---3---3---3---3---3---3---|3---3---3---3---3---3---3---3---|
G|----3---3---3---3---3---3---3---|3---3---3---3---3---3---3---3---|
D|----2---2---2---2---2---2---2---|2---2---2---2---2---2---2---2---|
A|----3---3---3---3---3---3---3---|3---3---3---3---3---3---3---3---|
E|--------------------------------|--------------------------------|

Chorus: play 2x
||



Suggest correction


What's this?

You can suggest a correction to this tab. Community and Mods will review your correction and vote to approve or reject it.




Tunning: Standard (E A D G B e)
Song-I'll Stick Around
Artist-Foo Fighters
Album-Foo Fighters

Tabbed by ben3296(bptrules@hotmail.com)

Quite Fast-about 140bpm
4/4
Standard Tuning

Chords Used
-----------
G---35543x
G/D-xx000x
F---13321x
Am--x0221x
Bb--11333x
C9--33533x



Intro
-----

e-|-----------------|-----------------|-----------------|-----------------|
B-|-----------------|-----------------|-----------------|-----------------|
G-|-----------------|-----------------|-----------------|-----------------|play
D-|----xx8-8------10|----xx8-8------10|----xx8-8------10|----xx8-8--------|twice
A-|5-5-xx6-6-8-10-8-|5-5-xx6-6-8-10-8-|5-5-xx6-6-8-10-8-|5-5-xx6-6-8-10-8-|
E-|3-3-------6-8----|3-3-------6-8----|3-3-------6-8----|3-3-------6-8--6-|



Verse
-----
G G/D F G/D Am G/D G G/D
e-|------3---------|------1---------|------0---------|------3---------|
B-|----3-----------|----1-----------|----1-----------|----3-----------|
G-|--4-------------|--2-------------|--2-------------|--4-------------|
D-|5---------------|3---------------|2---------------|5---------------|
A-|----------------|----------------|----------------|----------------|
E-|----------------|----------------|----------------|----------------|

Bb G/D Am G/D G
e-|------1---------|------0---------|----------------|10--------------|
B-|----3-----------|----1-----------|----10--10----10|----------------|
G-|--3-------------|--2-------------|--12--12--12----|----------------|
D-|3---------------|2---------------|------------12--|----------------|
A-|----------------|----------------|10--------------|----------------|
E-|----------------|----------------|----------------|----------------|



Verse
-----
G G/D F G/D Am G/D G G/D
e-|------3---------|------1---------|------0---------|------3---------|
B-|----3-----------|----1-----------|----1-----------|----3-----------|
G-|--4-------------|--2-------------|--2-------------|--4-------------|
D-|5---------------|3---------------|2---------------|5---------------|
A-|----------------|----------------|----------------|----------------|
E-|----------------|----------------|----------------|----------------|

Bb G/D Am G/D
e-|------1---------|------0---------|
B-|----3-----------|----1-----------|
G-|--3-------------|--2-------------|
D-|3---------------|2---------------|
A-|----------------|----------------|
E-|----------------|----------------|




Interlude
---------

e-|-----------------|-----------------|-----------------|-----------------|
B-|-----------------|-----------------|-----------------|-----------------|
G-|-----------------|-----------------|-----------------|-----------------|
D-|----xx8-8------10|----xx8-8------10|----xx8-8------10|----xx8-8--------|
A-|5-5-xx6-6-8-10-8-|5-5-xx6-6-8-10-8-|5-5-xx6-6-8-10-8-|5-5-xx6-6-8-10-8-|
E-|3-3-------6-8----|3-3-------6-8----|3-3-------6-8----|3-3-------6-8--6-|



Verse
-----
G G/D F G/D Am G/D G G/D
e-|------3---------|------1---------|------0---------|------3---------|
B-|----3-----------|----1-----------|----1-----------|----3-----------|
G-|--4-------------|--2-------------|--2-------------|--4-------------|
D-|5---------------|3---------------|2---------------|5---------------|
A-|----------------|----------------|----------------|----------------|
E-|----------------|----------------|----------------|----------------|

Bb G/D Am G/D G
e-|------1---------|------0---------|----------------|10--------------|
B-|----3-----------|----1-----------|----10--10----10|----------------|
G-|--3-------------|--2-------------|--12--12--12----|----------------|
D-|3---------------|2---------------|------------12--|----------------|
A-|----------------|----------------|10--------------|----------------|
E-|----------------|----------------|----------------|----------------|



Verse
-----
G G/D F G/D Am G/D G G/D
e-|------3---------|------1---------|------0---------|------3---------|
B-|----3-----------|----1-----------|----1-----------|----3-----------|
G-|--4-------------|--2-------------|--2-------------|--4-------------|
D-|5---------------|3---------------|2---------------|5---------------|
A-|----------------|----------------|----------------|----------------|
E-|----------------|----------------|----------------|----------------|

Bb G/D Am G/D G
e-|------1---------|------0---------|----------------|10--------------|
B-|----3-----------|----1-----------|----10--10----10|----------------|
G-|--3-------------|--2-------------|--12--12--12----|----------------|
D-|3---------------|2---------------|------------12--|----------------|
A-|----------------|----------------|10--------------|----------------|
E-|----------------|----------------|----------------|----------------|




Pre-Chorus
----------
Bb G C9
e-|----3-----------|----------------|----------------|----------------|
B-|3-------3-------|--------------3-|----------------|----------------|
G-|3---------3-----|----0---------3-|----------------|----------------|
D-|3-----------3---|--3-----------2-|----------------|----------------|
A-|1-------------2-|--------------3-|----------------|----------------|
E-|----------------|----------------|----------------|----------------|

Bb G C9
e-|----3-----------|----------------|----------------|----------------|
B-|3-------3-------|--------------3-|------------3-3-|3-3-3-3-3-3-3-3-|
G-|3---------3-----|----0---------3-|------------3-3-|3-3-3-3-3-3-3-3-|
D-|3-----------3---|--3-----------2-|------------2-2-|2-2-2-2-2-2-2-2-|
A-|1-------------2-|--------------3-|------------3-3-|3-3-3-3-3-3-3-3-|
E-|----------------|----------------|----------------|----------------|



Chorus
------
e-|-----------------|-----------------|-----------------|-----------------|
B-|-----------------|-----------------|-----------------|-----------------|
G-|-----------------|-----------------|-----------------|-----------------|play
D-|----xx8-8------10|----xx8-8------10|----xx8-8------10|----xx8-8--------|twice
A-|5-5-xx6-6-8-10-8-|5-5-xx6-6-8-10-8-|5-5-xx6-6-8-10-8-|5-5-xx6-6-8-10-8-|
E-|3-3-------6-8----|3-3-------6-8----|3-3-------6-8----|3-3-------6-8--6-|



Verse
-----
G G/D F G/D Am G/D G G/D
e-|------3---------|------1---------|------0---------|------3---------|
B-|----3-----------|----1-----------|----1-----------|----3-----------|
G-|--4-------------|--2-------------|--2-------------|--4-------------|
D-|5---------------|3---------------|2---------------|5---------------|
A-|----------------|----------------|----------------|----------------|
E-|----------------|----------------|----------------|----------------|

Bb G/D Am G/D G
e-|------1---------|------0---------|----------------|10--------------|
B-|----3-----------|----1-----------|----10--10----10|----------------|
G-|--3-------------|--2-------------|--12--12--12----|----------------|
D-|3---------------|2---------------|------------12--|----------------|
A-|----------------|----------------|10--------------|----------------|
E-|----------------|----------------|----------------|----------------|



Verse
-----
G G/D F G/D Am G/D G G/D
e-|------3---------|------1---------|------0---------|------3---------|
B-|----3-----------|----1-----------|----1-----------|----3-----------|
G-|--4-------------|--2-------------|--2-------------|--4-------------|
D-|5---------------|3---------------|2---------------|5---------------|
A-|----------------|----------------|----------------|----------------|
E-|----------------|----------------|----------------|----------------|

Bb G/D Am G/D G
e-|------1---------|------0---------|----------------|10--------------|
B-|----3-----------|----1-----------|----10--10----10|----------------|
G-|--3-------------|--2-------------|--12--12--12----|----------------|
D-|3---------------|2---------------|------------12--|----------------|
A-|----------------|----------------|10--------------|----------------|
E-|----------------|----------------|----------------|----------------|




Pre-Chorus
----------
Bb G C9
e-|----3-----------|----------------|----------------|----------------|
B-|3-------3-------|--------------3-|----------------|----------------|
G-|3---------3-----|----0---------3-|----------------|----------------|
D-|3-----------3---|--3-----------2-|----------------|----------------|
A-|1-------------2-|--------------3-|----------------|----------------|
E-|----------------|----------------|----------------|----------------|

Bb G C9
e-|----3-----------|----------------|----------------|----------------|
B-|3-------3-------|--------------3-|------------3-3-|3-3-3-3-3-3-3-3-|
G-|3---------3-----|----0---------3-|------------3-3-|3-3-3-3-3-3-3-3-|
D-|3-----------3---|--3-----------2-|------------2-2-|2-2-2-2-2-2-2-2-|
A-|1-------------2-|--------------3-|------------3-3-|3-3-3-3-3-3-3-3-|
E-|----------------|----------------|----------------|----------------|



Chorus
------
e-|-----------------|-----------------|-----------------|-----------------|
B-|-----------------|-----------------|-----------------|-----------------|
G-|-----------------|-----------------|-----------------|-----------------|play
D-|----xx8-8------10|----xx8-8------10|----xx8-8------10|----xx8-8--------|four
A-|5-5-xx6-6-8-10-8-|5-5-xx6-6-8-10-8-|5-5-xx6-6-8-10-8-|5-5-xx6-6-8-10-8-|times
E-|3-3-------6-8----|3-3-------6-8----|3-3-------6-8----|3-3-------6-8--6-|



Bridge
------
e-|----------------|----------------|3-3-3-3-3-3-3-3-|2-2-2-0---3-0---|
B-|4-4-4-4-4-4-4-4-|4-4-4-4-4-4-4-4-|3-3-3-3-3-3-3-3-|3-3-3-3---3-3---|
G-|3-3-3-3-3-3-3-3-|2-2-2-2-2-2-2-2-|0-0-0-0-0-0-0-0-|2-2-2-2---2-2---|play
D-|1-1-1-1-1-1-1-1-|1-1-1-1-1-1-1-1-|0-0-0-0-0-0-0-0-|0-0-0-0---0-0---|five
A-|1-1-1-1-1-1-1-1-|3-3-3-3-3-3-3-3-|2-2-2-2-2-2-2-2-|----------------|times
E-|----------------|1-1-1-1-1-1-1-1-|3-3-3-3-3-3-3-3-|----------------|

e-|----------------|----------------|
B-|4-4-4-4-4-4-4-4-|4-4-4-4-4-4-4-4-|
G-|3-3-3-3-3-3-3-3-|2-2-2-2-2-2-2-2-|
D-|1-1-1-1-1-1-1-1-|1-1-1-1-1-1-1-1-|
A-|1-1-1-1-1-1-1-1-|3-3-3-3-3-3-3-3-|
E-|----------------|1-1-1-1-1-1-1-1-|




Outro
-----
e-|-----------------|-----------------|-----------------|-----------------|
B-|-----------------|-----------------|-----------------|-----------------|
G-|-----------------|-----------------|-----------------|-----------------|play
D-|----xx8-8------10|----xx8-8------10|----xx8-8------10|----xx8-8--------|twice
A-|5-5-xx6-6-8-10-8-|5-5-xx6-6-8-10-8-|5-5-xx6-6-8-10-8-|5-5-xx6-6-8-10-8-|
E-|3-3-------6-8----|3-3-------6-8----|3-3-------6-8----|3-3-------6-8--6-|

e-|-----------------|
B-|-----------------|
G-|-----------------|
D-|-----------------|
A-|5-5--------------|
E-|3-3--------------|
Tunning: Standard (E A D G B e)
I'll Stick Around - Foo Fighters
As recorded by the Foo Fighters
(From the 1995 Album 'Foo Fighters')

Tuning: (E A D G B e) - "Standard Tuning"

I created this tab because although the other tabs contain all of
the basic parts of the song, no tab has the correct verse, prechorus
and bridge chords which Dave plays. Have fun, and please rate and
comment! :)

[Intro/Chorus]

Play this 3x: Then this 1x:
Riff 1 Riff 2
e|--------------------------| e|-------------------------|
B|--------------------------| B|-------------------------|
G|----------8--8---------10-| G|---------8--8------------|
D|-5--5--x--8--8--8--10--10-| D|-5--5-x--8--8--8--10--8--|
A|-5--5--x--6--6--8--10--8--| A|-5--5-x--6--6--8--10--8--|
E|-3--3--x--------6--8------| E|-3--3-x--------6--8---6--|

[Verse]
e|------------|-------------|-------------|-------------|
B|------8-----|------6------|------5------|------8------|
G|------0-8x--|------0--8x--|------0--8x--|------0--8x--|
D|------9-----|------7------|------7------|------9------|
A|-----10-----|------8------|------7------|-----10------|
E|------------|-------------|-------------|-------------|

e|-------------|-------------|---------------------------|-----10------|
B|------6------|------5------|---8--8-10--8-10--8--8-10--|------8------|
G|------0--8x--|------0--8x--|---0--0--0--0--0--0--0--0--|------0--8x--|
D|------8------|------7------|---9--9--9--9--9--9--9--9--|------9------|
A|------8------|------7------|--10-10-10-10-10-10-10-10--|-----10------|
E|-------------|-------------|---------------------------|-------------|

[Pre-Chorus 1]
e|----------------------------------------------------------------|
B|-----3--3-3-3------3-3-3-3-3-3-3---3----------------------------|
G|-----0--0-0-0------0-0-0-0-0-0-0---3----------------------------|
D|-3---3--3-3-3------x-x-x-x-x-x-x---2----------------------------|
A|-1---1--1-1-1--2---2-2-2-2-2-2-2---3----------------------------|
E|---------------3---3-3-3-3-3-3-3--------------------------------|

e|----------------------------------------------------------------|
B|-3---3--3-3-3--3---3-3-3-3-3-3-3---3---3-3-3-3-3-3-3-3-3-3-3-3--|
G|-0---0--0-0-0--0---0-0-0-0-0-0-0---3---3-3-3-3-3-3-3-3-3-3-3-3--|
D|-3---3--3-3-3--x---x-x-x-x-x-x-x---2---2-2-2-2-2-2-2-2-2-2-2-2--|
A|-1---1--1-1-1--2---2-2-2-2-2-2-2---3---3-3-3-3-3-3-3-3-3-3-3-3--|
E|---------------3---3-3-3-3-3-3-3--------------------------------|

[Pre-Chorus 2]
e|----------------------------------------0-----0------0----------|
B|-----3--3-3-3------3-3-3-3-3-3-3---3------3-3---3-3----3-3-3----|
G|-----0--0-0-0------0-0-0-0-0-0-0---3----------------------------|
D|-3---3--3-3-3------x-x-x-x-x-x-x---2----------------------------|
A|-1---1--1-1-1--2---2-2-2-2-2-2-2---3----------------------------|
E|---------------3---3-3-3-3-3-3-3--------------------------------|

e|---------------------------------------------------------------|
B|-3---3--3-3-3--3---3-3-3-3-3-3-3---3--3-3-3-3-3-3-3-3-3-3-3-3--|
G|-0---0--0-0-0--0---0-0-0-0-0-0-0---3--3-3-3-3-3-3-3-3-3-3-3-3--|
D|-3---3--3-3-3--x---x-x-x-x-x-x-x---2--2-2-2-2-2-2-2-2-2-2-2-2--|
A|-1---1--1-1-1--2---2-2-2-2-2-2-2---3--3-3-3-3-3-3-3-3-3-3-3-3--|
E|---------------3---3-3-3-3-3-3-3-------------------------------|
[...PM then slowly release...]

[Bridge]
e|-----------------------------------3-3-3-3-3-3-3-3--2-2-2-0-0-2-2-2--|
B|-4-4-4-4-4-4-4-4--4-4-4-4-4-4-4-4--0-0-0-0-0-0-0-0--3-3-3-3-3-3-3-3--|
G|-3-3-3-3-3-3-3-3--2-2-2-2-2-2-2-2--0-0-0-0-0-0-0-0--2-2-2-2-2-2-2-2--|
D|-1-1-1-1-1-1-1-1--x-x-x-x-x-x-x-x--0-0-0-0-0-0-0-0--0-0-0-0-0-0-0-0--|
A|-1-1-1-1-1-1-1-1--3-3-3-3-3-3-3-3--2-2-2-2-2-2-2-2--0-0-0-0-0-0-0-0--|
E|------------------1-1-1-1-1-1-1-1--3-3-3-3-3-3-3-3-------------------|


************************************

| x Dead note

************************************

[Order]
Riff 1........(3x)
Riff 2........(1x)
Riff 1........(3x)
Riff 2........(1x)
Verse.........(2x)
Riff 1........(3x)
Riff 2........(1x)
Verse.........(2x)
Pre-Chorus 1..(1x)
Riff 1........(3x)
Riff 2........(1x)
Verse.........(2x)
Pre-Chorus 2..(1x)
Riff 1........(3x)
Riff 2........(1x)
Riff 1........(3x)
Riff 2........(1x)
Bridge........(5 1/2x)
Riff 1........(3x)
Riff 2........(1x)
Riff 1........(3x)
Riff 2........(1x)
Song info
Ill Stick Around
Foo Fighters
2001
  • Rock
  • Alternative Rock
  • Grunge
Alternative tracks
Similar songs
Love Is Hell - Ryan Adams
From Yesterday - 30 Seconds To Mars
My Name Is Ruin - Gary Numan
Futures - Jimmy Eat World
From Out Of Nowhere - Faith No More

Hi! Hope you enjoy backing track experience.
If you want to help us in the development of the project, feel free to donate!