Feels Like The First Time - Foreigner
00:00 / 00:00
Tabs and lyrics
Tunning: Standard (E A D G B e)
Artist: Foreigner
Song: Feels like the first time
Album: The very best and beyond
Tabbed by: E-p0rt


Intro:
======

e|--------------------------------------------|
B|--------------------------------------------|
G|-/4-----4----4----4-/-2-----2~~~--2--2---2--|
D|-/5-----5----5----5-/-3-----3~~~--2--2---2--|
A|--------------------------------------------|
E|-------3------3-----------3------------3----|

-------------------------------|
-------------------------------|
--2~----2--2----4~~------------|
--2~----2--2----5~~-----0-2-3--|
-------------------------------|
-----3-------3---------------3-|

Repeat Intro 2x
Then:


Verse:
======

e|-3---------------|
B|-3---------------|
G|-4---------------|
D|-5---------------|
A|-5---------------|
E|-3---------------|
I would climb any mountain....

PreChorusA
e|-----------------------------|
B|-----------------------------|
G|--7---7-----7---6---6-----6--|
D|--7---7-----7---7---7-----7--|
A|--7---7-----7---7---7-----7--|
E|--5------5------5------5-----|
..to me

Repeat 1x
Then:


PreChorusB
e|-------------------r---------|
B|-------------------r---------|
G|--9---9-----9---8--r-8-----8-|
D|--9---9-----9---9--r-9-----9-|
A|--9---9-----9---9--r-9-----9-|
E|--7------7------7--r----7----|

Repeat 1x up to the r's
Then:

Chorus:
1 2 3 4 1
e|---------------------------------------------------------------|
B|---------------------------------------------------------------|
G|------------------2---2~~---2-2---2--2~-----2-2----4-----------|
D|--10--5-----------3---3~~---2-2---2--2~-----2-2----5---0-2-3---|
A|--10--5--------------------------------------------------------|
E|--8---3-------------3-----------3--------3------3------------3-|

Play Once, Then play intro one time
Then:

e|--3--| |-------3--~|
B|--3--| |-------3--------------~|
G|--4--| After a few measures play: |-------4--~|
D|--5--| |-------5--~|
A|--5--| |-------5--~|
E|--3--| |-0-1-2-3------~|

While the verse progresses play this:

e|-----------------------|
B|-----------------------|
G|-----------------------|
D|-----------------------|
A|-----------------------|
E|-3--3--33-33--3-3-3-3--|

After the verse is over go back to:

PreChorusA
PreChorusB

Then:

e|--------| |------------------------~|
B|--------| |------------------------~|
G|--------| |-------------------------~|
D|--------| |-------------------------~|
A|-----5--| |-/7---5------------------~|
E|-5-7----| |-----------8----7--------~|

Repeat 3x Then:

e|----------------------------------------------|
B|----------------------------------------------|
G|----------------------------------------------|
D|----------------------------------------------|
A|-10-10-10-10-10-10-10-10-10-10-10-10-10-10-10-|
E|-8--8--8--8--8--8--8--8--8--8--8--8--8--8--8--|

Go to Chorus...

Solo
=====

Guitar 1:

e|-----------------------------------------------|
B|-----------------------------------------------|
G|-10p7p0-(8x)-9p6p0-(8x)-8p5p0-(12x)-7p4p0-(4x)-|
D|-----------------------------------------------|
A|-----------------------------------------------|
E|-----------------------------------------------|

Guitar 2:

e|-----3----3----3----3------3----3----3--5b7-3----------------|
B|-----------------------------------------------5b6-3---------|
G|--3/4--2/3--1/2--3/4----3/4--2/3--1/2----------------4-2p0---|
D|-----------------------------------------------------------2-|
A|-------------------------------------------------------------|
E|-------------------------------------------------------------|

Go back to Chorus


The end!!!!
Tunning: Standard (E A D G B e)
-------------------------------------------------------------------------------
Feels Like The First Time - Foreigner
-------------------------------------------------------------------------------
Tabbed by: Daviddint
E-mail: Daviddint26@yahoo.com

Tuning: Standard - (Low To High) E-A-D-G-B-e

Intro: 3 Times
e|-----------------------------------------------------------------------------|
B|-----------------------------------------------------------------------------|
G|--4-----4---4----4\--2----2---------2---2------2---2------2---2----4---------|
D|--5-----5---5----5\--3----3---------2---2------2---2------2---2----5------3--|
A|-----------------------------------------------------------------------3h5---|
E|------3------------------3------3----------3-----------3--------------------3|
PM
End of Intro: Into Verse (I would climb any mountain)
e|----------------------------|
B|--3-------------------------|
G|--0-------------------------|
D|--5-------------------------|
A|--5-------------------------|
E|----------------------------|

Pre-Chorus
e|---------------------------------------------------------------------------|
B|--5--5----5--5--5---5--5----5--5--5----5--5----5--5--5----5--5----5--5--5--|
G|--7--7----6--6--6---7--7----6--6--6----7--7----6--6--6----7--7----6--6--6--|
D|--7--7----7--7--7---7--7----7--7--7----7--7----7--7--7----7--7----7--7--7--|
A|---------------------------------------------------------------------------|
E|---------------------------------------------------------------------------|

e|---------------------------------------------------------------------------|
B|--7--7----7--7--7---7--7----7--7--7----7--7----7--7--7----7--7----7--7-----|
G|--9--9----8--8--8---9--9----8--8--8----9--9----8--8--8----9--9----8--8-5---|
D|--9--9----9--9--9---9--9----9--9--9----9--9----9--9--9----9--9----9--9-5---|
A|-----------------------------------------------------------------------3---|
E|---------------------------------------------------------------------------|

Chorus 2x
e|-----------------------------------------------------------------------------|
B|-----------------------------------------------------------------------------|
G|--4-----4---4----4\--2----2---------2---2------2---2------2---2----4---------|
D|--5-----5---5----5\--3----3---------2---2------2---2------2---2----5------3--|
A|-----------------------------------------------------------------------3h5---|
E|------3------------------3------3----------3-----------3--------------------3|
PM
[Verse]

Pre-Chorus|
e|---------------------------------------------------------------------------|
B|--5--5----5--5--5---5--5----5--5--5----5--5----5--5--5----5--5----5--5--5--|
G|--7--7----6--6--6---7--7----6--6--6----7--7----6--6--6----7--7----6--6--6--|
D|--7--7----7--7--7---7--7----7--7--7----7--7----7--7--7----7--7----7--7--7--|
A|---------------------------------------------------------------------------|
E|---------------------------------------------------------------------------|

e|---------------------------------------------------------------------------|
B|--7--7----7--7--7---7--7----7--7--7----7--7----7--7--7----7--7-------------|
G|--9--9----8--8--8---9--9----8--8--8----9--9----8--8--8----9--9-------------|
D|--9--9----9--9--9---9--9----9--9--9----9--9----9--9--9----9--9-------------|
A|-------------------------------------------------------------------------5-|
E|-------------------------------------------------------------------5--7----|

Bridge (Lead riff on top. Chords on bottom)
|e|-------------------------------------------|
|B|---10---7---8-------10---7---8------------o|
|G|----------------9----------------7---------|
|D|-------------------------------------------|
|A|------------------------------------------o|
|E|-------------------------------------------|
| Build up into chorus
|e|-------------------------------------------|---------------|
|B|------------------------------------------o|---------------|
|G|---9--------7--------5--------4------------|--5------------|
|D|---9--------7--------5--------4------------|--5------------|
|A|---7--------5--------3--------2-----------o|--3------------|
|E|-------------------------------------------|---------------|
P.M
[Chorus]

Solo 8x 8x 8x 8x
e|------------|-----------|-----------|-------------|
B|------------|-----------|-----------|------------o|
G|---10p7p0---|---9p6p0---|---8p5p0---|---7p4p0-----|
D|------------|-----------|-----------|-------------|
A|------------|-----------|-----------|------------o|
E|------------|-----------|-----------|-------------|

[Chorus]
Song info
Feels Like The First Time
Foreigner
2001
  • Rock
  • Hard Rock
  • Pop Rock
Alternative tracks
Similar songs
When Youre Gone - Avril Lavigne
Mr Cab Driver - Lenny Kravitz
Hiroshima Mon Amour - Alcatrazz
The Sun Goes Down - Thin Lizzy

Hi! Hope you enjoy backing track experience.
If you want to help us in the development of the project, feel free to donate!