I Think Im Paranoid - Garbage
00:00 / 00:00
Tabs and lyrics
Tunning: Standard (E A D G B e)
[Verse]
e|------------------|-------------------|
B|------------------|-------------------|
G|----12--10--------|---12---10---------|
D|---9--------10-12-|-------9----10-12--|
A|-10---10--10------|-10--10---10-------|
E|------------------|-------------------| (x5)

[Chorus]
W/ distortion
e|----------|--------------|
B|----------|---x---x-x----|
G|--x---x-x-|-x-8---8-5----|
D|--5---5-3-|-3-8---8-5----|
A|--5---5-3-|-3-6---6-3----|
E|--3---3-1-|-1------------| (x4)

e|-----------|----------|---------|
B|---10---11-|----10—11-|--10-11--|
G|-8---------|--8-------|-8-------|
D|-----------|----------|---------|
A|-----------|----------|---------|
E|-----------|----------|---------|

[Chorus]
(2nd part)
e|---------------------|----------------------------------|
B|---------------------|----------------------------------|
G|---------------------|9--9--9--9--9--9-9--9—9—9—9—9--9-9|
D|-5--5-5\3--3-3/8--8-8|-x------------------x-------------|
A|-5--5-5\3--3-3/8--8-8|-7------------------7-------------|
E|-3--3-3\1--1-1/6--6-6|----------------------------------|

e|---------------------|------------------|---------------|
B|---------------------|------------------|---------------|
G|--------------------|-7-7--7--7--7--7-7-|-7—7—7—7—7--7-7|
D|-5--5-5\3--3-3/8--8-8|-x----------------|--x------------|
A|-5--5-5\3--3-3/8--8-8|-5----------------|--5------------|
E|-3--3-3\1--1-1/6--6-6|----------------------------------|

[Verse]
e|------------------|-------------------|
B|------------------|-------------------|
G|----12--10--------|---12---10---------|
D|---9--------10-12-|-------9----10-12--|
A|-10---10--10------|-10--10---10-------|
E|------------------|-------------------| (x5)

[Chorus]
W/ distortion
e|----------|--------------|
B|----------|---x---x-x----|
G|--x---x-x-|-x-8---8-5----|
D|--5---5-3-|-3-8---8-5----|
A|--5---5-3-|-3-6---6-3----|
E|--3---3-1-|-1------------| (x4)

e|-----------|----------|---------|
B|---10---11-|----10—11-|--10-11--|
G|-8---------|--8-------|-8-------|
D|-----------|----------|---------|
A|-----------|----------|---------|
E|-----------|----------|---------|

[Solo 1]
e|-----------------|-------------|
B|-----------------|-------------|
G|--12h14*(15)--14-|-14*(15)-12--|
D|-----------------|-------------|
A|-----------------|-------------|
E|-----------------|-------------| (x4)

[Chorus]
(2nd part)
e|---------------------|----------------------------------|
B|---------------------|----------------------------------|
G|---------------------|9--9--9--9--9--9-9--9—9—9—9—9--9-9|
D|-5--5-5\3--3-3/8--8-8|-x------------------x-------------|
A|-5--5-5\3--3-3/8--8-8|-7------------------7-------------|
E|-3--3-3\1--1-1/6--6-6|----------------------------------|

e|---------------------|------------------|---------------|
B|---------------------|------------------|---------------|
G|--------------------|-7-7--7--7--7--7-7-|-7—7—7—7—7--7-7|
D|-5--5-5\3--3-3/8--8-8|-x----------------|--x------------|
A|-5--5-5\3--3-3/8--8-8|-5----------------|--5------------|
E|-3--3-3\1--1-1/6--6-6|----------------------------------|

[Interlude]
e|--------|------|-------|--------|
B|--------|------|-------|--------|
G|--------|------|-------|--------|
D|--------|------|-------|--5-----|
A|-2------|2-----|-2-----|--3-----|
E|-0--\\\-|0-\\\-|-0-\\\-|-\\\----| (x2)

e|----------|----------|---------------|
B|---10---11|----10--11|—--10\\\\\\\\\\|
G|-8--------|---8------|--8------------|
D|----------|----------|---------------|
A|----------|----------|---------------|
E|----------|----------|---------------|

[Chorus]
(2nd part)
e|---------------------|----------------------------------|
B|---------------------|----------------------------------|
G|---------------------|9--9--9--9--9--9-9--9—9—9—9—9--9-9|
D|-5--5-5\3--3-3/8--8-8|-x------------------x-------------|
A|-5--5-5\3--3-3/8--8-8|-7------------------7-------------|
E|-3--3-3\1--1-1/6--6-6|----------------------------------|

e|---------------------|------------------|---------------|
B|---------------------|------------------|---------------|
G|--------------------|-7-7--7--7--7--7-7-|-7—7—7—7—7--7-7|
D|-5--5-5\3--3-3/8--8-8|-x----------------|--x------------|
A|-5--5-5\3--3-3/8--8-8|-5----------------|--5------------|
E|-3--3-3\1--1-1/6--6-6|----------------------------------|

[Chorus]
W/ distortion
e|----------|--------------|
B|----------|---x---x-x----|
G|--x---x-x-|-x-8---8-5----|
D|--5---5-3-|-3-8---8-5----|
A|--5---5-3-|-3-6---6-3----|
E|--3---3-1-|-1------------| (x4)

e|-----------|----------|---------|
B|---10---11-|----10—11-|--10-11--|
G|-8---------|--8-------|-8-------|
D|-----------|----------|---------|
A|-----------|----------|---------|
E|-----------|----------|---------|

[Solo 2]
e|-------------------|----------------------|
B|---11---11-13///16-|----11----16-16-16-15-|
G|-12--12------------|--12---12-------------|
D|-------------------|----------------------|
A|-------------------|----------------------|
E|-------------------|----------------------| (x4)

[Verse]
e|------------------|-------------------|
B|------------------|-------------------|
G|----12--10--------|---12---10---------|
D|---9--------10-12-|-------9----10-12--|
A|-10---10--10------|-10--10---10-------|
E|------------------|-------------------| (x4)



************************************

| x Dead note
| / Slide up
| \ Slide down
| h Hammer-on

************************************
Tunning: Standard (E A D G B e)
Garbage
I Think I'm Paranoid


Main riff (Verse):

1 2 3 4 1 2 3 4
G F
e -------7---5-------------------5---|
b ---8-----8-----6-----8-----6-----6-|
g -----------------5/7-----5---------|
d -----------------------------------|
a -----------------------------------|
E -----------------------------------|

Intro:
G F (Main riff)
G F


[Verse]
G F G F
You can look, but you can't touch
G F G F
I don't think I like you much
G F G F
Heaven knows what a girl can do
G (break)
Heaven knows what you've got to prove

G(no 3rd) F(no 3rd) Eb(no 3rd) C(no 3rd)
I think I'm paranoid
G(no 3rd) F(no 3rd) Eb(no 3rd) C(no 3rd)
And complicated
G(no 3rd) F(no 3rd) Eb(no 3rd) C(no 3rd)
I think I'm paranoid
G(no 3rd) F(no 3rd) Eb(no 3rd) C(no 3rd)
Manipulate it


[Chorus]
Bb
Bend me, break me
F
Anyway you need me
Bb Dm
All I want is you
Bb
Bend me, break me
F
Breaking down is easy
Bb Dm
All I want is you

(Intro)

[Verse]
G F G F
I fall down just to give you a thrill
G F G F
Prop me up with another pill
G F G F
If I should fail, if I should fold
G (break)
I nailed my faith to the sticking pole

I think I'm paranoid
Manipulate it
I think I'm paranoid
And complicated


[Chorus]
Bb
Bend me, break me
F
Anyway you need me
Bb Dm
All I want is you
Bb
Bend me, break me
F
Breaking down is easy
Bb Dm
All I want is you


E E
Paranoid
E C(no 3rd)
I think I'm paranoid
E E
Paranoid
E C(no 3rd)
I think I'm paranoid

(Chorus)

G(no 3rd) F(no 3rd) Eb G(no 3rd) F(no 3rd) Eb
Steal me, deal me, anyway you heal me
G(no 3rd) F(no 3rd) Eb G(no 3rd) F(no 3rd) Eb
Maim me, tame me, you can never change me
G(no 3rd) F(no 3rd) Eb G(no 3rd) F(no 3rd) Eb
Love me, like me, come ahead and fight me
G(no 3rd) F(no 3rd) Eb G(no 3rd) F(no 3rd) Eb
Please me, tease me, go ahead and leave me

G (Main riff)
Bend me
F
Break me
G F
Anyway you need me
G F G F
As long as I want you baby it's all right

G
Bend me
F
Break me
G F
Any way you need me
G F G (break)
As long as I want you baby it's all right
Song info
I Think Im Paranoid
Garbage
2001
  • Electronic
  • Rock
  • Alternative Rock
  • Downtempo
  • Pop Rock
  • Trip Hop
Alternative tracks
Similar songs
One Night - Elvis Presley
Summer 69 - Bryan Adams
Wicked Garden - Stone Temple Pilots
Since Youve Been Gone - The Outfield
Here We Go Again - Demi Lovato

Hi! Hope you enjoy backing track experience.
If you want to help us in the development of the project, feel free to donate!