Cirice - Ghost
00:00 / 00:00
Tabs and lyrics
Tunning: Standard (E A D G B e)
Cirice - Ghost
Tabbed by:Austin Spencer

ShutUpAndPlayTuts's video-https://www.youtube.com/watch?v=JfHrQVrZWpM

Tuning: Standard D


[Intro]

0:00

Guitar 1
d|---------------------------------------------------------------------------|
A|--------0------------------------------------------------------------------|
F|--------------3-----0------------------------------------------------------| x3
C|-----2-----2-----4-----4--3------------------------------------------------|
G|-------------------------------3-2-1---------------------------------------|
D|--0------------------------------------2-1-0-------------------------------|

Guitar 1
d|---------------------------------------------------------------------------|
A|--------0------------------------------------------------------------------|
F|--------------3-----0------------------------------------------------------| x1
C|-----2-----2-----4-----4--3------------------------------------------------|
G|---------------------------------------6-----------------------------------|
D|--0----------------------------5-6-7---7-----------------------------------|

Guitar 1
d|---------------------------------------------------------------------------|
A|--------0------------------------------------------------------------------|
F|--------------3-----0------------------------------------------------------| x3
C|-----2-----2-----4-----4--3------------------------------------------------|
G|-------------------------------3-2-1---------------------------------------|
D|--0------------------------------------2-1-0-------------------------------|

Guitar 2
d|---------------------------------------------------------------------------|
A|---------------------------------------------------------------------------|
F|---------------------------------------------------------------------------|
C|-3-2-----------------------------------------------------------------------|
G|-3-2-----------------------------------------------------------------------|
D|-1-0-----------------------------------------------------------------------|

Guitar 1
d|---------------------------------------------------------------------------|
A|--------0------------------------------------------------------------------|
F|--------------3-----0------------------------------------------------------| x1
C|-----2-----2-----4-----4--3------------------------------------------------|
G|---------------------------------------6-----------------------------------|
D|--0----------------------------5-6-7---7-----------------------------------|


[Heavier Part]

0:44

Guitar 1
d|---------------------------------------------------------------------------|
A|---------------------------------------------------------------------------|
F|---------------------------------------------------------------------------| x3
C|----------9----8-----------------------------------------------------------|
G|------/10---10---9-10-9-8--------------------------------------------------|
D|---0------------------------8-7-6---2-1-0----------------------------------|

Guitar 2
d|---------------------------------------------------------------------------|
A|---------------------------------------------------------------------------|
F|---------------------------------------------------------------------------|
C|-3-2-----------------------------------------------------------------------|
G|-3-2-----------------------------------------------------------------------|
D|-1-0-----------------------------------------------------------------------|

Guitar 1
d|---------------------------------------------------------------------------|
A|---------------------------------------------------------------------------|
F|---------------------------------------------------------------------------|
C|----------9----8-----------------------------------------------------------|
G|------/10---10---9-10-9-8----------6---------------------------------------|
D|---0-----------------------5-6-7---7---------------------------------------|

Guitar 2
d|---------------------------------------------------------------------------|
A|---------------------------------------------------------------------------|
F|---------------------------------------------------------------------------|
C|---------------------------------------------------------------------------|
G|---------------------------------------------------------------------------|
D|---------------------------------------------------------------------------|


[Main Riff] x4

1:09

Guitar 1
d|---------------------------------------------------------------------------|
A|---------------------------------------------------------------------------|
F|--------------------------5-----5------------------------------------------| x4
C|-3-2--------0h2----2------3-----3-----2-1-0--------------------------------|
G|-3-2------------1--2------------------3-2-1--------------------------------|
D|-1-0----0-0--------0--0-0---0-0---0-0-------0-0----------------------------|

Guitar 2
d|---------------------------------------------------------------------------|
A|---------------------------------------------------------------------------|
F|--------------------------5-----5------------------------------------------| x4
C|-3-2--------0h2----2------3-----3-----2-1-0--------------------------------|
G|-3-2------------1--2------------------3-2-1--------------------------------|
D|-1-0----0-0--------0--0-0---0-0---0-0-------0-0----------------------------|


[Can you Hear the Rumble?] x2

1:30

Guitar 1
d|---------------------------------------------------------------------------|
A|---------------------------------------------------------------------------|
F|---------------------------------------------------------------------------| x2
C|-3/7-------------------------3------3--------------------------------------|
G|-3/7-------7-6------6-5------3------3--------------------------------------|
D|-1/5--0-0--8-7--0-0-7-6--0-0-1--0-0-1--0-0---------------------------------|

Guitar 2
d|---------------------------------------------------------------------------|
A|---------------------------------------------------------------------------|
F|---------------------------------------------------------------------------| x2
C|-3/7-------------------------3------3--------------------------------------|
G|-3/7-------7-6------6-5------3------3--------------------------------------|
D|-1/5--0-0--8-7--0-0-7-6--0-0-1--0-0-1--0-0---------------------------------|


[Piano Break]


[Main Riff] x4

Guitar 1
d|---------------------------------------------------------------------------|
A|---------------------------------------------------------------------------|
F|--------------------------5-----5------------------------------------------| x4
C|-3-2--------0h2----2------3-----3-----2-1-0--------------------------------|
G|-3-2------------1--2------------------3-2-1--------------------------------|
D|-1-0----0-0--------0--0-0---0-0---0-0-------0-0----------------------------|

Guitar 2
d|---------------------------------------------------------------------------|
A|---------------------------------------------------------------------------|
F|--------------------------5-----5------------------------------------------| x4
C|-3-2--------0h2----2------3-----3-----2-1-0--------------------------------|
G|-3-2------------1--2------------------3-2-1--------------------------------|
D|-1-0----0-0--------0--0-0---0-0---0-0-------0-0----------------------------|


[Can you Hear the Thunder?] x2

Guitar 1
d|---------------------------------------------------------------------------|
A|---------------------------------------------------------------------------|
F|---------------------------------------------------------------------------| x2
C|-3/7-------------------------3------3--------------------------------------|
G|-3/7-------7-6------6-5------3------3--------------------------------------|
D|-1/5--0-0--8-7--0-0-7-6--0-0-1--0-0-1--0-0---------------------------------|

Guitar 2
d|---------------------------------------------------------------------------|
A|---------------------------------------------------------------------------|
F|---------------------------------------------------------------------------| x2
C|-3/7-------------------------3------3--------------------------------------|
G|-3/7-------7-6------6-5------3------3--------------------------------------|
D|-1/5--0-0--8-7--0-0-7-6--0-0-1--0-0-1--0-0---------------------------------|


[Main Riff] x2

Guitar 1
d|---------------------------------------------------------------------------|
A|---------------------------------------------------------------------------|
F|--------------------------5-----5------------------------------------------| x4
C|-3-2--------0h2----2------3-----3-----2-1-0--------------------------------|
G|-3-2------------1--2------------------3-2-1--------------------------------|
D|-1-0----0-0--------0--0-0---0-0---0-0-------0-0----------------------------|

Guitar 2
d|---------------------------------------------------------------------------|
A|---------------------------------------------------------------------------|
F|--------------------------5-----5------------------------------------------| x4
C|-3-2--------0h2----2------3-----3-----2-1-0--------------------------------|
G|-3-2------------1--2------------------3-2-1--------------------------------|
D|-1-0----0-0--------0--0-0---0-0---0-0-------0-0----------------------------|


[Vocal Break]


[Chorus]

(I can feel the thunder that's breaking in your heart)

3:31

Guitar 1
d|---------------------------------------------------------------------------|
A|-----------------------------------------------8-7--6-6--------------------|
F|-----5-4----5-7---5-4------------------5-4-----7-7--5-5--------------------|x2
C|-----------------------5-------5/7-----------------------------------------|
G|--0-------0-----0--------5---5------0-------0------------------------------|
D|---------------------------3-----------------------------------------------|

Guitar 2
d|---------------------------------------------------------------------------|
A|---------------------------------------------------------------------------|
F|---------------------------------------------------------------------------|x2
C|-2-7---7--5-5---3---3--3--3--5--5---7--7---5-5---3---3--3--3---------------|
G|-2-7---7--5-5---3---3--3--3--5--5---7--7---5-5---3---3--3--3---------------|
D|-0-5---5--3-3-0-1---1--1--1--3--3-0-5--5-0-3-3-0-1---1--1--1---------------|


[Just Guitar Before Solo]

4:01

Guitar 1
d|---------------------------------------------------------------------------|
A|---------------------------------------------------------------------------|
F|-----5-4----5-7---5-4------------------------------------------------------|
C|-----------------------5-------5/7-----------------------------------------|
G|--0-------0-----0--------5---5---------------------------------------------|
D|---------------------------3-----------------------------------------------|

Guitar 2
d|---------------------------------------------------------------------------|
A|---------------------------------------------------------------------------|
F|---------------------------------------------------------------------------|
C|---------------------------------2-7---------------------------------------|
G|---------------------------------2-7---------------------------------------|
D|---------------------------------0-5---------------------------------------|


[Solo]

tutorial
https://www.youtube.com/watch?v=JfHrQVrZWpM


[After Solo]

Guitar 1
d|---------------------------------------------------------------------------|
A|---------------------------------------------------------------------------|
F|--------------------------5-----5------------------------------------------|
C|-3-2--------0h2----2------3-----3-----2-1-0--------------------------------|
G|-3-2------------1--2------------------3-2-1--------------------------------|
D|-1-0----0-0--------0--0-0---0-0---0-0-------0-0----------------------------|

Guitar 2
d|---------------------------------------------------------------------------|
A|---------------------------------------------------------------------------|
F|--------------------------5-----5------------------------------------------|
C|-3-2--------0h2----2------3-----3-----2-1-0--------------------------------|
G|-3-2------------1--2------------------3-2-1--------------------------------|
D|-1-0----0-0--------0--0-0---0-0---0-0-------0-0----------------------------|

Guitar 1
d|---------------------------------------------------------------------------|
A|---------------------------------------------------------------------------|
F|--------------------------5-----5-------------5-----5----------------------|
C|-3-2--------0h2----2------3-----3-----2-1-0---3-----3-----2-1-0------------|
G|-3-2------------1--2------------------3-2-1---------------3-2-1------------|
D|-1-0----0-0--------0--0-0---0-0---0-0-------0---0-0---0-0------------------|


[Chorus]x4

Guitar 1
d|---------------------------------------------------------------------------|
A|-----------------------------------------------8-7--6-6--------------------|
F|-----5-4----5-7---5-4------------------5-4-----7-7--5-5--------------------|x2
C|-----------------------5-------5/7-----------------------------------------|
G|--0-------0-----0--------5---5------0-------0------------------------------|
D|---------------------------3-----------------------------------------------|

Guitar 2
d|---------------------------------------------------------------------------|
A|---------------------------------------------------------------------------|
F|---------------------------------------------------------------------------|x2
C|-2-7---7--5-5---3---3--3--3--5--5---7--7---5-5---3---3--3--3---------------|
G|-2-7---7--5-5---3---3--3--3--5--5---7--7---5-5---3---3--3--3---------------|
D|-0-5---5--3-3-0-1---1--1--1--3--3-0-5--5-0-3-3-0-1---1--1--1---------------|


[Outro]

Guitar 1
d|---------------------------------------------------------------------------|
A|--7------------------------------------------------------------------------|
F|--7------------------------------------------------------------------------|
C|--7--2---------------------------------------------------------------------|
G|--5--2---------------------------------------------------------------------|
D|-----0---------------------------------------------------------------------|

Guitar 2
d|---------------------------------------------------------------------------|
A|--7------------------------------------------------------------------------|
F|--7------------------------------------------------------------------------|
C|--7--2---------------------------------------------------------------------|
G|--5--2---------------------------------------------------------------------|
D|-----0---------------------------------------------------------------------|


***********************************
| / Slide up
| h Hummer-on
***********************************
Tunning: D tuning (D G C F A D)
Ghost - Cirice
By MasukaGuitar channel (https://www.youtube.com/user/masukaguitar)


[Intro] (00:00)

D|-------------------------------------------------------------------------------------------|
A|-------------------------------------------------------------------------------------------|
F|---------4-----3-----0------------------------------4-----3-----0--------------------------|
C|------2-----2-----4-----4-3----------------------2-----2-----4-----4-3---------------------|
G|--------------------------------3-2-1--------------------------------------3-2-1-----------|
D|---0------------------------------------2-1---0------------------------------------2-1-----|

D|----------------------------------------------------3-----2--------------------------------|
A|-------------------------------------------------------------------------------------------|
F|---------4-----3-----0---------------------------4-----4-----5-4-3-2-----------------------|
C|------2-----2-----4-----4-3----------------------------------------------------------------|
G|--------------------------------3-2-1---------------------------------0-1-2--2-------------|
D|---0------------------------------------2-1---0----------------------------------1---------|


[Intro 2] (00:47)

D|-------------------------------------------------------------------------------------------|
A|-------------------------------------------------------------------------------------------|
F|--------4-----3------------------------------------4-----3---------------------------------|
C|----/2-----2-----4-4/5-4-3---------------------/2-----2-----4-4/5-4-3----------------------|
G|-----------------------------3-2-1--------------------------------------3-2-1--------------|
D|--0----------------------------------2-1-----0----------------------------------2-1--------|
p.m.[...] [...]
D|---------------------------------------------------3-----2---------------------------------|
A|-------------------------------------------------------------------------------------------|
F|--------4-----3---------------------------------4-----4-----5-4-3-2------------------------|
C|----/2-----2-----4-4/5-4-3---------------------------------------------1-2--1--------------|
G|-----------------------------3-2-1-----------------------------------3---------------------|
D|--0----------------------------------2-1-----0---------------------------------------------|
p.m.[...]


[Riff 1] (01:10)

D|-------------------------------------------------------------------------------------------|2X
A|-------------------------------------------------------------------------------------------|
F|-------------------------------------------------------------------------------------------|
C|------------------10--10-------------------------------10--10------------------------------|
G|----3-2--/7-------8---8----3-2-1---------3-2--/7-------8---8----3-2-1----------------------|
D|----1-0-----6-0--------------------------1-0-----6-0---------------------------------------|

D|-------------------------------------------------------------------------------------------|
A|-------------------------------------------------------------------------------------------|
F|-------------------------------------------------------------------------------------------|
C|-------------------------------------------------------------------------------------------|
G|---------3-7-/7-6~-/6-5~--3---3-----------3-7-/7-6~-/6-5~--3---3---------------------------|
D|---------1-5--------------1---1-----------1-5--------------1---1---------------------------|

D|-------------------------------------------------------------------------------------------|
A|-------------------------------------------------------------------------------------------|
F|-------------------------------------------------------------------------------------------|
C|------------------10--10-------------------------------10--10------------------------------|
G|----3-2--/7-------8---8----3-2-1---------3-2--/7-------8---8----3-2-1----------------------|
D|----1-0-----6-0--------------------------1-0-----6-0---------------------------------------|

RIFF 1 AGAIN (02:38)


[CHORUS] (03:35)

D|-------------------------------------------------------------------------------------------|2X
A|-------------------------------------------------------------------------------------------|
F|----------------------------------------------------------12-12-11----10-------------------|
C|------10-9----10-7---10-9-----5--------5/7-------10-9-----12-12-12-12-12-------------------|
G|--0-7-------0------0-------0----5----5-------0-7-------0-----------------------------------|
D|0---------------------------------3---------------------------------------1--1-1-1---------|


[SOLO] (04:01)

D|---------------------------12b13r12\8---8-10-12-15b17r-----17-19br-15----14b15r 14~----------|
A|--10-12b13r/8---8/10----10------------8----------------/17------------15-----------15b17-15~-|
F|9-------------7------10----------------------------------------------------------------------|
C|---------------------------------------------------------------------------------------------|
G|---------------------------------------------------------------------------------------------|
D|---------------------------------------------------------------------------------------------|

D|---------------------------------------------------------------------------------------------|
A|---------------------------------------------------------------------------------------------|
F|--------------------7b9r----7-----------------------------------------------9----------------|
C|---7-10p7----7--10-------10---10-7~-------------------9-------9-10p9---9h10---12~------------|
G|----------10--------------------------8-10-12-8-10-12---10-12--------12----------------------|
D|---------------------------------------------------------------------------------------------|

D|---------------------------------------------------------------17-16-------------------------|
A|---------------------12-13~-13-12h13p12 10-----15b----20b--17--------17-13-------------------|
F|------------10h12h14-----------------------12------14----------------------16-14-13brbrbrbrbr|
C|-9/10h12h14----------------------------------------------------------------------------------|
G|---------------------------------------------------------------------------------------------|
D|---------------------------------------------------------------------------------------------|


[RIFF SOLO] (04:27)

D|---------------------------------------------------------------------------------------------|
A|---------------------------------------------------------------------------------------------|
F|---------------------------------------------------------------------------------------------|
C|---------------10--10---------------------------10--10----------10--10-----------------------|
G|-3-2--/7-------8---8----3-2-1-----3-2--/7-------8---8-----------8---8---3-2-1----------------|
D|-1-0-----6-0----------------------1-0-----6-0------------3-2-1-------------------------------|


[FINAL CHORUS] (04:50)

D|-------------------------------------------------------------------------------------------|2X
A|-------------------------------------------------------------------------------------------|
F|----------------------------------------------------------12-12-11----10-------------------|
C|------10-9----10-7---10-9-----5--------5/7-------10-9-----12-12-12-12-12-------------------|
G|--0-7-------0------0-------0----5----5-------0-7-------0-----------------------------------|
D|0---------------------------------3---------------------------------------1--1-1-1---------|


D|-------------------------------------------------------------------------------------------|
A|-------------------------------------------------------------------------------------------|
F|----------------------------------------------------------12-12-11----10-------------------|
C|------10-9----10-7---10-9-----5--------5/7-------10-9-----12-12-12-12-12--/xx--------------|
G|--0-7-------0------0-------0----5----5-------0-7-------0------------------/xx--------------|
D|0---------------------------------3---------------------------------------/xx--------------|

D|-------------------------------------------------------------------------------------------|
A|-------------------------------------------------------------------------------------------|
F|----------------------------------------------------------12-12-11--10--9----9---7---------|
C|-------10-9----10-7---10-9-----5--------5/7------10-9-----12-12-12--12-12---12---8---------|
G|---0-7-------0------0-------0----5----5------0-7-------0-----------------------------------|
D|-------------------------------------------------------------------------------------0-----|



************************************

| h Hammer-on
| p Pull-off
| r Release
| b Bend
| br Bend release
| / Slide up
| \ Slide down
| ~ Vibrato

************************************
Song info
Cirice
Ghost
2001
  • Rock
  • Doom Metal
  • Heavy Metal
Alternative tracks
Similar songs
Devil Eyes - Mercyful Fate
Carolus Rex - Sabaton
Strange World - Iron Maiden
In Your Face - Children of Bodom

Hi! Hope you enjoy backing track experience.
If you want to help us in the development of the project, feel free to donate!