21 Guns - Green Day
00:00 / 00:00
Tabs and lyrics
Tunning: Standard (E A D G B e)
-------------------------------------------------------------------------------
21 guns - GREEN DAY
-------------------------------------------------------------------------------
Tabbed by: canariesz


Loved this song so much off the new album so thought i'd submit it as my first
ever tab...Please leave comments : )

Listen to the song for timings......

Tuning: standard

INTRO

(lots of reverb)

e|---------------------------------------------------------------------------|
B|----------10---------------------------------------------------------------|
G|---10--7------9------------------------------------------------------------|
D|---------------------------------------------------------------------------|
A|---------------------------------------------------------------------------|
E|---------------------------------------------------------------------------| x 2


VERSE

( Clean)

e|---------------------------------------------------------------------------|
B|---------------------------------------------------------------------------]
G|--7--3-----5 ----7--3-----5----7--3-----5----3--5--------------------------|
D|--7--3--3--5-----7--3--3--5----7--3--3--5----3--5--------------------------|
A|--5--1--3--3-----5--1--3--3----5--1--3--3----1--3--------------------------|
E|--------1--------------1-------------1-------------------------------------|

e|---------------------------------------------------------------------------|
B|---------------------------------------------------------------------------]
G|--7--3-----5 ----7--3-----5----7--3-----5----3----------5------------------|
D|--7--3--3--5-----7--3--3--5----7--3--3--5----3----------5------------------|
A|--5--1--3--3-----5--1--3--3----5--1--3--3----1----------3------------------|
E|--------1--------------1-------------1-------------------------------------|

CHORUS

(Distored)

e|---------------------------------------------------------------------------|
B|---------------------------------------------------------------------------|
G|---------7---5--3-----5---------7--5--3-----5--3-----5---------------------|
D|--3---3--7---5--3--3--5---3--3--7--5--3--3--5--3--3--5---------------------|
A|--3---3--5---3--1--3--3---3--3--5--3--1--3--3--1--3--3---------------------|
E|--1---0------------1------1--0-----------1--------1------------------------|

VERSE

( Clean)

e|---------------------------------------------------------------------------|
B|---------------------------------------------------------------------------]
G|--7--3-----5 ----7--3-----5----7--3-----5----3--5--------------------------|
D|--7--3--3--5-----7--3--3--5----7--3--3--5----3--5--------------------------|
A|--5--1--3--3-----5--1--3--3----5--1--3--3----1--3--------------------------|
E|--------1--------------1-------------1-------------------------------------|

e|---------------------------------------------------------------------------|
B|---------------------------------------------------------------------------]
G|--7--3-----5 ----7--3-----5----7--3-----5----3----------5------------------|
D|--7--3--3--5-----7--3--3--5----7--3--3--5----3----------5------------------|
A|--5--1--3--3-----5--1--3--3----5--1--3--3----1----------3------------------|
E|--------1--------------1-------------1-------------------------------------|

BRIDGE

e|---------------------------------------------------------------------------|
B|---------------------------------------------------------------------------]
G|--7--3-----5 ----7--3-----6----7--3-----5----3--5--------------------------|
D|--7--3--3--5-----7--3--3--7----7--3--3--5----3--5--------------------------|
A|--5--1--3--3-----5--1--3--4----5--1--3--3----1--3--------------------------|
E|--------1--------------1-------------1-------------------------------------|

SOLO CHORDS

e|---------------------------------------------------------------------------|
B|---------------------------------------------------------------------------|
G|---------7---5--3-----5---------7--5--3-----5--3---------------------------|
D|--3---3--7---5--3--3--5---3--3--7--5--3--3--5--3--3--7---------------------|
A|--3---3--5---3--1--3--3---3--3--5--3--1--3--3--1--3--7---------------------|
E|--1---0------------1------1--0-----------1--------1--5---------------------|

REPEAT INTRO

e|---------------------------------------------------------------------------|
B|----------10---------------------------------------------------------------|
G|---10--7------9------------------------------------------------------------|
D|---------------------------------------------------------------------------|
A|---------------------------------------------------------------------------|
E|--------------------------------------------------------------------------- x2

(CLEAN)

e|---------------------------------------------------------------------------|
B|---------------------------------------------------------------------------]
G|--7--3-----5 ----7--3-----5----7--3-----5----3-----------------------------|
D|--7--3--3--5-----7--3--3--5----7--3--3--5----3-----------------------------|
A|--5--1--3--3-----5--1--3--3----5--1--3--3----1-----------------------------|
E|--------1--------------1-------------1-------------------------------------|

REPEAT CHORUS

(Distored)

e|---------------------------------------------------------------------------|
B|---------------------------------------------------------------------------|
G|---------7---5--3-----5---------7--5--3-----5------------------------------|
D|--3---3--7---5--3--3--5---3--3--7--5--3--3--5------------------------------|
A|--3---3--5---3--1--3--3---3--3--5--3--1--3--3------------------------------|
E|--1---0------------1------1--0-----------1---------------------------------|

e|---------------------------------------------------------------------------|
B|---------------------------------------------------------------------------|
G|---------7---5--3-----5---------7--5--3-----5--3-----5---------------------|
D|--3---3--7---5--3--3--5---3--3--7--5--3--3--5--3--3--5---------------------|
A|--3---3--5---3--1--3--3---3--3--5--3--1--3--3--1--3--3---------------------|
E|--1---0------------1------1--0-----------1--------1------------------------|


THAT SHOULD BE ALL....ANY COMMENTS WOULD BE APPRECIATED......

i'M GOING TO TRY AND ADD THE LEAD GUITAR LATER




| / slide up
| \ slide down
| h hammer-on
| p pull-off
| ~ vibrato
| + harmonic
| x Mute note
===============================================================================
Tunning: Standard (E A D G B e)
Tuning: Standard - EADGBe

(Guitar 2 bit played throughout the song during all verses (pick strings with your thumb
index finger))
e|---------------------------------------------------------------------------|
B|---6---3--10---5-----------------------------------------------------------|
G|---------------------------------------------------------------------------|
D|---------------------------------------------------------------------------|
A|---5---1---8---3-----------------------------------------------------------|
E|---------------------------------------------------------------------------|

[Verse]
(guitar 1)
e|---0---1---1-------0---1---1-------0---1---1-------1-----------------------|
B|---3---1---1---1---3---1---1---1---3---1---1---1---1--x8-1--x8-------------|
G|---2---3---2---0---2---3---2---0---2---3---2---0---3-----0-----------------|
D|---0---3---3---2---0---3---3---2---0---3---3---2---3-----2-----------------|
A|-------1---3---3-------1---3---3-------1---3---3---1-----3-----------------|
E|-----------1---------------1---------------1-------------------------------|

e|---0---1---1-------0---1---1-------0---1---1-------1~----------------------|
B|---3---1---1---1---3---1---1---1---3---1---1---1---1~----------------------|
G|---2---3---2---0---2---3---2---0---2---3---2---0---3~---------5------------|
D|---0---3---3---2---0---3---3---2---0---3---3---2---3~---------5------------|
A|-------1---3---3-------1---3---3-------1---3---3---1~---------3------------|
E|-----------1---------------1---------------1-------------------------------|

[Chorus]
(both guitars)
e|---------------------------------------------------------------------------|
B|---------------------------------------------------------------x2----------|
G|--------------7-7---5-5-5-5--3-3-3-3---------5-5-5-5-5-5-5-5---------------|
D|--3-3---2-2---7-7---5-5-5-5--3-3-3-3-3-3-3-3-5-5-5-5-5-5-5-5---------------|
A|--3-3---3-3---5-5---3-3-3-3--1-1-1-1-3-3-3-3-3-3-3-3-3-3-3-3---------------|
E|--1-1---0-0--------------------------1-1-1-1-------------------------------|

e|---------------------------------------------------------------------------|
B|---------------------------------------------------------------------------|
G|--3-3-3-3----------5~------------------------------------------------------|
D|--3-3-3-3-3-3-3-3--5~------------------------------------------------------|
A|--1-1-1-1-3-3-3-3--3~------------------------------------------------------|
E|----------1-1-1-1----------------------------------------------------------|

[Verse]
(guitar 1)
e|---0---1---1-------0---1---1-------0---1---1-------1-----------------------|
B|---3---1---1---1---3---1---1---1---3---1---1---1---1--x8-1--x8-------------|
G|---2---3---2---0---2---3---2---0---2---3---2---0---3-----0-----------------|
D|---0---3---3---2---0---3---3---2---0---3---3---2---3-----2-----------------|
A|-------1---3---3-------1---3---3-------1---3---3---1-----3-----------------|
E|-----------1---------------1---------------1-------------------------------|

e|---0---1---1-------0---1---1-------0---1---1-------1~----------------------|
B|---3---1---1---1---3---1---1---1---3---1---1---1---1~----------------------|
G|---2---3---2---0---2---3---2---0---2---3---2---0---3~---------5------------|
D|---0---3---3---2---0---3---3---2---0---3---3---2---3~---------5------------|
A|-------1---3---3-------1---3---3-------1---3---3---1~---------3------------|
E|-----------1---------------1---------------1-------------------------------|

[Chorus]
(both guitars)
e|---------------------------------------------------------------------------|
B|---------------------------------------------------------------x2----------|
G|--------------7-7---5-5-5-5--3-3-3-3---------5-5-5-5-5-5-5-5---------------|
D|--3-3---2-2---7-7---5-5-5-5--3-3-3-3-3-3-3-3-5-5-5-5-5-5-5-5---------------|
A|--3-3---3-3---5-5---3-3-3-3--1-1-1-1-3-3-3-3-3-3-3-3-3-3-3-3---------------|
E|--1-1---0-0--------------------------1-1-1-1-------------------------------|

e|---------------------------------------------------------------------------|
B|---------------------------------------------------------------------------|
G|--3-3-3-3----------5-5-5-5-5-5-5-5-----------------------------------------|
D|--3-3-3-3-3-3-3-3--5-5-5-5-5-5-5-5-----------------------------------------|
A|--1-1-1-1-3-3-3-3--3-3-3-3-3-3-3-3-----------------------------------------|
E|----------1-1-1-1----------------------------------------------------------|

[Bridge]
(Guitar 1)
e|---------------------------------------------------------------------------|
B|---------------------------------------------------------------------------|
G|--7-7--3-3--------5-5-5-5--7-7--3-3-----------2-2-2-2----------------------|
D|--7-7--3-3--3-3---5-5-5-5--7-7--3-3--3-3-3-3--2-2-2-2----------------------|
A|--5-5--1-1--3-3---3-3-3-3--5-5--1-1--3-3-3-3--0-0-0-0----------------------|
E|------------1-1----------------------1-1-1-1-------------------------------|

e|---------------------------------------------------------------------------|
B|---------------------------------------------------------------------------|
G|--7-7--3-3---------------2-2-2-2--3-3-3-3-3-3-3-3--5-5-5-5-5-5-5-5---------|
D|--7-7--3-3--3-3-3-3------2-2-2-2--3-3-3-3-3-3-3-3--5-5-5-5-5-5-5-5---------|
A|--5-5--1-1--3-3-3-3------0-0-0-0--1-1-1-1-1-1-1-1--3-3-3-3-3-3-3-3---------|
E|------------1-1-1-1--------------------------------------------------------|

[Bridge]
(Guitar 2)
e|---------------------------------------------------------------------------|
B|--6--6--6--6-6--6--6--5-5-5-5--6--6--6--6-6--6--6--5-5-5-5-----------------|
G|---7--7--7-------5--5-----------7--7--7-------5--5-------------------------|
D|---------------------------------------------------------------------------|
A|---------------------------------------------------------------------------|
E|---------------------------------------------------------------------------|

e|---------------------------------------------------------------------------|
B|--6--6--6--6-6--6--6--5-5-5-5----------------------------------------------|
G|---7--7--7-------5--5----------3-3-3-3-3-3-3-3--5-5-5-5-5-5-5-5------------|
D|-------------------------------3-3-3-3-3-3-3-3--5-5-5-5-5-5-5-5------------|
A|-------------------------------1-1-1-1-1-1-1-1--3-3-3-3-3-3-3-3------------|
E|---------------------------------------------------------------------------|

[Solo]
(guitar 1)
e|---------------------------------------------------------------------------|
B|---------------------------------------------------------------------------|
G|--------------------7-7-7-7--5-5-5-5--3-3-3-3---------5-5-5-5-5-5-5-5------|
D|--3-3-3-3--2-2-2-2--7-7-7-7--5-5-5-5--3-3-3-3-3-3-3-3-5-5-5-5-5-5-5-5------|
A|--3-3-3-3--3-3-3-3--5-5-5-5--3-3-3-3--1-1-1-1-3-3-3-3-3-3-3-3-3-3-3-3------|
E|--1-1-1-1--0-0-0-0----------------------------1-1-1-1----------------------|

e|---------------------------------------------------------------------------|
B|---------------------------------------------------------------------------|
G|--------------------7-7-7-7--5-5-5-5--3-3-3-3-----------5-5-5-5-5-5-5-5----|
D|--3-3-3-3--2-2-2-2--7-7-7-7--5-5-5-5--3-3-3-3--3-3-3-3--5-5-5-5-5-5-5-5----|
A|--3-3-3-3--3-3-3-3--5-5-5-5--3-3-3-3--1-1-1-1--3-3-3-3--3-3-3-3-3-3-3-3----|
E|--1-1-1-1--0-0-0-0-----------------------------1-1-1-1---------------------|

e|---------------------------------------------------------------------------|
B|---------------------------------------------------------------------------|
G|--3-3-3-3-----------2-2-2-2-2-2-2-2----------------------------------------|
D|--3-3-3-3--3-3-3-3--2-2-2-2-2-2-2-2----------------------------------------|
A|--1-1-1-1--3-3-3-3--0-0-0-0-0-0-0-0----------------------------------------|
E|-----------1-1-1-1---------------------------------------------------------|

[Solo]
(Guitar 2)
e|---------------------------------------------------------------------------|
B|------10-6-8-8h10p6--6---5-5h6p3--3----1------5--5--5-6-8------------------|
G|----5---------------7--7---------3--3----2---------------------------------|
D|--3----------------------------------------3-------------------------------|
A|---------------------------------------------------------------------------|
E|---------------------------------------------------------------------------|

e|---------------------------------------------------------------------------|
B|------10-6-8-8h10p6--6---5-5h6p3--3----1------5--5--5-6--16^---------------|
G|----5---------------7--7---------3--3----2---------------16^---------------|
D|--3----------------------------------------3-------------------------------|
A|---------------------------------------------------------------------------|
E|---------------------------------------------------------------------------|

e|---------------------------------------------------------------------------|
B|------10-6-8-8h10p6--6---5-5h6p3--3----1------5--5--5-6--16^---------------|
G|----5---------------7--7---------3--3----2---------------16^---------------|
D|--3----------------------------------------3-------------------------------|
A|---------------------------------------------------------------------------|
E|---------------------------------------------------------------------------|

(not quite sure about this bit)
e|---------------------------------------------------------------------------|
B|----2-----1-------5-5-5-5--------------------------------------------------|
G|--3---3-----2--------------------------------------------------------------|
D|--------3-----3------------------------------------------------------------|
A|---------------------------------------------------------------------------|
E|---------------------------------------------------------------------------|

(Guitar 2 plays this bit alone then guitar 1 joins in)
e|---------------------------------------------------------------------------|
B|---6---3--10---5---6---3--10---5-------------------------------------------|
G|---------------------------------------------------------------------------|
D|---------------------------------------------------------------------------|
A|---5---1---8---3---5---1---8---3-------------------------------------------|
E|---------------------------------------------------------------------------|

[Final verse]
(Guitar 1)
e|---0---1---1-------0---1---1-------0---1---1-------1~----------------------|
B|---3---1---1---1---3---1---1---1---3---1---1---1---1~----------------------|
G|---2---3---2---0---2---3---2---0---2---3---2---0---3~----------------------|
D|---0---3---3---2---0---3---3---2---0---3---3---2---3~----------------------|
A|-------1---3---3-------1---3---3-------1---3---3---1~----------------------|
E|-----------1---------------1---------------1-------------------------------|

[Final Chorus]
(Guitar 1)
e|---------------------------------------------------------------------------|
B|---------------------------------------------------------------x4----------|
G|--------------7-7---5-5-5-5--3-3-3-3---------5-5-5-5-5-5-5-5---------------|
D|--3-3---2-2---7-7---5-5-5-5--3-3-3-3-3-3-3-3-5-5-5-5-5-5-5-5---------------|
A|--3-3---3-3---5-5---3-3-3-3--1-1-1-1-3-3-3-3-3-3-3-3-3-3-3-3---------------|
E|--1-1---0-0--------------------------1-1-1-1-------------------------------|

e|---------------------------------------------------------------------------|
B|---------------------------------------------------------------------------|
G|--3-3-3-3----------5~------------------------------------------------------|
D|--3-3-3-3-3-3-3-3--5~------------------------------------------------------|
A|--1-1-1-1-3-3-3-3--3~------------------------------------------------------|
E|----------1-1-1-1----------------------------------------------------------|

[Final Chorus]
(Guitar 2)
e|---------------------------------------------------------------------------|
B|---6--6--8--8--6--6--5--5------2-----1------5--5--5-6-8--------------------|
G|----5--5--5--5--7--7--5--5---3---3-----2-----------------------------------|
D|-----------------------------------3-----3---------------------------------|
A|---------------------------------------------------------------------------|
E|---------------------------------------------------------------------------|

e|---------------------------------------------------------------------------|
B|---6--6--8--8--6--6--5--5------2-----1------5--5--5-6-8--------------------|
G|----5--5--5--5--7--7--5--5---3---3-----2-----------------------------------|
D|-----------------------------------3-----3---------------------------------|
A|---------------------------------------------------------------------------|
E|---------------------------------------------------------------------------|

e|---------------------------------------------------------------------------|
B|---------------------------------------------------------------------------|
G|--3-3-3-3----------5~------------------------------------------------------|
D|--3-3-3-3-3-3-3-3--5~------------------------------------------------------|
A|--1-1-1-1-3-3-3-3--3~------------------------------------------------------|
E|----------1-1-1-1----------------------------------------------------------|


************************************

| x Dead note
| ~ Vibrato
| h Hammer-on
| p Pull-off

************************************
Tunning: Standard (E A D G B e)
Here it is, full song, correct solo.


[INTRO] (slide):

e|-----1-----------5---------|
B|----------3------------5---|
G|---------------------------|
D|---------------------------| x2
A|---------------------------|
E|---------------------------|


[VERSE]

Do you know what's worth fighting for,
e|-1-1--------------1-1-----------|
B|-3-3--------------1-1---1-1--111|
G|-2-2------3-3-----2-2---0-0--000|
D|-0-0------3-3-----3-3---2-2--222|
A|----------1-1-----------3-3--333|
E|--------------------------------|

When it's not worth dying for?
e|-1-1--------------1-1-----------|
B|-3-3--------------1-1---1-1--111|
G|-2-2------3-3-----2-2---0-0--000|
D|-0-0------3-3-----3-3---2-2--222|
A|----------1-1-----------3-3--333|
E|--------------------------------|

Does it take your breath away?
e|-1-1--------------1-1-----------|
B|-3-3--------------1-1---1-1--111|
G|-2-2------3-3-----2-2---0-0--000|
D|-0-0------3-3-----3-3---2-2--222|
A|----------1-1-----------3-3--333|
E|--------------------------------|

And you feel yourself suffocating?
e|------------------------------------------|
B|--------------------1-1-1-1-1-1-1-1-------|
G|-3-3-3-3-3-3-3-3----0-0-0-0-0-0-0-0-------|
D|-3-3-3-3-3-3-3-3----2-2-2-2-2-2-2-2-------|
A|-1-1-1-1-1-1-1-1----3-3-3-3-3-3-3-3-------|
E|------------------------------------------|

Does the pain weigh out the pride,
e|-1-1--------------1-1-----------|
B|-3-3--------------1-1---1-1--111|
G|-2-2------3-3-----2-2---0-0--000|
D|-0-0------3-3-----3-3---2-2--222|
A|----------1-1-----------3-3--333|
E|--------------------------------|

And you look for a place to hide?
e|-1-1--------------1-1-----------|
B|-3-3--------------1-1---1-1--111|
G|-2-2------3-3-----2-2---0-0--000|
D|-0-0------3-3-----3-3---2-2--222|
A|----------1-1-----------3-3--333|
E|--------------------------------|

Did someone break your heart inside?
e|-1-1--------------1-1-----------|
B|-3-3--------------1-1---1-1--111|
G|-2-2------3-3-----2-2---0-0--000|
D|-0-0------3-3-----3-3---2-2--222|
A|----------1-1-----------3-3--333|
E|--------------------------------|

You're in ruins
e|------------------|
B|------------------|
G|------3-----------|
D|------3-----------|
A|------1-----------|
E|------------------|


[CHORUS]

One, 21 guns
Lay down your arms
Give up the fight
One, 21 guns
Throw up your arms into the sky,
You and I


e|-----|---------------------------------------- | -------------|
B|-----|---------------------------------------- | -------------|
G|--5--|----------77--5555--3333------55555555-- | 3333------5--|
D|--5--|--33--22--77--5555--3333-3333-55555555-- x2 | then 3333-3333-5--|
A|--3--|--33--33--55--3333--1111-3333-33333333-- | 1111-3333-3--|
E|-----|--11--00-----------------1111----------- | -----1111----|

(You and I)

[VERSE]

When you're at the end of the road,
e|-1-1--------------1-1-----------|
B|-3-3--------------1-1---1-1--111|
G|-2-2------3-3-----2-2---0-0--000|
D|-0-0------3-3-----3-3---2-2--222|
A|----------1-1-----------3-3--333|
E|--------------------------------|

And you lost all sense of control
e|-1-1--------------1-1-----------|
B|-3-3--------------1-1---1-1--111|
G|-2-2------3-3-----2-2---0-0--000|
D|-0-0------3-3-----3-3---2-2--222|
A|----------1-1-----------3-3--333|
E|--------------------------------|

And your thoughts have taken their toll
e|-1-1--------------1-1-----------|
B|-3-3--------------1-1---1-1--111|
G|-2-2------3-3-----2-2---0-0--000|
D|-0-0------3-3-----3-3---2-2--222|
A|----------1-1-----------3-3--333|
E|--------------------------------|

When your mind breaks the spirit of your soul
e|------------------------------------------|
B|--------------------1-1-1-1-1-1-1-1-------|
G|-3-3-3-3-3-3-3-3----0-0-0-0-0-0-0-0-------|
D|-3-3-3-3-3-3-3-3----2-2-2-2-2-2-2-2-------|
A|-1-1-1-1-1-1-1-1----3-3-3-3-3-3-3-3-------|
E|------------------------------------------|

Your faith walks on broken glass,
e|-1-1--------------1-1-----------|
B|-3-3--------------1-1---1-1--111|
G|-2-2------3-3-----2-2---0-0--000|
D|-0-0------3-3-----3-3---2-2--222|
A|----------1-1-----------3-3--333|
E|--------------------------------|

And the hangover doesn't pass
e|-1-1--------------1-1-----------|
B|-3-3--------------1-1---1-1--111|
G|-2-2------3-3-----2-2---0-0--000|
D|-0-0------3-3-----3-3---2-2--222|
A|----------1-1-----------3-3--333|
E|--------------------------------|

Nothing's ever built to last
e|-1-1--------------1-1-----------|
B|-3-3--------------1-1---1-1--111|
G|-2-2------3-3-----2-2---0-0--000|
D|-0-0------3-3-----3-3---2-2--222|
A|----------1-1-----------3-3--333|
E|--------------------------------|


You're in ruins
e|----------------|
B|----------------|
G|------3---------|
D|------3---------|
A|------1---------|
E|----------------|


[CHORUS]

One, 21 guns
Lay down your arms
Give up the fight
One, 21 guns
Throw up your arms into the sky,
You and I

e|-----|---------------------------------------- | --------------------|
B|-----|---------------------------------------- | --------------------|
G|--5--|----------77--5555--3333------55555555-- | 3333------55555555--|
D|--5--|--33--22--77--5555--3333-3333-55555555-- x2 | then 3333-3333-55555555--|
A|--3--|--33--33--55--3333--1111-3333-33333333-- | 1111-3333-33333333--|
E|-----|--11--00-----------------1111----------- | ----1111-----------|


[BRIDGE]


Did you try to live on your own
When you burned down the house and home?
Did you stand too close to the fire?
Like a liar looking for forgiveness from a stone


e|--------------------|---------------------- |---------------------------|
B|--------------------|---------------------- |---------------------------|
G|--77--33------5555--|--77--33--------2222-- |--33333333-55555555--------|
D|--77--33--33--5555--|--77--33--3333--2222-- x2 |--33333333-55555555--------|
A|--55--11--33--3333--|--55--11--3333--0000-- |--11111111-33333333--------|
E|----------11--------|----------1111-------- |--------------------------|


[GUITAR SOLO]

e|------------------------------------------------------------------------|
B|-----------10~-------8(~)--(8)h10---------------------------------------|
G|-----------------------------------10~------10-------9(~)--(9)h10--7~---|
D|-------10--------10----------------------10-----10----------------------|
A|--/8--------------------------------------------------------------------|
E|------------------------------------------------------------------------|

/Long and hard vibrato here
e|------------------------------------------------------------|
B|------------------------------------------------------------|
G|-----7-----------------------9~--9~--9~-10---12~------------|
D|--8-----8-----10--7-----------------------------------------|
A|---------------------8--------------------------------------|
E|------------------------------------------------------------|


e|------------------------------------------------------------------------|
B|-----------10~-------8(~)--(8)h10---------------------------------------|
G|-----------------------------------10~------10-------9(~)--(9)h10--7~---|
D|-------10--------10----------------------10-----10----------------------|
A|--/8--------------------------------------------------------------------|
E|------------------------------------------------------------------------|

/Long and hard vibrato here
e|--------------------------------------------(12~)-----------|
B|------------------------------------------------------------|
G|-----7-----------------------9~--9~--9~-10---12~------------|
D|--8-----8-----10--7-----------------------------------------|
A|---------------------8--------------------------------------|
E|------------------------------------------------------------|

(less distortion here) (normal now)
e|----------------------------------------------------|
B|----3---------1-------------------------------------|
G|-----3----------2------------(/)9~--9~--9~--9~\-----|
D|--3-----3---------3---------------------------------|
A|----------------------------------------------------|
E|----------------------------------------------------|


[INTRO]

e|-----1-----------5---------|
B|----------3------------5---|
G|---------------------------| x2
D|---------------------------|
A|---------------------------|
E|---------------------------|


[VERSE]

When it's time to live and let die
e|-1-1--------------1-1-----------|
B|-3-3--------------1-1---1-1--111|
G|-2-2------3-3-----2-2---0-0--000|
D|-0-0------3-3-----3-3---2-2--222|
A|----------1-1-----------3-3--333|
E|--------------------------------|

And you can't get another try
e|-1-1--------------1-1-----------|
B|-3-3--------------1-1---1-1--111|
G|-2-2------3-3-----2-2---0-0--000|
D|-0-0------3-3-----3-3---2-2--222|
A|----------1-1-----------3-3--333|
E|--------------------------------|

Something inside this heart has died
e|-1-1--------------1-1-----------|
B|-3-3--------------1-1---1-1--111|
G|-2-2------3-3-----2-2---0-0--000|
D|-0-0------3-3-----3-3---2-2--222|
A|----------1-1-----------3-3--333|
E|--------------------------------|


You're in ruins
e|-------------------|
B|-------------------|
G|------3------------|
D|------3------------|
A|------1------------|
E|-------------------|


[CHORUS]

One, 21 guns
Lay down your arms
Give up the fight
One, 21 guns
Throw up your arms into the sky,
You and I

e|---------------------------------------- |
B|---------------------------------------- |
G|----------77--5555--3333------55555555-- |
D|--33--22--77--5555--3333-3333-55555555-- x2 |
A|--33--33--55--3333--1111-3333-33333333-- |
E|--11--00-----------------1111----------- |


[Outro]

Guitar 1:

e|---------------------------------------- |
B|---------------------------------------- |
G|----------77--5555--3333------55555555-- |
D|--33--22--77--5555--3333-3333-55555555-- x2 |
A|--33--33--55--3333--1111-3333-33333333-- |
E|--11--00-----------------1111----------- |

Guitar 2 (Outro over top of chords):

e|E--------------------------------------------------------------------------------------|
B|------------------------------------------------------3-----1-------------------------|
G|---10---10----12----12-----10----10----9----9-----------3-----2------9--9--9--10--12--|
D|-----10---10----10-----10-----12----12---10---10----3-----3-----3---------------------|
A|--------------------------------------------------------------------------------------|
E|--------------------------------------------------------------------------------------|

Last chords:

e- -----------------------|
B--3333------5------------|
D--3333-3333-5------------|
A--1111-3333-3------------|
E-------1111--------------|

This should be pretty close. Email me at dkbenson@ualberta.ca if you see any changes
should be made.



************************************

| / Slide up
| ~ Vibrato

************************************
Tunning: Standard (E A D G B e)
21 Guns - Green Day

Gtr 1 - Electric (Rythm)
Gtr 2 - Electric (Lead)
Gtr 3 - Acoustic

[Intro] x2
Gtr 2
e|---------------------------|
B|--------------10~~---------|
G|--10~~--7~~---------9~~----|
D|---------------------------|
A|---------------------------|
E|---------------------------|

[Verse]
Gtr 3
e|--1--1--------1--1-------0--|
B|--3--3--3--3--1--1-------1--| x3
G|--2--2--3--3--2--2--0--0-0--|
D|--0--0--3--3--3--3--2--2-2--|
A|--------1--1--3--3--3--3-3--|
E|----------------------------|

e|----------------0--0-0-0-0-0--|
B|--3--3-3-3-3-3--1--1-1-1-1-1--|
G|--3--3-3-3-3-3--0--0-0-0-0-0--|
D|--3--3-3-3-3-3--2--2-2-2-2-2--|
A|--1--1-1-1-1-1--3--3-3-3-3-3--|
E|------------------------------|
(Then)
Gtr 2
e|---------------------------| |-------|
B|--------------10~~---------| x3 |-------|
G|--10~~--7~~---------9~~----| |--7~~--|
D|---------------------------| |-------|
A|---------------------------| |-------|
E|---------------------------| |-------|

Gtr 3
e|--1--1--------1--1-------0--| |-------|
B|--3--3--3--3--1--1-------1--| x3 |--3~~--|
G|--2--2--3--3--2--2--0--0-0--| |--3~~--|
D|--0--0--3--3--3--3--2--2-2--| |--3~~--|
A|--------1--1--3--3--3--3-3--| |--1~~--|
E|----------------------------| |-------|

[Pre-Chorus]
Gtr 1 + 2
e|-----|
B|-----|
G|--5--|
D|--5--|
A|--3--|
E|-----|

[Chorus]
Gtr 1
e|------------------------------------------------------------------|
B|------------------------------------------------------------------| x2
G|------------------7-7-----5-5-5-55-3-3-3-3---------5-5-5-5-5-5-5--|
D|--3-3-----2-2-----7-7-----5-5-5-55-3-3-3-3-3-3-3-3-5-5-5-5-5-5-5--|
A|--3-3-----3-3-----5-5-----3-3-3-33-1-1-1-1-3-3-3-3-3-3-3-3-3-3-3--|
E|--1-1-----0-0------------------------------1-1-1-1----------------|

Gtr 2
e|--------------------------------------------------------------------|
B|--------------------------------------------------------------------| x2
G|------------------7-7-----5-5-5-55-3-3-3-3---------9-9-9-9-9-10-12--|
D|--3-3-----2-2-----7-7-----5-5-5-55-3-3-3-3-3-3-3-3------------------|
A|--3-3-----3-3-----5-5-----3-3-3-33-1-1-1-1-3-3-3-3------------------|
E|--1-1-----0-0------------------------------1-1-1-1------------------|

[Post-Chorus]
Gtr 1
e|-----------------------|
B|-----------------------|
G|--3-3-3-3----------5~--|
D|--3-3-3-3-3-3-3-3--5~--|
A|--1-1-1-1-3-3-3-3--3~--|
E|----------1-1-1-1------|

Gtr 2
e|-----------------------|
B|----3-----1------------|
G|------3-----2------9~--|
D|--3-----3-----3--------|
A|-----------------------|
E|-----------------------|

[Repeat Verse]

[Repeat Pre-Chorus]

[Repeat Chorus]

[Post-Chorus]
Gtr 1
e|------------------------------------|
B|------------------------------------|
G|--3-3-3-3----------5-5-5-5-5-5------|
D|--3-3-3-3-3-3-3-3--5-5-5-5-5-5------|
A|--1-1-1-1-3-3-3-3--3-3-3-3-3-3------|
E|----------1-1-1-1--------------\\\--|

Gtr 2
e|------------------------------------|
B|----3-----1-------------------------|
G|------3-----2------9-9-9-9-9-9-9-9--|
D|--3-----3-----3---------------------|
A|------------------------------------|
E|------------------------------------|

[Bridge]
Gtr 1
e|-----------------------------------------------------------------------------------------|
B|-----------------------------------------------------------------------------------------|
G|--7-7---------3-3---------------------5-5-5-5-7-7---------3-3----------------------------|
D|--7-7---------3-3---------3-3---------5-5-5-5-7-7---------3-3-----------3-3-3-3-7-7-7-7--|
A|--5-5---------1-1---------3-3---------3-3-3-3-5-5---------1-1-----------3-3-3-3-7-7-7-7--|
E|--------------------------1-1-----------------------------------\\\\\\\-1-1-1-1-5-5-5-5--|

e|-------------------------------------------------------------------------|
B|-------------------------------------------------------------------------|
G|--7-7---------3-3-------------------------3-3-3-3-3-3-3-5-5-5-5-5-5-5-5--|
D|--7-7---------3-3---------3-3-3-3-7-7-7-7-3-3-3-3-3-3-3-5-5-5-5-5-5-5-5--|
A|--5-5---------1-1---------3-3-3-3-7-7-7-7-1-1-1-1-1-1-1-3-3-3-3-3-3-3-3--|
E|--------------------------1-1-1-1-5-5-5-5--------------------------------|

Gtr 2
e|---------------------------------------------------------------------------------------------|
B|---------------------------------------------------------------------------------------------|
G|--10----10----10----10-10-10----10----9----9----10----10----10----10-10-10----10----9-9-9-9--|
D|-----12----12----12----------10----10---10---10----12----12----12----------10----10----------|
A|---------------------------------------------------------------------------------------------|
E|---------------------------------------------------------------------------------------------|

e|----------------------------------------------------------------------------------------|
B|----------------------------------------------------------------------------------------|
G|--10----10----10----10-10-10----10----9-9-9-9-10-10-10-10-10-10-10-10-10-9-9-9-9-9-9-9--|
D|-----12----12----12----------10----10---------------------------------------------------|
A|----------------------------------------------------------------------------------------|
E|----------------------------------------------------------------------------------------|

[Solo]
Gtr 1
e|---------------------------------------------------------------|
B|---------------------------------------------------------------| x2
G|------------------7-7-7-7-5-5-5-5-3-3-3-3---------5--5--5-5-5--|
D|--3-3-3-3-2-2-2-2-7-7-7-7-5-5-5-5-3-3-3-3-3-3-3-3-5--5--5-5-5--|
A|--3-3-3-3-3-3-3-3-5-5-5-5-3-3-3-3-1-1-1-1-3-3-3-3-3--3--3-3-3--|
E|--1-1-1-1-0-0-0-0-------------------------1-1-1-1--------------|

e|-------------------------------|
B|-------------------------------|
G|--3-3-3-3----------------------|
D|--3-3-3-3-3-3-3-3-7--7--7-7-7--|
A|--1-1-1-1-3-3-3-3-7--7--7-7-7--|
E|----------1-1-1-1-5--5--5-5-5--|

Gtr 2
e|-----------------------------------------------------------------------------|
B|-------10----8---10s---------------------------3---1-------------------------|
G|----------10---------10---7-10-7-9---10s-7---3---3---2----/9---9---9-10-12s--|
D|----10-------------------------------------------------3---------------------|
A|--8--------------------------------------------------------------------------|
E|-----------------------------------------------------------------------------|

e|------------------------------------------------------------------------12s--|
B|-------10----8---10s---------------------------3---1-------------------------|
G|----------10---------10---7-10-7-9---10s-7---3---3---2----/9---9---9-10------|
D|----10-------------------------------------------------3---------------------|
A|--8--------------------------------------------------------------------------|
E|-----------------------------------------------------------------------------|

e|---------------------------------|
B|----3-----1----------------------|
G|------3-----2----/9---9---9---9--|
D|--3-----3-----3------------------|
A|---------------------------------|
E|---------------------------------|

[Repeat Intro]

[Verse]
Gtr 3
e|--1--1--------1--1-------0--| |-----|
B|--3--3--3--3--1--1-------1--| x3 |--3--|
G|--2--2--3--3--2--2--0--0-0--| |--3--|
D|--0--0--3--3--3--3--2--2-2--| |--3--|
A|--------1--1--3--3--3--3-3--| |--1--|
E|----------------------------| |-----|

[Out-Chorus]
Gtr 1
e|------------------------------------------------------------------|
B|------------------------------------------------------------------| x4
G|------------------7-7-----5-5-5-55-3-3-3-3---------5-5-5-5-5-5-5--|
D|--3-3-----2-2-----7-7-----5-5-5-55-3-3-3-3-3-3-3-3-5-5-5-5-5-5-5--|
A|--3-3-----3-3-----5-5-----3-3-3-33-1-1-1-1-3-3-3-3-3-3-3-3-3-3-3--|
E|--1-1-----0-0------------------------------1-1-1-1----------------|

Gtr 2
e|--------------------------------------------------------------------|
B|--------------------------------------------------------------------| x2
G|------------------7-7-----5-5-5-55-3-3-3-3---------9-9-9-9-9-10-12--|
D|--3-3-----2-2-----7-7-----5-5-5-55-3-3-3-3-3-3-3-3------------------|
A|--3-3-----3-3-----5-5-----3-3-3-33-1-1-1-1-3-3-3-3------------------|
E|--1-1-----0-0------------------------------1-1-1-1------------------|

e|-------------------------------------------------------------------------------|
B|--------------------------------------------------3-----1----------------------| x2
G|--10----10----12----12----10----10----9----9--------3-----2---9-9-9-9-9-10-12--|
D|-----10----10----10----10----12----12---10---10-3-----3-----3------------------|
A|-------------------------------------------------------------------------------|
E|-------------------------------------------------------------------------------|

[Outro]
Gtr 1
e|------------------------|
B|------------------------|
G|--3-3-3-3----------5~~--|
D|--3-3-3-3-3-3-3-3--5~~--|
A|--1-1-1-1-3-3-3-3--3~~--|
E|----------1-1-1-1-------|

Gtr 2
e|------------------------|
B|----3-----1-------------|
G|------3-----2------9~~--|
D|--3-----3-----3---------|
A|------------------------|
E|------------------------|



************************************

~ - Hold Note
\ - Slide Down
/ - Slide Up
s - Slight Bend

************************************
Tunning: Standard (E A D G B e)
21 Guns - Green Day

Tabbed by: me12345

Standard Tuning

Guitar 1 - Acoustic -
Guitar 2 - Electric - Lead
Guitar 3 - Electric - Rhythm

This is a more detailed version of the song with all three guitar parts. Enjoy

Intro (0:17)

Guitar 1

|-0--0---------0--0----0~-0--|
|-3~-33-3~-----1~-1-11-1~111-|
|-2~-22-3~-33--2~-2-22-0~000-|
|-0~-00-3~-33--3~-3-33-2~222-|
|-0~-00-1~-11--0~-0-00-3~333-| x3
|----------------------------|


|----------------0------0---|
|--------------1-1-11-1-1-1-|
|-3-3-33-3-3-3-0-0-00-0-0-0-|
|-3-3-33-3-3-3-2-2-22-2-2-2-|
|-1-1-11-1-1-1-3-3-33-3-3-3-|
|--------------0-0-00-0-0-0-|

Verse 1 (0:40)

Guitar 1

|-0--0---------0--0----0~-0--|
|-3~-33-3~-----1~-1-11-1~111-|
|-2~-22-3~-33--2~-2-22-0~000-|
|-0~-00-3~-33--3~-3-33-2~222-|
|-0~-00-1~-11--0~-0-00-3~333-| x3
|----------------------------|



|-----|
|-----|
|-3~~-|
|-3~~-|
|-1~~-|
|-----|

Guitar 2

|------------------------|
|------------------------|
|-7-77-3-33-10-1010-5-55-|
|-7-77-3-33-10-1010-5-55-|
|-5-55-1-11-8---8-8-3-33-| x3
|------------------------|


|-------|
|-------|
|-3~~-5-|
|-3~~-5-|
|-1~~-3-|
|-------|

Chorus (1:05)

Guitar 1

|---------------------------------|
|----11-33-1111----------11111111-|
|----00-22-2222-3333-----00000000-|
|-33-22-00-3333-33333333-22222222-|
|-33-33-00-0000-11113333-33333333-|
|-11----------------1111----------| x2

|------------|
|---------1~-|
|-3333----0~-|
|-333333332~-|
|-111133333~-|
|-----1111---|

Guitar 2 & 3

|------------------------------|------|
|------------------------------|-568~-|


Suggest correction


What's this?

You can suggest a correction to this tab. Community and Mods will review your correction and vote to approve or reject it.



Tunning: Standard (E A D G B e)
EDIT 11.04.2014: Some corrections and little changes in solo and chorus
EDIT 20.07.2014: Correction in solo

This is how I play this song. It's my first tab, so it may have some mistakes, but
I'll try to fix them if they will appear. I can also write strange this text,
'cause I'm not English and I'm not sure how to do that.
Thanks to necriononguitar for the solo and kiritokazuto1 for correction in solo.

Guitar 1 - Acoustic
Guitar 2 - Electric Lead
Guitar 3 - Electric Rythm

Guitar 1 can play as the Rythm guitar playing Guitar 3 in Choruses and Bridge, but
it sounds better when rythm guitar is electric not acoustic.
Backing track in Verses (Intros) can be played by Guitar 2, 3 or both, however you
want.
!NOTE!: Backing track played in Verses has got one more note at the end, when it's
played A# and the text is "You're in ruins", but I don't know what's this note.
It's need if you want to play all of the song with no missings, but this note is
quite hard to hear, so you can just miss it (read: forget that it should be note there).

Tuning: Standard eBGDAE



[Intro]

To do that like in song you have to turn Volume to 0. Then pick strings and slowly
turn Volume up, and later turn down to pick another strings. When you play the
last bar, don't turn Volume to 0, let it ring to the Verse.


e--1--|-----|--5--|--0--|--1--|-----|--5--|--0-||
B-----|--3--|-----|-----|-----|--3--|-----|----||
G-----|-----|-----|-----|-----|-----|-----|----||
D--0--|-----|--3--|-----|--0--|-----|--3--|----||
A-----|--1--|-----|--3--|-----|--1--|-----|--3-||
E-----|-----|-----|-----|-----|-----|-----|----||
< < < < < < < <


[Verse 1]

Guitar 1 (Acoustic)

Dm A# F C
e--1--1-1-|--1--1-1-|--1--1--1-1-|--0-0-0-0-||
B--3--3-3-|--3--3-3-|--1--1--1-1-|--1-1-1-1-||
G--2--2-2-|--3--3-3-|--2--2--2-2-|--0-0-0-0-||
D--0--0-0-|--3--3-3-|--3--3--3-3-|--2-2-2-2-|| x3
A---------|--1--1-1-|--3--3--3-3-|--3-3-3-3-||
E---------|--1--1-1-|--1--1--1-1-|--0-0-0-0-||
^ ^ v ^ ^ v ^ ^ ^ v ^ ^ ^ ^

A# C
e--1--1--1-1-1-1-1-|--0--0--0-0-0-0-0-||
B--3--3--3-3-3-3-3-|--1--1--1-1-1-1-1-||
G--3--3--3-3-3-3-3-|--0--0--0-0-0-0-0-||
D--3--3--3-3-3-3-3-|--2--2--2-2-2-2-2-||
A--1--1--1-1-1-1-1-|--3--3--3-3-3-3-3-||
E--1--1--1-1-1-1-1-|--0--0--0-0-0-0-0-||
^ ^ v ^ ^ ^ v ^ ^ v ^ ^ ^ v

Dm A# F C A#
e--1--1-1-|--1--1-1-|--1--1--1-1-|--0-0-0-0-|| e--1-||
B--3--3-3-|--3--3-3-|--1--1--1-1-|--1-1-1-1-|| B--1-||
G--2--2-2-|--3--3-3-|--2--2--2-2-|--0-0-0-0-|| G--3-||
D--0--0-0-|--3--3-3-|--3--3--3-3-|--2-2-2-2-|| x3 then D--3-||
A---------|--1--1-1-|--3--3--3-3-|--3-3-3-3-|| A--3-||
E---------|--1--1-1-|--1--1--1-1-|--0-0-0-0-|| E--1-||
^ ^ v ^ ^ v ^ ^ ^ v ^ ^ ^ ^ ^

Guitar 2 (Electric Lead)

Starts when Guitar 1 plays Verse 4th time (after "And you feel yourself suffocating").

e--1--|-----|--5--|--0--|--1--|-----|--5--|--0--||
B-----|--3--|-----|-----|-----|--3--|-----|-----||
G-----|-----|-----|-----|-----|-----|-----|-----||
D--0--|-----|--3--|-----|--0--|-----|--3--|-----||
A-----|--1--|-----|--3--|-----|--1--|-----|--3--||
E-----|-----|-----|-----|-----|-----|-----|-----||
< < < < < < < <

When Guitar 1 plays the last A# chord play this:

A#5 C5
e-----|-----||
B-----|-----||
G--3--|--5--||
D--3--|--5--||
A--1--|--3--||
E-----|-----||
< ^

Chorus 1

Guitar 2 (Electric Lead)

F5 C6 D5 C5 A#5 F5 C5
e------|------|------|-----------|----------|----------|----------|----------||
B------|------|------|-----------|----------|----------|----------|--5-6-8---||
G------|------|--7-7-|--5-5-5-55-|--3-3-3-3-|----------|--5-5-5-5-|----------||
D--3-3-|--2-2-|--7-7-|--5-5-5-55-|--3-3-3-3-|--3-3-3-3-|--5-5-5-5-|----------||
A--3-3-|--3-3-|--5-5-|--3-3-3-33-|--1-1-1-1-|--3-3-3-3-|--3-3-3-3-|----------||\
E--1-1-|--0-0-|------|-----------|----------|--1-1-1-1-|----------|----------|| \
^ ^ ^ ^ ^ ^ ^ ^ ^ ^v ^ ^ ^ ^ ^ ^ ^ ^ ^ ^ ^ ^ \
\
Guitar 3 (Electric Rythm) x2
/
F5 C6 D5 C5 A#5 F5 C5 C5 /
e------|------|------|-----------|----------|----------|----------|----------|| /
B------|------|------|-----------|----------|----------|----------|----------||/
G------|------|--7-7-|--5-5-5-55-|--3-3-3-3-|----------|--5-5-5-5-|--5-5-5-5-||
D--3-3-|--2-2-|--7-7-|--5-5-5-55-|--3-3-3-3-|--3-3-3-3-|--5-5-5-5-|--5-5-5-5-||
A--3-3-|--3-3-|--5-5-|--3-3-3-33-|--1-1-1-1-|--3-3-3-3-|--3-3-3-3-|--3-3-3-3-||
E--1-1-|--0-0-|------|-----------|----------|--1-1-1-1-|----------|----------||
^ ^ ^ ^ ^ ^ ^ ^ ^ ^v ^ ^ ^ ^ ^ ^ ^ ^ ^ ^ ^ ^ ^ ^ ^ ^

Guitar 2 and 3

A#5 F5 C5
e----------|----------|-----||
B----------|----------|-----||
G--3-3-3-3-|----------|--5--||
D--3-3-3-3-|--3-3-3-3-|--5--||
A--1-1-1-1-|--3-3-3-3-|--3--||
E----------|--1-1-1-1-|-----||
^ ^ ^ ^ ^ ^ ^ ^ ^


[Verse 2]

Guitar 1 (Acoustic)

Dm A# F C
e--1--1-1-|--1--1-1-|--1--1--1-1-|--0-0-0-0-||
B--3--3-3-|--3--3-3-|--1--1--1-1-|--1-1-1-1-||
G--2--2-2-|--3--3-3-|--2--2--2-2-|--0-0-0-0-||
D--0--0-0-|--3--3-3-|--3--3--3-3-|--2-2-2-2-|| x3
A---------|--1--1-1-|--3--3--3-3-|--3-3-3-3-||
E---------|--1--1-1-|--1--1--1-1-|--0-0-0-0-||
^ ^ v ^ ^ v ^ ^ ^ v ^ ^ ^ ^

A# C
e--1--1--1-1-1-1-1-|--0--0--0-0-0-0-0-||
B--3--3--3-3-3-3-3-|--1--1--1-1-1-1-1-||
G--3--3--3-3-3-3-3-|--0--0--0-0-0-0-0-||
D--3--3--3-3-3-3-3-|--2--2--2-2-2-2-2-||
A--1--1--1-1-1-1-1-|--3--3--3-3-3-3-3-||
E--1--1--1-1-1-1-1-|--0--0--0-0-0-0-0-||
^ ^ v ^ ^ ^ v ^ ^ v ^ ^ ^ v

Dm A# F C A#
e--1--1-1-|--1--1-1-|--1--1--1-1-|--0-0-0-0-|| e--1-||
B--3--3-3-|--3--3-3-|--1--1--1-1-|--1-1-1-1-|| B--1-||
G--2--2-2-|--3--3-3-|--2--2--2-2-|--0-0-0-0-|| G--3-||
D--0--0-0-|--3--3-3-|--3--3--3-3-|--2-2-2-2-|| x3 then D--3-||
A---------|--1--1-1-|--3--3--3-3-|--3-3-3-3-|| A--3-||
E---------|--1--1-1-|--1--1--1-1-|--0-0-0-0-|| E--1-||
^ ^ v ^ ^ v ^ ^ ^ v ^ ^ ^ ^ ^

Guitar 2 (Electric Lead)


Played all the [Verse]

e--1--|-----|--5--|--0--|--1--|-----|--5--|--0--||
B-----|--3--|-----|-----|-----|--3--|-----|-----||
G-----|-----|-----|-----|-----|-----|-----|-----||
D--0--|-----|--3--|-----|--0--|-----|--3--|-----||
A-----|--1--|-----|--3--|-----|--1--|-----|--3--||
E-----|-----|-----|-----|-----|-----|-----|-----||
< < < < < < < <


When Guitar 1 plays the last A# chord play this:

A#5 C5
e-----|-----||
B-----|-----||
G--3--|--5--||
D--3--|--5--||
A--1--|--3--||
E-----|-----||
< ^


[Chorus 2]

Guitar 2 (Electric Lead)

F5 C6 D5 C5 A#5 F5 C5
e------|------|------|-----------|----------|----------|----------|----------||
B------|------|------|-----------|----------|----------|----------|--5-6-8---||
G------|------|--7-7-|--5-5-5-55-|--3-3-3-3-|----------|--5-5-5-5-|----------||
D--3-3-|--2-2-|--7-7-|--5-5-5-55-|--3-3-3-3-|--3-3-3-3-|--5-5-5-5-|----------||
A--3-3-|--3-3-|--5-5-|--3-3-3-33-|--1-1-1-1-|--3-3-3-3-|--3-3-3-3-|----------||\
E--1-1-|--0-0-|------|-----------|----------|--1-1-1-1-|----------|----------|| \
^ ^ ^ ^ ^ ^ ^ ^ ^ ^v ^ ^ ^ ^ ^ ^ ^ ^ ^ ^ ^ ^ \
\
Guitar 3 (Electric Rythm) x2
/
F5 C6 D5 C5 A#5 F5 C5 C5 /
e------|------|------|-----------|----------|----------|----------|----------|| /
B------|------|------|-----------|----------|----------|----------|----------||/
G------|------|--7-7-|--5-5-5-55-|--3-3-3-3-|----------|--5-5-5-5-|--5-5-5-5-||
D--3-3-|--2-2-|--7-7-|--5-5-5-55-|--3-3-3-3-|--3-3-3-3-|--5-5-5-5-|--5-5-5-5-||
A--3-3-|--3-3-|--5-5-|--3-3-3-33-|--1-1-1-1-|--3-3-3-3-|--3-3-3-3-|--3-3-3-3-||
E--1-1-|--0-0-|------|-----------|----------|--1-1-1-1-|----------|----------||
^ ^ ^ ^ ^ ^ ^ ^ ^ ^v ^ ^ ^ ^ ^ ^ ^ ^ ^ ^ ^ ^ ^ ^ ^ ^

Guitar 2 and 3

A#5 F5 C5 C5
e----------|----------|----------|-----------||
B----------|----------|----------|-----------||
G--3-3-3-3-|----------|--5-5-5-5-|--55555555-||
D--3-3-3-3-|--3-3-3-3-|--5-5-5-5-|--55555555-||
A--1-1-1-1-|--3-3-3-3-|--3-3-3-3-|--33333333-||
E----------|--1-1-1-1-|----------|-----------||
^ ^ ^ ^ ^ ^ ^ ^ ^ ^ ^ ^ ^v^v^v^v


[Bridge]

Guitar 2 (Electric Lead)

D5 A#5 F5 C5
e------|------|------|----------||
B------|------|------|----------||
G--7-7-|------|------|--5-5-5-5-||
D--7-7-|--8-8-|--3-3-|--5-5-5-5-||
A--5-5-|--8-8-|--3-3-|--3-3-3-3-||
E------|--6-6-|--1-1-|----------||
^ ^ ^ ^ ^ ^ ^ ^ ^ ^

D5 A#5 A#5/F5 A5
e------|------|--------------|----------||
B------|------|--------------|----------||
G--7-7-|------|--------------|--2-2-2-2-||
D--7-7-|--8-8-|--8/-3-3-3-33-|--2-2-2-2-||
A--5-5-|--8-8-|--8/-3-3-3-33-|--0-0-0-0-||
E------|--6-6-|--6/-1-1-1-11-|----------||
^ ^ ^ ^ ^ ^ ^ ^ ^v ^ ^ ^ ^

D5 A#5 F5 A5
e------|------|----------|----------||
B------|------|----------|----------||
G--7-7-|------|----------|--2-2-2-2-||
D--7-7-|--8-8-|--3-3-3-3-|--2-2-2-2-||
A--5-5-|--8-8-|--3-3-3-3-|--0-0-0-0-||
E------|--6-6-|--1-1-1-1-|----------||
^ ^ ^ ^ ^ ^ ^ ^ ^ ^ ^ ^

Guitar 3 (Electric Rythm)

e------------------|------------------||
B--6---6---6---6-6-|--6---6---5---5---||
G----7---7---7-----|----5---5---5---5-||
D------------------|------------------||
A------------------|------------------||
E------------------|------------------||

e------------------|------------------||
B--6---6---6---6-6-|--6---6---5-5-5-5-||
G----7---7---7-----|----5---5---------||
D------------------|------------------||
A------------------|------------------||
E------------------|------------------||

e------------------|------------------||
B--6---6---6---6-6-|--6---6---5-5-5-5-||
G----7---7---7-----|----5---5---------||
D------------------|------------------||
A------------------|------------------||
E------------------|------------------||


[Pre-Solo]

Guitar 2 and 3

A#5 A#5 C5 C5
e----------|----------|----------|-----------||
B----------|----------|----------|-----------||
G--3-3-3-3-|--3-3-3-3-|--5-5-5-5-|--55555555-||
D--3-3-3-3-|--3-3-3-3-|--5-5-5-5-|--55555555-||
A--1-1-1-1-|--1-1-1-1-|--3-3-3-3-|--33333333-||
E----------|----------|----------|-----------||
^ ^ ^ ^ ^ ^ ^ ^ ^ ^ ^ ^ ^v^v^v^v


[Solo]

Guitar 2 (Electric Lead)

e--------------------------|---------------------|----------------|--------------------||
B--------10----8-8-10------|---------------------|----------------|--------------------||
G-----------10--------10(~)|----10----9-9-10-7(~)|---7------------|--9(~)9(~)9-10-12(~)||
D-----10-------------------|-10----10------------|-8---8-10-7-----|--------------------||
A--/8----------------------|---------------------|------------8(~)|--------------------||
E--------------------------|---------------------|----------------|--------------------||

e--------------------------|---------------------|----------------|---------------11^||
B--------10----8-8-10------|---------------------|----------------|------------------||
G-----------10--------10(~)|----10----9-9-10-7(~)|---7------------|--9(~)9(~)9-10----||
D-----10-------------------|-10----10------------|-8---8-10-7-----|------------------||
A--/8----------------------|---------------------|------------8(~)|------------------||
E--------------------------|---------------------|----------------|------------------||

e----------|----------|-------------------||
B--3-------|--1-------|-------------------||
G----3-----|----2-----|--9(~)9(~)9-9-9-99-||
D------3(~)|------3(~)|-------------------||
A----------|----------|-------------------||
E----------|----------|-------------------||

Guitar 3 (Electric Rythm)

F5 C6 D5 C5 A#5 F5 C5 C5
e----------|----------|----------|----------|----------|----------|----------|----------||
B----------|----------|----------|----------|----------|----------|----------|----------||
G----------|----------|--7-7-7-7-|--5-5-5-5-|--3-3-3-3-|----------|--5-5-5-5-|--5-5-5-5-||

D--3-3-3-3-|--2-2-2-2-|--7-7-7-7-|--5-5-5-5-|--3-3-3-3-|--3-3-3-3-|--5-5-5-5-|--5-5-5-5-|| x2
A--3-3-3-3-|--3-3-3-3-|--5-5-5-5-|--3-3-3-3-|--1-1-1-1-|--3-3-3-3-|--3-3-3-3-|--3-3-3-3-||
E--1-1-1-1-|--0-0-0-0-|----------|----------|----------|--1-1-1-1-|----------|----------||
^ ^ ^ ^ ^ ^ ^ ^ ^ ^ ^ ^ ^ ^ ^ ^ ^ ^ ^ ^ ^ ^ ^ ^ ^ ^ ^ ^ ^ ^ ^ ^

A#5 F5 A5 A5
e----------|----------|----------|----------||
B----------|----------|----------|----------||
G--3-3-3-3-|----------|--2-2-2-2-|--2-2-2-2-||
D--3-3-3-3-|--3-3-3-3-|--2-2-2-2-|--2-2-2-2-||
A--1-1-1-1-|--3-3-3-3-|--0-0-0-0-|--0-0-0-0-||
E----------|--1-1-1-1-|----------|----------||
^ ^ ^ ^ ^ ^ ^ ^ ^ ^ ^ ^ ^ ^ ^ ^


[Midtro]

This the same as the Intro, but I can't name it "Intro", 'cause it's not at the
begining, so it'll be "Midtro".

e--1--|-----|--5--|--0--|--1--|-----|--5--|--0-||
B-----|--3--|-----|-----|-----|--3--|-----|----||
G-----|-----|-----|-----|-----|-----|-----|----||
D--0--|-----|--3--|-----|--0--|-----|--3--|----||
A-----|--1--|-----|--3--|-----|--1--|-----|--3-||
E-----|-----|-----|-----|-----|-----|-----|----||
< < < < < < < <


[Verse 3]

In song 1st time Billie plays A# chord as many times as F (not "x--x-x", but "x--
x--x-x"), but you don't have to do that and it'll be fine.

Guitar 1 (Acoustic)

Dm A# F C A#
e--1--1-1-|--1--1-1-|--1--1--1-1-|--0-0-0-0-|| e--1-||
B--3--3-3-|--3--3-3-|--1--1--1-1-|--1-1-1-1-|| B--1-||
G--2--2-2-|--3--3-3-|--2--2--2-2-|--0-0-0-0-|| G--3-||
D--0--0-0-|--3--3-3-|--3--3--3-3-|--2-2-2-2-|| x3 then D--3-||
A---------|--1--1-1-|--3--3--3-3-|--3-3-3-3-|| A--3-||
E---------|--1--1-1-|--1--1--1-1-|--0-0-0-0-|| E--1-||
^ ^ v ^ ^ v ^ ^ ^ v ^ ^ ^ ^ ^

Guitar 2 (Electric Lead)

Play this at the last repeat of the Guitar 1 [Verse]

e--1--|-----|--5--|--0--||
B-----|--3--|-----|-----||
G-----|-----|-----|-----||
D--0--|-----|--3--|-----||
A-----|--1--|-----|--3--||
E-----|-----|-----|-----||
< < < <

Chorus 3

Guitar 2 (Electric Lead)

F5 C6 D5 C5 A#5 F5 C5
e------|------|------|-----------|----------|----------|----------|----------||
B------|------|------|-----------|----------|----------|----------|--5-6-8---||
G------|------|--7-7-|--5-5-5-55-|--3-3-3-3-|----------|--5-5-5-5-|----------||
D--3-3-|--2-2-|--7-7-|--5-5-5-55-|--3-3-3-3-|--3-3-3-3-|--5-5-5-5-|----------|| x4
A--3-3-|--3-3-|--5-5-|--3-3-3-33-|--1-1-1-1-|--3-3-3-3-|--3-3-3-3-|----------||
E--1-1-|--0-0-|------|-----------|----------|--1-1-1-1-|----------|----------||
^ ^ ^ ^ ^ ^ ^ ^ ^ ^v ^ ^ ^ ^ ^ ^ ^ ^ ^ ^ ^ ^

Guitar 3 (Electric Rythm)

F5 C6 D5 C5 A#5 F5 C5 C5
e------|------|------|----------|----------|----------|----------|----------||
B------|------|------|----------|----------|----------|----------|----------||
G------|------|--7-7-|--5-5-5-5-|--3-3-3-3-|----------|--5-5-5-5-|--5-5-5-5-||
D--3-3-|--2-2-|--7-7-|--5-5-5-5-|--3-3-3-3-|--3-3-3-3-|--5-5-5-5-|--5-5-5-5-|| x2
A--3-3-|--3-3-|--5-5-|--3-3-3-3-|--1-1-1-1-|--3-3-3-3-|--3-3-3-3-|--3-3-3-3-||
E--1-1-|--0-0-|------|----------|----------|--1-1-1-1-|----------|----------||
^ ^ ^ ^ ^ ^ ^ ^ ^ ^ ^ ^ ^ ^ ^ ^ ^ ^ ^ ^ ^ ^ ^ ^ ^ ^

then you play this 2 times:

e------------------|------------------||
B--6---6---6---6-6-|--6---6---5---5---||
G----7---7---7-----|----5---5---5---5-||
D------------------|------------------||
A------------------|------------------||
E------------------|------------------||

e------------------|------------------||
B--6---6---6---6-6-|--6---6---5-5-5-5-||
G----7---7---7-----|----5---5---------||
D------------------|------------------||
A------------------|------------------||
E------------------|------------------||

e------------------|------------------||
B--6---6---6---6-6-|--6---6---5-5-5-5-||
G----7---7---7-----|----5---5---------||
D------------------|------------------||
A------------------|------------------||
E------------------|------------------||

*******************************************************

/ - slide up
\ - slide down
< - advocacy (look down for instructions)
(~) - optional vibrato
^ - hit strings from up (under tab)/bend (after note)
v - hit strings from down

*******************************************************

And this is all of the song. If you have any problems or questions, post it in comment.

Lirycs


[Verse 1]

Do you know what's worth fighting for?
When it's not worth dying for?
Does it take your breath away?
And you feel yourself suffocating?
Does the pain weigh out the pride?
And you look for place to hide?
Did someone break your heart inside?
You're in ruins...


[Chorus 1]

One, 21 guns
Lay down your arms
Give up the fight
One, 21 guns
Throw up your arms into the sky
You and I


[Verse 2]

When you're at the end of the road
And you lost all sense of control
And your thoughts have taken their toll
When your mind breaks the spirit of your soul
Your faith walks on broken glass
And the hangover doesn't pass
Nothing's ever built to last
You're in ruins...


[Chorus 2]

One, 21 guns
Lay down your arms
Give up the fight
One, 21 guns
Throw up your arms into the sky
You and I


[Bridge]

Did you try to live on your own?
When you burned down the house and home?
Did you stand too close to the fire?
Like a liar looking for forgiveness from a stone


[Verse 3]

When it's time to live and let die
And you can't get another try
Something inside this heart has died
You're in ruins...


[Chorus 3]

One, 21 guns
Lay down your arms
Give up the fight
One, 21 guns
Throw up your arms into the sky
One, 21 guns
Lay down your arms
Give up the fight
One, 21 guns
Throw up your arms into the sky
You and I
Tunning: Nashville (E A D G B E)
Artist : Green Day
Song : 21 Guns
Album : 21 Century Breakdown
Release date : 2009
Produced by : Butch Vig, Green Day

Do you know what's worth fighting for
E|----------------------------|
B|-------1/3--3\1--1----------|
G|--------------------3--2--0-|
D|-3--3-----------------------|
A|----------------------------|
E|----------------------------|

When it's not worth dying for?
E|----------------------------|
B|-------1/3--3\1--------1----|
G|-----------------2--3-----0-|
D|-3--3-----------------------|
A|----------------------------|
E|----------------------------|

Does it take your breath away
E|----------------------------|
B|-------1/3--3--1------------|
G|------------------3--2--0---|
D|-3--3-----------------------|
A|----------------------------|
E|----------------------------|

And you feel yourself suffocating
E|------------------------------------|
B|------------------------------------|
G|-2-0----------------------2--0/2--0-|
D|-------3/5\3--3--0--3--0------------|
A|------------------------------------|
E|------------------------------------|

Does the pain weigh out the pride?
E|----------------------------|
B|-------1/3--3\1--1----------|
G|--------------------3--2--0-|
D|-3--3-----------------------|
A|----------------------------|
E|----------------------------|

And you look for a place to hide
E|--------------------------|
B|-------1/3--3--------1----|
G|---------------2--3-----0-|
D|-3--3---------------------|
A|--------------------------|
E|--------------------------|

Did someone break your heart inside
E|-----------------------------|
B|-------1/3--3--1--1----------|
G|---------------------3--2--0-|
D|-3--3------------------------|
A|-----------------------------|
E|-----------------------------|

You're in ruins
E|--------------------------------|
B|--------------------------------|
G|-2-0----------------------------|
D|------3/5\3---Let this one ring-|
A|--------------------------------|
E|--------------------------------|

One, 21 Guns
E|---------------1-|
B|------------1----|
G|---------2-------|
D|-3----2----------|
A|-----------------|
E|-----------------|

Lay down your arms, Give up the fight
E|--------------------------------|
B|-1--------1/3----1--------------|
G|----2---------------3--2--0/2\0-|
D|-------3------------------------|
A|--------------------------------|
E|--------------------------------|

One, 21 Guns
E|---------------1-|
B|------------1----|
G|---------2-------|
D|-3----2----------|
A|-----------------|
E|-----------------|

Throw up your arms into the sky, You and I...
E|-----------------------------------------------|
B|-1--------1/3----1-----------------------------|
G|----2---------------3--2--0/2\0----2--0--------|
D|-------3---------------------------------3/5\3-|
A|-----------------------------------------------|
E|-----------------------------------------------|

When you're at the end of the road
E|----------------------------|
B|-------1/3--3\1--1----------|
G|--------------------3--2--0-|
D|-3--3-----------------------|
A|----------------------------|
E|----------------------------|

And you lost all sense of control
E|----------------------------|
B|-------1/3--3\1--------1----|
G|-----------------2--3-----0-|
D|-3--3-----------------------|
A|----------------------------|
E|----------------------------|

And your thoughts have taken their toll
E|----------------------------|
B|-------1/3--3--1------------|
G|------------------3--2--0---|
D|-3--3-----------------------|
A|----------------------------|
E|----------------------------|

When your mind breaks the spirit of your soul
E|---------------------------------------|
B|---------------------------------------|
G|-2-0-------------------------2--0/2--0-|
D|-------3/5\3--3--0--3--0--3------------|
A|---------------------------------------|
E|---------------------------------------|

Your faith walks on broken glass
E|----------------------------|
B|-------1/3--3\1--1----------|
G|--------------------3--2--0-|
D|-3--3-----------------------|
A|----------------------------|
E|----------------------------|

And the hangover doesn't pass
E|--------------------------|
B|-------1/3--3--------1----|
G|---------------2--3-----0-|
D|-3--3---------------------|
A|--------------------------|
E|--------------------------|

Nothing's ever built to last
E|------------------------|
B|-3--5--6--3--1----------|
G|----------------3--2--0-|
D|------------------------|
A|------------------------|
E|------------------------|

You're in ruins
E|--------------------------------|
B|--------------------------------|
G|-2-0----------------------------|
D|------3/5\3---Let this one ring-|
A|--------------------------------|
E|--------------------------------|

One, 21 Guns
E|---------------1-|
B|------------1----|
G|---------2-------|
D|-3----2----------|
A|-----------------|
E|-----------------|

Lay down your arms, Give up the fight
E|--------------------------------|
B|-1--------1/3----1--------------|
G|----2---------------3--2--0/2\0-|
D|-------3------------------------|
A|--------------------------------|
E|--------------------------------|

One, 21 Guns
E|---------------1-|
B|------------1----|
G|---------2-------|
D|-3----2----------|
A|-----------------|
E|-----------------|

Throw up your arms into the sky, You and I...
E|-----------------------------------------------|
B|-1--------1/3----1-----------------------------|
G|----2---------------3--2--0/2\0----2--0--------|
D|-------3---------------------------------3/5\3-|
A|-----------------------------------------------|
E|-----------------------------------------------|

Did you try to live on your own
E|---------------------------|
B|-3--5--6---3\1--1----------|
G|-------------------3--2--0-|
D|---------------------------|
A|---------------------------|
E|---------------------------|

When you burned down the house and home
E|----------------------------|
B|-3--5--6---3---3--1--1--1/2-|
G|----------------------------|
D|----------------------------|
A|----------------------------|
E|----------------------------|

Did you stand too close to the fire?
E|----------------------------|
B|-3--5--6---3---1--1--1--1/2-|
G|----------------------------|
D|----------------------------|
A|----------------------------|
E|----------------------------|

Like a liar looking for forgiveness from a stone
E|----------------------------------------------|
B|-2-2--2/3--3--3--1--3---6--5/6--5----3---5--6-|
G|----------------------------------------------|
D|----------------------------------------------|
A|----------------------------------------------|
E|----------------------------------------------|

When it's time to live and let die
E|----------------------------|
B|-------1/3--3\1--1----------|
G|--------------------3--2--0-|
D|-3--3-----------------------|
A|----------------------------|
E|----------------------------|

And you can't get another try
E|----------------------------|
B|-------1/3--3-1--------1----|
G|-----------------2--3-----0-|
D|-3--3-----------------------|
A|----------------------------|
E|----------------------------|

Something inside this heart has died
E|---------------------------|
B|-3--5--6--3--3--1----------|
G|-------------------3--2--0-|
D|---------------------------|
A|---------------------------|
E|---------------------------|

You're in ruins
E|--------------------------------|
B|--------------------------------|
G|-2-0----------------------------|
D|------3/5\3---Let this one ring-|
A|--------------------------------|
E|--------------------------------|

One, 21 Guns
E|---------------1-|
B|------------1----|
G|---------2-------|
D|-3----2----------|
A|-----------------|
E|-----------------|

Lay down your arms, Give up the fight
E|--------------------------------|
B|-1--------1/3----1--------------|
G|----2---------------3--2--0/2\0-|
D|-------3------------------------|
A|--------------------------------|
E|--------------------------------|

One, 21 Guns
E|---------------1-|
B|------------1----|
G|---------2-------|
D|-3----2----------|
A|-----------------|
E|-----------------|

Throw up your arms into the sky
E|--------------------------------|
B|-1--------1/3----1--------------|
G|----2---------------3--2--0/2\0-|
D|-------3------------------------|
A|--------------------------------|
E|--------------------------------|

One, 21 Guns
E|---------------1-|
B|------------1----|
G|---------2-------|
D|-3----2----------|
A|-----------------|
E|-----------------|

Lay down your arms, Give up the fight
E|--------------------------------|
B|-1--------1/3----1--------------|
G|----2---------------3--2--0/2\0-|
D|-------3------------------------|
A|--------------------------------|
E|--------------------------------|

One, 21 Guns
E|---------------1--3\1-|
B|------------1---------|
G|---------2------------|
D|-3----2---------------|
A|----------------------|
E|----------------------|

Throw up your arms into the sky, You and I
E|-----------------------------------------------|
B|-1--------1/3----1-----------------------------|
G|----2---------------3--2--0/2\0----2--0--------|
D|-------3---------------------------------3/5\3-|
A|-----------------------------------------------|
E|-----------------------------------------------|


**************************

| / = slide down
| \ = slide up

**************************
Tunning: Standard (E A D G B e)
21 Guns(Broadway)
Greenday
http://www.youtube.com/watch?v=q1RKr4pWOqs

Guitar Tab

INTRO:

e-----6-----------10---------|
B----------8------------10---|
G----------------------------|
D----------------------------|
A----------------------------|
E----------------------------|


VERSE:

Play it with Chords

Guitar 3 (acoustic)
G D# A# F
Do you know what's worth fighting for,
G D# A# F
When it's not worth dying for?
G D# A# F
Does it take your breath away
D# F
And you feel yourself suffocating?

G D# A# F
Does the pain weigh out the pride?
G D# A# F
And you look for a place to hide?
G D# A# F
Did someone break your heart inside?
D#
You're in ruins

CHORUS:

One, 21 guns
Lay down your arms
Give up the fight
One, 21 guns
Throw up your arms into the sky,
You and I

*Violin
e-----|------------------------------------------------- | --------------|
B-----|------------------------------------------------- | --------------|
G--7--|--33-----------------8888------1010101010101010-- | 8888------10--|
D--7--|--33---77--55--3333--8888-8888-1010101010101010-- x2 | then 8888-8888-10--|
A--5--|--11---77--55--3333--6666-8888--8-8-8-8-8-8-8-8-- | 6666-8888--8--|
E-----|-------55--33--1111-------6666------------------- | -----6666-----|

(You and I)


VERSE:

Guitar 3 (acoustic)
Dm A# F C
When you're at the end of the road
Dm A# F C
And you lost all sense of control
Dm A# F C
And your thoughts have taken their toll
A# C
When your mind breaks the spirit of your soul
Dm A# F C
Your faith walks on broken glass
Dm A# F C
And the hangover doesn't pass
Dm A# F C
Nothing's ever built to last
A#
You're in ruins.


CHORUS:


One, 21 guns
Lay down your arms
Give up the fight
One, 21 guns
Throw up your arms into the sky,
You and I

Guitar 2 (rhythm electric)
e-----|---------------------------------------- | --------------------|
B-----|---------------------------------------- | --------------------|
G--5--|----------77--5555--3333------55555555-- | 3333------55555555--|
D--5--|--33--22--77--5555--3333-3333-55555555-- x2 | then 3333-3333-55555555--|
A--3--|--33--33--55--3333--1111-3333-33333333-- | 1111-3333-33333333--|
E-----|--11--00-----------------1111----------- | -----1111-----------|

BRIDGE:


Did you try to live on your own
When you burned down the house and home?
Did you stand too close to the fire?
Like a liar looking for forgiveness from a stone

Guitar 2 (rhythm electric)
e------------------------|---------------------- |----------------------------------|
B------------------------|---------------------- |----------------------------------|
G------88------10101010--|------88--------7777-- |--88888888-101010101010101010-----|
D--55--88--88--10101010--|--55--88--8888--7777-- x2|--88888888-101010101010101010-----|
A--55--66--88---8-8-8-8--|--55--66--8866--5555-- |--66666666--8-8-8-8-8-8-8-8-8-----|
E--33------66------------|--33------6666-------- |----------------------------------|

Guitar 1 (lead electric)
e---------------------------------------------------|
B--11----11----11----11-11-11----11----10----10-----|
G-----12----12----12----------10----10----10----10--|
D---------------------------------------------------| 2X
A---------------------------------------------------|
E---------------------------------------------------|

e---------------------------------------------------------------------|
B--11----11----11----11-11-11----11----10----10----11x8-11\10-10x6----|
G-----12----12----12----------10----10----10----10--------------------|
D---------------------------------------------------------------------|
A---------------------------------------------------------------------|
E---------------------------------------------------------------------|



VERSE:
(Piano)
G D# A# F
When it's time to live and let die
G D# A# F
And you can't get another try
G D# A# F
Something inside this heart has died
D#
You're in ruins.

END CHORUS:

One, 21 guns
Lay down your arms
Give up the fight
One, 21 guns
Throw up your arms into the sky,
You and I

Guitar 2 (rhythm electric)
e------|----------------------------------------|
B------|----------------------------------------|
G--10--|--55--44-----------------5555-----------|
D--10--|--55--55--77--5555--3333-5555-55555555--|x3
A---8--|--33--22--77--5555--3333-3333-55555555--|
E------|----------55--3333--1111------33333333--|

e-------------------------------------------------|
B-------------------------------------------------|
G--55---44-----------------5555-1212121212121212--|
D--55---55--77--5555--3333-5555-1212121212121212--|
A--33---22--77--5555--3333-3333-1010101010101010--|
E-----------55--3333--1111------------------------|

e----------------|
B----------------|
G------5555------|
D-3333-5555-5~---|
A-3333-3333-5~---|
E-1111------3~---|

Guitar 1 (lead electric)
e-----------------------------------------------------------------------------------|
B-----------------------------------------------------------------/12-12--12-13-15--|
G-----------------------------------------------------------------------------------| x2
D-----------------------------------------------------------------------------------|
A-----------------------------------------------------------------------------------|
E-----------------------------------------------------------------------------------|

e-----------------------------------------------------------------------------------|
B--13----13----15----15----13----13----12----12----10------8------/12-12--12-13-15--|
G-----12----12----12----12----14----14----12----12----10-----9----------------------| x2
D--------------------------------------------------------10----10-------------------|
A-----------------------------------------------------------------------------------|
E-----------------------------------------------------------------------------------|

e------------------------------|
B--13----13----15----15----12~-|
G-----12----12----12----12-----|
D------------------------------|
A------------------------------|
E------------------------------|
Song info
21 Guns
Green Day
2001
  • Rock
  • Alternative Rock
  • Pop Rock
Alternative tracks
Similar songs
Your Mama Dont Dance - Loggins and Messina
It Dont Come Easy - Ringo Starr
Headlong - Queen
Rock N Roll Suicide - David Bowie
Shinobi Vs Dragon Ninja - Lostprophets

Hi! Hope you enjoy backing track experience.
If you want to help us in the development of the project, feel free to donate!