Last Of The American Girls - Green Day
00:00 / 00:00
Tabs and lyrics
Tunning: Standard (E A D G B e)
Tuning: Standard

[Verse] (x2)
Starts on "She wears her overcoat"
e|---------------------------------------------------------------------------|
B|---------------------------------------------------------------------------|
G|---------------------------------------------------------------------------|
D|---------------------------------------------------------------------------|
A|-------------------7777777-7-66-77-99--------------------------------------|
E|-7777777777777777----------------------777777777777777--2222222222222222---|

[Chorus]
(Guitar 1)
e|---------------------------------------------------------------------------|
B|---------------------------88888888----------------------------------------|
G|-------------------9999999999999999----------------------------------------|
D|-9999999999999999--9999999999999999--99999999--444-------------------------|
A|-9999999999999999--7777777777777777--99999999--444-------------------------|
E|-7777777777777777--------------------77777777--222-------------------------|

(Guitar 2)
e|---------------------------------------------------------------------------|
B|---------------------------------------------------------------------------|
G|-1616161616161616-1414141414141414-13131313-161616--13-1212121212121212----|
D|--x-x-x-x-x-x-x-x--x-x-x-x-x-x-x-x--x-x-x-x--x-x-x--x--x-x-x-x-x-x-x-x-----|
A|-1414141414141414-1212121212121212-11111111-141414--11-1010101010101010----|
E|---------------------------------------------------------------------------|

e|---------------------------------------------------------------------------|
B|---------------------------------------------------------------------------|
G|-1616161616161616-111111---------------------------------------------------|
D|--x-x-x-x-x-x-x-x-x-x-x----------------------------------------------------|
A|-1414141414141414-9-9-9----------------------------------------------------|
E|---------------------------------------------------------------------------|

[Pre-Verse] (x4)
(Guitar 1)
e|---------------------------------------------------------------------------|
B|---------------------------------------------------------------------------|
G|------9999-----------------------------------------------------------------|
D|-9999-9999-----------------------------------------------------------------|
A|-9999-7777-----------------------------------------------------------------|
E|-7777----------------------------------------------------------------------|

(Guitar 2)
e|---------------------------------------------------------------------------|
B|----7---9-7----------------------------------------------------------------|
G|-88---8--------------------------------------------------------------------|
D|---------------------------------------------------------------------------|
A|---------------------------------------------------------------------------|
E|---------------------------------------------------------------------------|

[Verse 2] (x2)
(Guitar 1)
e|-----------------------------------------------------------------------------|
B|-----------------------------------------------------------------------------|
G|-----------------------------------------------------------------------------|
D|-------------------99999999-9-88-99-1111-------------------------------------|
A|-9999999999999999--77777777-7-66-77--9-9--9999999999999999--4444444444444444-|
E|-7777777777777777-------------------------7777777777777777--2222222222222222-|

(Guitar 2)
e|--22--22--22--22------------------22--22--22--22--66--66--66--66-----------|
B|--44--44--44--44--55--55--55--55--44--44--44--44--77--77--77--77-----------|
G|--44--44--44--44--44--44--44--44--44--44--44--44--66--66--66--66-----------|
D|--44--44--44--44--22--22--22--22--44--44--44--44---------------------------|
A|---------------------------------------------------------------------------|
E|---------------------------------------------------------------------------|

[Chorus]
(Guitar 1)
e|---------------------------------------------------------------------------|
B|---------------------------88888888----------------------------------------|
G|-------------------9999999999999999----------------------------------------|
D|-9999999999999999--9999999999999999--99999999--444-------------------------|
A|-9999999999999999--7777777777777777--99999999--444-------------------------|
E|-7777777777777777--------------------77777777--222-------------------------|

(Guitar 2)
e|---------------------------------------------------------------------------|
B|---------------------------------------------------------------------------|
G|-1616161616161616-1414141414141414-13131313-161616--13-1212121212121212----|
D|--x-x-x-x-x-x-x-x--x-x-x-x-x-x-x-x--x-x-x-x--x-x-x--x--x-x-x-x-x-x-x-x-----|
A|-1414141414141414-1212121212121212-11111111-141414--11-1010101010101010----|
E|---------------------------------------------------------------------------|

e|---------------------------------------------------------------------------|
B|---------------------------------------------------------------------------|
G|-1616161616161616-111111---------------------------------------------------|
D|--x-x-x-x-x-x-x-x-x-x-x----------------------------------------------------|
A|-1414141414141414-9-9-9----------------------------------------------------|
E|---------------------------------------------------------------------------|

[Pre-Verse] (x4)
(Guitar 1)
e|---------------------------------------------------------------------------|
B|---------------------------------------------------------------------------|
G|------9999-----------------------------------------------------------------|
D|-9999-9999-----------------------------------------------------------------|
A|-9999-7777-----------------------------------------------------------------|
E|-7777----------------------------------------------------------------------|

(Guitar 2)
e|---------------------------------------------------------------------------|
B|----7---9-7----------------------------------------------------------------|
G|-88---8--------------------------------------------------------------------|
D|---------------------------------------------------------------------------|
A|---------------------------------------------------------------------------|
E|---------------------------------------------------------------------------|

[Solo] (x2)
(Guitar 1)
e|-----------------------------------------------------------------------------|
B|-----------------------------------------------------------------------------|
G|----------------------------9-88-99-1111-------------------------------------|
D|-------------------99999999-x-xx-xx--x-x-------------------------------------|
A|-9999999999999999--77777777-7-66-77--9-9--9999999999999999--4444444444444444-|
E|-7777777777777777-------------------------7777777777777777--2222222222222222-|

(Guitar 2)
e|---------------------------------------------------------------------------|
B|---------4-5-4-------------4-5-4----------9-10-9------------9-10-9---------|
G|-----4---------4-------4---------4-----9---------9------9----------9-------|
D|---4---4-------------4---4-----------9--9-------------9---9----------------|
A|-2-----------------2---------------7----------------7----------------------|
E|---------------------------------------------------------------------------|

e|---------------------------------------------------------------------------|
B|---------4-5-4------------4-5-4--------------------------------------------|
G|-----4---------4------4---------4-----3---b4-3----3---b4-------------------|
D|---4---4------------4---4-----------4---4-------4---4----4-----------------|
A|-2----------------2--------------------------------------------------------|
E|---------------------------------------------------------------------------|

[Chorus]
(Guitar 1)
e|---------------------------------------------------------------------------|
B|---------------------------88888888----------------------------------------|
G|-------------------9999999999999999----------------------------------------|
D|-9999999999999999--9999999999999999--9999999999999999--4444444444444444----|
A|-9999999999999999--7777777777777777--9999999999999999--4444444444444444----|
E|-7777777777777777--------------------7777777777777777--2222222222222222----|

e|---------------------------------------------------------------------------|
B|---------------------------88888888----------------------------------------|
G|-------------------9999999999999999----------------------------------------|
D|-9999999999999999--9999999999999999--99999999--444-------------------------|
A|-9999999999999999--7777777777777777--99999999--444-------------------------|
E|-7777777777777777--------------------77777777--222-------------------------|

(Guitar 2)
e|---------------------------------------------------------------------------|
B|---------------------------------------------------------------------------|
G|-1616161616161616-1414141414141414-13131313-161616--13-1212121212121212----|
D|--x-x-x-x-x-x-x-x--x-x-x-x-x-x-x-x--x-x-x-x--x-x-x--x--x-x-x-x-x-x-x-x-----|
A|-1414141414141414-1212121212121212-11111111-141414--11-1010101010101010----|
E|---------------------------------------------------------------------------|

e|---------------------------------------------------------------------------|
B|---------------------------------------------------------------------------|
G|-1616161616161616-1414141414141414-1111111111111111-1515151515151515-------|
D|--x-x-x-x-x-x-x-x--x-x-x-x-x-x-x-x-x-x-x-x-x-x-x-x--x-x-x-x-x-x-x-x--------|
A|-1414141414141414-1212121212121212-9-9-9-9-9-9-9-9--1313131313131313-------|
E|---------------------------------------------------------------------------|

e|---------------------------------------------------------------------------|
B|---------------------------------------------------------------------------|
G|-1616161616161616-1414141414141414-13131313-161616--13-1212121212121212----|
D|--x-x-x-x-x-x-x-x--x-x-x-x-x-x-x-x--x-x-x-x--x-x-x--x--x-x-x-x-x-x-x-x-----|
A|-1414141414141414-1212121212121212-11111111-141414--11-1010101010101010----|
E|---------------------------------------------------------------------------|

e|---------------------------------------------------------------------------|
B|---------------------------------------------------------------------------|
G|-1616161616161616-111111---------------------------------------------------|
D|--x-x-x-x-x-x-x-x-x-x-x----------------------------------------------------|
A|-1414141414141414-9-9-9----------------------------------------------------|
E|---------------------------------------------------------------------------|

[Pre-Verse] (x8)
(Guitar 1)
e|---------------------------------------------------------------------------|
B|---------------------------------------------------------------------------|
G|------9999-----------------------------------------------------------------|
D|-9999-9999-----------------------------------------------------------------|
A|-9999-7777-----------------------------------------------------------------|
E|-7777----------------------------------------------------------------------|

(Guitar 2)
e|---------------------------------------------------------------------------|
B|----7---9-7----------------------------------------------------------------|
G|-88---8--------------------------------------------------------------------|
D|---------------------------------------------------------------------------|
A|---------------------------------------------------------------------------|
E|---------------------------------------------------------------------------|

[Ending]
B


************************************

| x Dead note
| b Bend

************************************
Tunning: Standard (E A D G B e)
LAST OF THE AMERICAN GIRLS - Green Day
Tabbed by: Dan Wright
Email: muzikvlr1714@yahoo.com
Tuning: Standard (eBGDAE)
The guitar doesn’t start ‘till the beginning of the second verse

1 + 2 + 3 + 4 + 1 + 2 + 3 + 4 + 1 + 2 + 3 + 4 + 1 + 2 + 3 + 4 +
e|------------------|------------------|------------------|------------------|
B|------------------|------------------|------------------|------------------|
G|------------------|------------------|------------------|------------------|
D|------------------|------------------|------------------|------------------|
A|--2-2-2-2-2-2-2-2-|--2-2-2-2-2-2-2-2-/--7-7-7-7-7-7-7-7-|--7-6-6-7-7-9-9-9-\
E|------------------|------------------|------------------|------------------|

1 + 2 + 3 + 4 + 1 + 2 + 3 + 4 + 1 + 2 + 3 + 4 + 1 + 2 + 3 + 4 +
e|------------------|------------------|------------------|------------------|
B|------------------|------------------|------------------|------------------|
G|------------------|------------------|------------------|------------------|
D|------------------|------------------|------------------|------------------|
A|--2-2-2-2-2-2-2-2-|--2-2-2-2-2-2-2-2-/--9-9-9-9-9-9-9-9-|--9-9-9-9-9-9-9-9-\
E|------------------|------------------|------------------|------------------|

1 + 2 + 3 + 4 + 1 + 2 + 3 + 4 + 1 + 2 + 3 + 4 + 1 + 2 + 3 + 4 +
e|------------------|------------------|------------------|------------------|
B|------------------|------------------|------------------|------------------|
G|------------------|------------------|------------------|------------------|
D|------------------|------------------|------------------|------------------|
A|--2-2-2-2-2-2-2-2-|--2-2-2-2-2-2-2-2-/--7-7-7-7-7-7-7-7-|--7-6-6-7-7-9-9-9-\
E|------------------|------------------|------------------|------------------|

1 + 2 + 3 + 4 + 1 + 2 + 3 + 4 + 1 + 2 + 3 + 4 + 1 + 2 + 3 + 4 +
e|------------------|------------------|------------------|------------------|
B|------------------|------------------|------------------|------------------|
G|------------------|------------------|------------------|------------------|
D|------------------|------------------|------------------|------------------|
A|--2-2-2-2-2-2-2-2-|--2-2-2-2-2-2-2-2-/--9-9-9-9-9-9-9-9-|--9-9-9-9-9-9-9-9-|
E|------------------|------------------|------------------|------------------|

[Guitar 1]
1 + 2 + 3 + 4 + 1 + 2 + 3 + 4 + 1 + 2 + 3 + 4 + 1 + 2 + 3 + 4 +
e|------------------|------------------|------------------|------------------|
B|------------------|------------------|--9-9-9-9-9-9-9-9-|--8-8-8-8-8-8-8-8-|
G|------------------|------------------|--9-9-9-9-9-9-9-9-|--9-9-9-9-9-9-9-9-|
D|--9-9-9-9-9-9-9-9-|--9-9-9-9-9-9-9-9-|--9-9-9-9-9-9-9-9-|--9-9-9-9-9-9-9-9-|
A|--9-9-9-9-9-9-9-9-|--9-9-9-9-9-9-9-9-|--7-7-7-7-7-7-7-7-|--7-7-7-7-7-7-7-7-|
E|--7-7-7-7-7-7-7-7-|--7-7-7-7-7-7-7-7-|------------------|------------------|

[Guitar 2]
1 + 2 + 3 + 4 + 1 + 2 + 3 + 4 + 1 + 2 + 3 + 4 + 1 + 2 + 3 + 4 +
e|------------------|------------------|------------------|------------------|
B|--1212121212121212|--1010101010101010|--9-9-9-9-9-12129-|--8-8-8-8-8-8-8-8-|
G|------------------|------------------|------------------|------------------|
D|--9-9-9-9-9-9-9-9-|--7-7-7-7-7-7-7-7-|--6-6-6-6-6-9-9-6-|--5-5-5-5-5-5-5-5-|
A|------------------|------------------|------------------|------------------|
E|------------------|------------------|------------------|------------------|

[Guitar 1]
1 + 2 + 3 + 4 + 1 + 2 + 3 + 4 + 1 + 2 + 3 + 4 + 1 + 2 + 3 + 4 +
e|------------------|------------------|------------------|------------------|
B|------------------|------------------|------------------|------------------|
G|------------------|------------------|----------9-9-9-9-|----------9-9-9-9-|
D|--9-9-9-9-9-9-9-9-|--4-4-4-r---------|--9-9-9-9-9-9-9-9-|--9-9-9-9-9-9-9-9-|
A|--9-9-9-9-9-9-9-9-|--4-4-4-r---------|--9-9-9-9-7-7-7-7-|--9-9-9-9-7-7-7-7-|
E|--7-7-7-7-7-7-7-7-|--2-2-2-r---------|--7-7-7-7---------|--7-7-7-7---------|

[Guitar 2]
1 + 2 + 3 + 4 + 1 + 2 + 3 + 4 + 1 + 2 + 3 + 4 + 1 + 2 + 3 + 4 + |
e|------------------|------------------|------14--16--14--|------14--16--14--|
B|--1212121212121212|--7-7-7-r---------|--1616--16------16|--1616--16--------|
G|------------------|--------r---------|------11--13--11--|------11--13--11--|
D|--9-9-9-9-9-9-9-9-|--4-4-4-r---------|--1313--13------13|--1313--13--------|
A|------------------|------------------|------------------|------------------|
E|------------------|------------------|------------------|------------------|
(higher note is mad by an octave pedal)
[Guitar 1]
1 + 2 + 3 + 4 + 1 + 2 + 3 + 4 + 1 + 2 + 3 + 4 + 1 + 2 + 3 + 4 +
e|------------------|------------------|------2-2-r---2-2-|--r---2-2-r---2-2-|
B|------------------|------------------|------4-4-r---4-4-|--r---4-4-r---4-4-|
G|----------9-9-9-9-|----------9-9-9-9-|--r---4-4-r---4-4-|--r---4-4-r---4-4-|
D|--9-9-9-9-9-9-9-9-|--9-9-9-9-9-9-9-9-|--r---------------|------------------|
A|--9-9-9-9-7-7-7-7-|--9-9-9-9-7-7-7-7-|--r---------------|------------------|
E|--7-7-7-7---------|--7-7-7-7---------|------------------|------------------|

[Guitar 2]
1 + 2 + 3 + 4 + 1 + 2 + 3 + 4 + 1 + 2 + 3 + 4 + 1 + 2 + 3 + 4 + |
e|------14--16--14--|------14--16--14--|------------------|------------------|
B|--1616--16------16|--1616--16--------|------------------|------------------|
G|------11--13--11--|------11--13--11--|------------------|------------------|
D|--1313--13------13|--1313--13--------|------------------|------------------|
A|------------------|------------------|--2-2-2-2-2-2-2-2-|--2-2-2-2-2-2-2-2-/
E|------------------|------------------|------------------|------------------|
(higher note is mad by an octave pedal)

[Guitar 1]
1 + 2 + 3 + 4 + 1 + 2 + 3 + 4 + 1 + 2 + 3 + 4 + 1 + 2 + 3 + 4 +
e|--r---------------|------------------|------2-2-r---2-2-|--r---2-2-r---2-2-|
B|--r---5-5-r---5-5-|--r---5-5-r---5-5-|--r---4-4-r---4-4-|--r---4-4-r---4-4-|
G|--r---4-4-r---4-4-|--r---4-4-r---4-4-|--r---4-4-r---4-4-|--r---4-4-r---4-4-|
D|------2-2-r---2-2-|--r---2-2-r---2-2-|--r---------------|------------------|
A|------------------|------------------|------------------|------------------|
E|------------------|------------------|------------------|------------------|

[Guitar 2]
1 + 2 + 3 + 4 + 1 + 2 + 3 + 4 + 1 + 2 + 3 + 4 + 1 + 2 + 3 + 4 + |
e|------------------|------------------|------------------|------------------|
B|------------------|------------------|------------------|------------------|
G|------------------|------------------|------------------|------------------|
D|------------------|------------------|------------------|------------------|
A|--7-7-7-7-7-7-7-7-|--7-6-6-7-7-9-9-9-\--2-2-2-2-2-2-2-2-|--2-2-2-2-2-2-2-2-/
E|------------------|------------------|------------------|------------------|

[Guitar 1]
1 + 2 + 3 + 4 + 1 + 2 + 3 + 4 + 1 + 2 + 3 + 4 + 1 + 2 + 3 + 4 +
e|--r---6-6-r---6-6-|--r---6-6-r---6-6-|--r---2-2-r---2-2-|--r---2-2-r---2-2-|
B|--r---7-7-r---7-7-|--r---7-7-r---7-7-|--r---4-4-r---4-4-|--r---4-4-r---4-4-|
G|--r---6-6-r---6-6-|--r---6-6-r---6-6-|--r---4-4-r---4-4-|--r---4-4-r---4-4-|
D|------------------|------------------|------------------|------------------|
A|------------------|------------------|------------------|------------------|
E|------------------|------------------|------------------|------------------|

[Guitar 2]
1 + 2 + 3 + 4 + 1 + 2 + 3 + 4 + 1 + 2 + 3 + 4 + 1 + 2 + 3 + 4 + |
e|------------------|------------------|------------------|------------------|
B|------------------|------------------|------------------|------------------|
G|------------------|------------------|------------------|------------------|
D|------------------|------------------|------------------|------------------|
A|--9-9-9-9-9-9-9-9-|--9-9-9-9-9-9-9-9-\--2-2-2-2-2-2-2-2-|--2-2-2-2-2-2-2-2-/
E|------------------|------------------|------------------|------------------|

[Guitar 1]
1 + 2 + 3 + 4 + 1 + 2 + 3 + 4 + 1 + 2 + 3 + 4 + 1 + 2 + 3 + 4 +
e|--r---------------|------------------|------2-2-r---2-2-|--r---2-2-r---2-2-|
B|--r---5-5-r---5-5-|--r---5-5-r---5-5-|--r---4-4-r---4-4-|--r---4-4-r---4-4-|
G|--r---4-4-r---4-4-|--r---4-4-r---4-4-|--r---4-4-r---4-4-|--r---4-4-r---4-4-|
D|------2-2-r---2-2-|--r---2-2-r---2-2-|--r---------------|------------------|
A|------------------|------------------|------------------|------------------|
E|------------------|------------------|------------------|------------------|

[Guitar 2]
1 + 2 + 3 + 4 + 1 + 2 + 3 + 4 + 1 + 2 + 3 + 4 + 1 + 2 + 3 + 4 +
e|------------------|------------------|------------------|------------------|
B|------------------|------------------|------------------|------------------|
G|------------------|------------------|------------------|------------------|
D|------------------|------------------|------------------|------------------|
A|--7-7-7-7-7-7-7-7-|--7-6-6-7-7-9-9-9-\--2-2-2-2-2-2-2-2-|--2-2-2-2-2-2-2-2-/
E|------------------|------------------|------------------|------------------|

[Guitar 1]
1 + 2 + 3 + 4 + 1 + 2 + 3 + 4 + 1 + 2 + 3 + 4 + 1 + 2 + 3 + 4 +
e|--r---6-6-r---6-6-|--r---6-6-r---6-6-|------------------|------------------|
B|--r---7-7-r---7-7-|--r---7-7-r---7-7-|------------------|------------------|
G|--r---6-6-r---6-6-|--r---6-6-r---6-6-|------------------|------------------|
D|------------------|------------------|--9-9-9-9-9-9-9-9-|--9-9-9-9-9-9-9-9-|
A|------------------|------------------|--9-9-9-9-9-9-9-9-|--9-9-9-9-9-9-9-9-|
E|------------------|------------------|--7-7-7-7-7-7-7-7-|--7-7-7-7-7-7-7-7-|

Guitar 2
1 + 2 + 3 + 4 + 1 + 2 + 3 + 4 + 1 + 2 + 3 + 4 + 1 + 2 + 3 + 4 +
e|------------------|------------------|------------------|------------------|
B|------------------|------------------|--1212121212121212|--1010101010101010|
G|------------------|------------------|------------------|------------------|
D|------------------|------------------|--9-9-9-9-9-9-9-9-|--7-7-7-7-7-7-7-7-|
A|--9-9-9-9-9-9-9-9-|--9-9-9-9-9-9-9-9-|------------------|------------------|
E|------------------|------------------|------------------|------------------|

[Guitar 1]
1 + 2 + 3 + 4 + 1 + 2 + 3 + 4 + 1 + 2 + 3 + 4 + 1 + 2 + 3 + 4 +
e|------------------|------------------|------------------|------------------|
B|--9-9-9-9-9-9-9-9-|--8-8-8-8-8-8-8-8-|------------------|------------------|
G|--9-9-9-9-9-9-9-9-|--9-9-9-9-9-9-9-9-|------------------|------------------|
D|--9-9-9-9-9-9-9-9-|--9-9-9-9-9-9-9-9-|--9-9-9-9-9-9-9-9-|--4-4-4-r---------|
A|--7-7-7-7-7-7-7-7-|--7-7-7-7-7-7-7-7-|--9-9-9-9-9-9-9-9-|--4-4-4-r---------|
E|------------------|------------------|--7-7-7-7-7-7-7-7-|--2-2-2-r---------|

[Guitar 2]
1 + 2 + 3 + 4 + 1 + 2 + 3 + 4 + 1 + 2 + 3 + 4 + 1 + 2 + 3 + 4 +
e|------------------|------------------|------------------|------------------|
B|--9-9-9-9-9-12129-|--8-8-8-8-8-8-8-8-|--1212121212121212|--7-7-7-r---------|
G|------------------|------------------|------------------|--------r---------|
D|--6-6-6-6-6-9-9-6-|--5-5-5-5-5-5-5-5-|--9-9-9-9-9-9-9-9-|--4-4-4-r---------|
A|------------------|------------------|------------------|------------------|
E|------------------|------------------|------------------|------------------|

[Guitar 1]
1 + 2 + 3 + 4 + 1 + 2 + 3 + 4 + 1 + 2 + 3 + 4 + 1 + 2 + 3 + 4 +
e|------------------|------------------|------------------|------------------|
B|------------------|------------------|------------------|------------------|
G|----------9-9-9-9-|----------9-9-9-9-|----------9-9-9-9-|----------9-9-9-9-|
D|--9-9-9-9-9-9-9-9-|--9-9-9-9-9-9-9-9-|--9-9-9-9-9-9-9-9-|--9-9-9-9-9-9-9-9-|
A|--9-9-9-9-7-7-7-7-|--9-9-9-9-7-7-7-7-|--9-9-9-9-7-7-7-7-|--9-9-9-9-7-7-7-7-|
E|--7-7-7-7---------|--7-7-7-7---------|--7-7-7-7---------|--7-7-7-7---------|

[Guitar 2]
1 + 2 + 3 + 4 + 1 + 2 + 3 + 4 + 1 + 2 + 3 + 4 + 1 + 2 + 3 + 4 +
e|------14--16--14--|------14--16--14--|------14--16--14--|------14--16--14--|
B|--1616--16------16|--1616--16--------|--1616--16------16|--1616--16--------|
G|------11--13--11--|------11--13--11--|------11--13--11--|------11--13--11--|
D|--1313--13------13|--1313--13--------|--1313--13------13|--1313--13--------|
A|------------------|------------------|------------------|------------------|
E|------------------|------------------|------------------|------------------|
(higher note is made by an octave pedal)

[Guitar 1]
1 + 2 + 3 + 4 + 1 + 2 + 3 + 4 + 1 + 2 + 3 + 4 + 1 + 2 + 3 + 4 +
e|------------------|------------------|------------------|------------------|
B|------------------|------------------|------------------|------------------|
G|------------------|------------------|--9-9-9-9-9-9-9-9-|--9-9-9-9-9-9-9-9-|
D|--9-9-9-9-9-9-9-9-|--9-9-9-9-9-9-9-9-|--9-9-9-9-9-9-9-9-|--9-9-9-9-9-9-9-9-|
A|--9-9-9-9-9-9-9-9-|--9-9-9-9-9-9-9-9-|--7-7-7-7-7-7-7-7-|--7-7-7-7-7-7-7-7-|
E|--7-7-7-7-7-7-7-7-|--7-7-7-7-7-7-7-7-|------------------|------------------|

[Guitar 2]
1 + 2 + 3 + 4 + 1 + 2 + 3 + 4 + 1 + 2 + 3 + 4 + 1 + 2 + 3 + 4 +
e|------------------|------------------|------------------|------------------|
B|----------4-5-4---|----------4-5-4---|----------9-109---|----------9-109---|
G|------4---------4-|------4---------4-|------9---------9-|------9---------9-|
D|----4---4---------|----4---4---------|----9---9---------|----9---9---------|
A|--2---------------|--2---------------|--7---------------|--7---------------|
E|------------------|------------------|------------------|------------------|

[Guitar 3]
1 + 2 + 3 + 4 + 1 + 2 + 3 + 4 + 1 + 2 + 3 + 4 + 1 + 2 + 3 + 4 +
e|------------------|------------------|------------------|------------------|
B|------------------|------------------|------------------|------------------|
G|------------------|------------------|------------------|------------------|
D|------------------|------------------|------------------|------------------|
A|--2-2-2-2-2-2-2-2-|--2-2-2-2-2-2-2-2-/--7-7-7-7-7-7-7-7-|--7-6-6-7-7-9-9-9-\
E|------------------|------------------|------------------|------------------|

[Guitar 1]
1 + 2 + 3 + 4 + 1 + 2 + 3 + 4 + 1 + 2 + 3 + 4 + 1 + 2 + 3 + 4 +
e|------------------|------------------|------------------|------------------|
B|------------------|------------------|------------------|------------------|
G|------------------|------------------|------------------|------------------|
D|--9-9-9-9-9-9-9-9-|--9-9-9-9-9-9-9-9-|--4-4-4-4-4-4-4-4-|--4-4-4-4-4-4-4-4-|
A|--9-9-9-9-9-9-9-9-|--9-9-9-9-9-9-9-9-|--4-4-4-4-4-4-4-4-|--4-4-4-4-4-4-4-4-|
E|--7-7-7-7-7-7-7-7-|--7-7-7-7-7-7-7-7-|--2-2-2-2-2-2-2-2-|--2-2-2-2-2-2-2-2-|

[Guitar 2]
1 + 2 + 3 + 4 + 1 + 2 + 3 + 4 + 1 + 2 + 3 + 4 + 1 + 2 + 3 + 4 +
e|------------------|------------------|------------------|------------------|
B|----------4-5-4---|----------4-5-4---|------------------|------------------|
G|------4--------4--|------4---------4-|----------4b6b43--|----------4b6b43--|
D|----4---4---------|----4---4---------|------4-----------|------4-----------|
A|--2---------------|--2---------------|----4---4---------|----4---4---------|
E|------------------|------------------|------------------|------------------|

[Guitar 3]
1 + 2 + 3 + 4 + 1 + 2 + 3 + 4 + 1 + 2 + 3 + 4 + 1 + 2 + 3 + 4 +
e|------------------|------------------|------------------|------------------|
B|------------------|------------------|------------------|------------------|
G|------------------|------------------|------------------|------------------|
D|------------------|------------------|------------------|------------------|
A|--2-2-2-2-2-2-2-2-|--2-2-2-2-2-2-2-2-/--9-9-9-9-9-9-9-9-|--9-9-9-9-9-9-9-9-\
E|------------------|------------------|------------------|------------------|

[Guitar 1]
1 + 2 + 3 + 4 + 1 + 2 + 3 + 4 + 1 + 2 + 3 + 4 + 1 + 2 + 3 + 4 +
e|------------------|------------------|------------------|------------------|
B|------------------|------------------|------------------|------------------|
G|------------------|------------------|--9-9-9-9-9-9-9-9-|--9-9-9-9-9-9-9-9-|
D|--9-9-9-9-9-9-9-9-|--9-9-9-9-9-9-9-9-|--9-9-9-9-9-9-9-9-|--9-9-9-9-9-9-9-9-|
A|--9-9-9-9-9-9-9-9-|--9-9-9-9-9-9-9-9-|--7-7-7-7-7-7-7-7-|--7-7-7-7-7-7-7-7-|
E|--7-7-7-7-7-7-7-7-|--7-7-7-7-7-7-7-7-|------------------|------------------|

[Guitar 2]
1 + 2 + 3 + 4 + 1 + 2 + 3 + 4 + 1 + 2 + 3 + 4 + 1 + 2 + 3 + 4 +
e|------------------|------------------|------------------|------------------|
B|----------4-5-4---|----------4-5-4---|----------9-109---|----------9-109---|
G|------4---------4-|------4---------4-|------9---------9-|------9---------9-|
D|----4---4---------|----4---4---------|----9---9---------|----9---9---------|
A|--2---------------|--2---------------|--7---------------|--7---------------|
E|------------------|------------------|------------------|------------------|

[Guitar 3]
1 + 2 + 3 + 4 + 1 + 2 + 3 + 4 + 1 + 2 + 3 + 4 + 1 + 2 + 3 + 4 +
e|------------------|------------------|------------------|------------------|
B|------------------|------------------|------------------|------------------|
G|------------------|------------------|------------------|------------------|
D|------------------|------------------|------------------|------------------|
A|--2-2-2-2-2-2-2-2-|--2-2-2-2-2-2-2-2-/--7-7-7-7-7-7-7-7-|--7-6-6-7-7-9-9-9-\
E|------------------|------------------|------------------|------------------|

[Guitar 1]
1 + 2 + 3 + 4 + 1 + 2 + 3 + 4 + 1 + 2 + 3 + 4 + 1 + 2 + 3 + 4 +
e|------------------|------------------|------------------|------------------|
B|------------------|------------------|------------------|------------------|
G|------------------|------------------|------------------|------------------|
D|--9-9-9-9-9-9-9-9-|--9-9-9-9-9-9-9-9-|--4-4-4-4-4-4-4-4-|--4-4-4-4-4-4-4-4-|
A|--9-9-9-9-9-9-9-9-|--9-9-9-9-9-9-9-9-|--4-4-4-4-4-4-4-4-|--4-4-4-4-4-4-4-4-|
E|--7-7-7-7-7-7-7-7-|--7-7-7-7-7-7-7-7-|--2-2-2-2-2-2-2-2-|--2-2-2-2-2-2-2-2-|

[Guitar 2]
1 + 2 + 3 + 4 + 1 + 2 + 3 + 4 + 1 + 2 + 3 + 4 + 1 + 2 + 3 + 4 +
e|------------------|------------------|------------------|------------------|
B|----------4-5-4---|----------4-5-4---|------------------|------------------|
G|------4---------4-|------4---------4-|----------4b6b43--|----------4b6b43--|
D|----4---4---------|----4---4---------|------4-----------|------4-----------|
A|--2---------------|--2---------------|----4---4---------|----4---4---------|
E|------------------|------------------|------------------|------------------|

Guitar 3]
1 + 2 + 3 + 4 + 1 + 2 + 3 + 4 + 1 + 2 + 3 + 4 + 1 + 2 + 3 + 4 +
e|------------------|------------------|------------------|------------------|
B|------------------|------------------|------------------|------------------|
G|------------------|------------------|------------------|------------------|
D|------------------|------------------|------------------|------------------|
A|--2-2-2-2-2-2-2-2-|--2-2-2-2-2-2-2-2-/--9-9-9-9-9-9-9-9-|--9-9-9-9-9-9-9-9-|
E|------------------|------------------|------------------|------------------|

[Guitar 1]
1 + 2 + 3 + 4 + 1 + 2 + 3 + 4 + 1 + 2 + 3 + 4 + 1 + 2 + 3 + 4 +
e|------------------|------------------|------------------|------------------|
B|------------------|------------------|--9-9-9-9-9-9-9-9-|--8-8-8-8-8-8-8-8-|
G|------------------|------------------|--9-9-9-9-9-9-9-9-|--9-9-9-9-9-9-9-9-|
D|--9-9-9-9-9-9-9-9-|--9-9-9-9-9-9-9-9-|--9-9-9-9-9-9-9-9-|--9-9-9-9-9-9-9-9-|
A|--9-9-9-9-9-9-9-9-|--9-9-9-9-9-9-9-9-|--7-7-7-7-7-7-7-7-|--7-7-7-7-7-7-7-7-|
E|--7-7-7-7-7-7-7-7-|--7-7-7-7-7-7-7-7-|------------------|------------------|

[Guitar 2]
1 + 2 + 3 + 4 + 1 + 2 + 3 + 4 + 1 + 2 + 3 + 4 + 1 + 2 + 3 + 4 +
e|------------------|------------------|------------------|------------------|
B|--1212121212121212|--1010101010101010|--9-9-9-9-9-12129-|--8-8-8-8-8-8-8-8-|
G|------------------|------------------|------------------|------------------|
D|--9-9-9-9-9-9-9-9-|--7-7-7-7-7-7-7-7-|--6-6-6-6-6-9-9-6-|--5-5-5-5-5-5-5-5-|
A|------------------|------------------|------------------|------------------|
E|------------------|------------------|------------------|------------------|

[Guitar 1]
1 + 2 + 3 + 4 + 1 + 2 + 3 + 4 + 1 + 2 + 3 + 4 + 1 + 2 + 3 + 4 +
e|------------------|------------------|------------------|------------------|
B|------------------|------------------|------------------|------------------|
G|------------------|------------------|------------------|------------------|
D|--9-9-9-9-9-9-9-9-|--9-9-9-9-9-9-9-9-|--4-4-4-4-4-4-4-4-|--4-4-4-4-4-4-4-4-|
A|--9-9-9-9-9-9-9-9-|--9-9-9-9-9-9-9-9-|--4-4-4-4-4-4-4-4-|--4-4-4-4-4-4-4-4-|
E|--7-7-7-7-7-7-7-7-|--7-7-7-7-7-7-7-7-|--2-2-2-2-2-2-2-2-|--2-2-2-2-2-2-2-2-|

[Guitar 2]
1 + 2 + 3 + 4 + 1 + 2 + 3 + 4 + 1 + 2 + 3 + 4 + 1 + 2 + 3 + 4 +
e|------------------|------------------|------------------|------------------|
B|--1212121212121212|--1010101010101010|--7-7-7-7-7-7-7-7-|--1111111111111111|
G|------------------|------------------|------------------|------------------|
D|--9-9-9-9-9-9-9-9-|--7-7-7-7-7-7-7-7-|--4-4-4-4-4-4-4-4-|--8-8-8-8-8-8-8-8-|
A|------------------|------------------|------------------|------------------|
E|------------------|------------------|------------------|------------------|

[Guitar 1]
1 + 2 + 3 + 4 + 1 + 2 + 3 + 4 + 1 + 2 + 3 + 4 + 1 + 2 + 3 + 4 +
e|------------------|------------------|------------------|------------------|
B|------------------|------------------|--9-9-9-9-9-9-9-9-|--8-8-8-8-8-8-8-8-|
G|------------------|------------------|--9-9-9-9-9-9-9-9-|--9-9-9-9-9-9-9-9-|
D|--9-9-9-9-9-9-9-9-|--9-9-9-9-9-9-9-9-|--9-9-9-9-9-9-9-9-|--9-9-9-9-9-9-9-9-|
A|--9-9-9-9-9-9-9-9-|--9-9-9-9-9-9-9-9-|--7-7-7-7-7-7-7-7-|--7-7-7-7-7-7-7-7-|
E|--7-7-7-7-7-7-7-7-|--7-7-7-7-7-7-7-7-|------------------|------------------|

[Guitar 2]
1 + 2 + 3 + 4 + 1 + 2 + 3 + 4 + 1 + 2 + 3 + 4 + 1 + 2 + 3 + 4 +
e|------------------|------------------|------------------|------------------|
B|--1212121212121212|--1010101010101010|--9-9-9-9-9-12129-|--8-8-8-8-8-8-8-8-|
G|------------------|------------------|------------------|------------------|
D|--9-9-9-9-9-9-9-9-|--7-7-7-7-7-7-7-7-|--6-6-6-6-6-9-9-6-|--5-5-5-5-5-5-5-5-|
A|------------------|------------------|------------------|------------------|
E|------------------|------------------|------------------|------------------|

[Guitar 1]
1 + 2 + 3 + 4 + 1 + 2 + 3 + 4 + 1 + 2 + 3 + 4 + 1 + 2 + 3 + 4 +
e|------------------|------------------|------------------|------------------|
B|------------------|------------------|------------------|------------------|
G|------------------|------------------|----------9-9-9-9-|----------9-9-9-9-|
D|--9-9-9-9-9-9-9-9-|--4-4-4-r---------|--9-9-9-9-9-9-9-9-|--9-9-9-9-9-9-9-9-|
A|--9-9-9-9-9-9-9-9-|--4-4-4-r---------|--9-9-9-9-7-7-7-7-|--9-9-9-9-7-7-7-7-|
E|--7-7-7-7-7-7-7-7-|--2-2-2-r---------|--7-7-7-7---------|--7-7-7-7---------|

[Guitar 2]
1 + 2 + 3 + 4 + 1 + 2 + 3 + 4 + 1 + 2 + 3 + 4 + 1 + 2 + 3 + 4 +
e|------------------|------------------|------14--16--14--|------14--16--14--|
B|--1212121212121212|--7-7-7-r---------|--1616--16------16|--1616--16--------|
G|------------------|------------------|------11--13--11--|------11--13--11--|
D|--9-9-9-9-9-9-9-9-|--4-4-4-r---------|--1313--13------13|--1313--13--------|
A|------------------|------------------|------------------|------------------|
E|------------------|------------------|------------------|------------------|
(higher note is made by an octave pedal)
[Guitar 1]
1 + 2 + 3 + 4 + 1 + 2 + 3 + 4 + 1 + 2 + 3 + 4 + 1 + 2 + 3 + 4 +
e|------------------|------------------|------------------|------------------|
B|------------------|------------------|------------------|------------------|
G|----------9-9-9-9-|----------9-9-9-9-|----------9-9-9-9-|----------9-9-9-9-|
D|--9-9-9-9-9-9-9-9-|--9-9-9-9-9-9-9-9-|--9-9-9-9-9-9-9-9-|--9-9-9-9-9-9-9-9-|
A|--9-9-9-9-7-7-7-7-|--9-9-9-9-7-7-7-7-|--9-9-9-9-7-7-7-7-|--9-9-9-9-7-7-7-7-|
E|--7-7-7-7---------|--7-7-7-7---------|--7-7-7-7---------|--7-7-7-7---------|

[Guitar 2]
1 + 2 + 3 + 4 + 1 + 2 + 3 + 4 + 1 + 2 + 3 + 4 + 1 + 2 + 3 + 4 +
e|------14--16--14--|------14--16--14--|------14--16--14--|------14--16--14--|
B|--1616--16------16|--1616--16--------|--1616--16------16|--1616--16--------|
G|------11--13--11--|------11--13--11--|------11--13--11--|------11--13--11--|
D|--1313--13------13|--1313--13--------|--1313--13------13|--1313--13--------|
A|------------------|------------------|------------------|------------------|
E|------------------|------------------|------------------|------------------|
(higher note is made by an octave pedal)
Guitar 1:
1 + 2 + 3 + 4 + 1 + 2 + 3 + 4 + 1 + 2 + 3 + 4 + 1 + 2 + 3 + 4 +
e|------------------|------------------|------------------|------------------|
B|------------------|------------------|------------------|------------------|
G|----------9-9-9-9-|----------9-9-9-9-|------------------|------------------|
D|--9-9-9-9-9-9-9-9-|--9-9-9-9-9-9-9-9-|--9---------------|------------------|
A|--9-9-9-9-7-7-7-7-|--9-9-9-9-7-7-7-7-|--9---------------|------------------|
E|--7-7-7-7---------|--7-7-7-7---------|--7---------------|------------------|

[Guitar 2]
1 + 2 + 3 + 4 + 1 + 2 + 3 + 4 + 1 + 2 + 3 + 4 + 1 + 2 + 3 + 4 +
e|------14--16--14--|------14--16--14--|------------------|------------------|
B|--1616--16------16|--1616--16--------|------------------|------------------|
G|------11--13--11--|------11--13--11--|------------------|------------------|
D|--1313--13------13|--1313--13--------|--13--------------|------------------|
A|------------------|------------------|------------------|------------------|
E|------------------|------------------|------------------|------------------|
(higher note is made by an octave pedal)

************************************

| / Slide up
| r Rest
| \ Slide down
| b Bend

************************************
Tunning: Standard (E A D G B e)
-----------------------------------------------------------------------------
LAST OF THE AMERICAN GIRLS - GREEN DAY
-----------------------------------------------------------------------------
My first tab!

Tabbed by: lofters
Email: seankcirtap@msn.com

Tuning: Standard (EADGBe)

--VERSE--

Starts with bass intro;

then guitar starts on "She wears her overcoat"

Guitar 1 (Palm Muted)

e|-----------------------------------------------------------------------|
B|-----------------------------------------------------------------------|
G|-----------------------------------------------------------------------|
D|-----------------------------------------------------------------------|
A|---------------------------------7-7-7-7-7-7-7--7-6-6-7-7-9-9----------|
E|-7-7-7-7-7-7-7-7-7-7-7-7-7-7-7-7---------------------------------------|

Guitar 1 (Cont. Palm Mute)

e|-----------------------------------------------------------------------|
B|-----------------------------------------------------------------------|
G|-----------------------------------------------------------------------|
D|-----------------------------------------------------------------------|
A|---------------------------------9-9-9-9-9-9-9-9-9-9-9-9-9-9-----------|
E|-7-7-7-7-7-7-7-7-7-7-7-7-7-7-7-7---------------------------------------| x2

Guitar 2

e|-----------------------------------------------------------------------|
B|-----------------------------------------------------------------------|
G|------------------------------------9-9-9-9-9-9-9-9-9-9-9-9-9-9-9-9----|
D|---9-9-9-9-9-9-9-9-9-9-9-9-9-9-9-9--9-9-9-9-9-9-9-9-9-9-9-9-9-9-9-9----|
A|---9-9-9-9-9-9-9-9-9-9-9-9-9-9-9-9--7-7-7-7-7-7-7-7-7-7-7-7-7-7-7-7----|
E|---7-7-7-7-7-7-7-7-7-7-7-7-7-7-7-7-------------------------------------|
. . . . . . . . . . . . . . . . . . . . . . . . . . . . . . . .

Guitar 2 (Cont.)

e|-----------------------------------------------------------------------|
B|-----------------------------------------------------------------------|
G|------------------------------------11-11-11-11-11-11-11-11-11-11-11---|
D|---9-9-9-9-9-9-9-9-9-9-9-9-9-9-9-9--11-11-11-11-11-11-11-11-11-11-11---|
A|---9-9-9-9-9-9-9-9-9-9-9-9-9-9-9-9--9-9-9-9-9-9-9-9-9-9-9-9-9-9-9-9----|
E|---7-7-7-7-7-7-7-7-7-7-7-7-7-7-7-7-------------------------------------| x2
. . . . . . . . . . . . . . . . . . . . . . . . . . . . . . . .

--CHORUS--

Guitar 1

e|-----------------|------------------|------------------|------------------|
B|-----------------|------------------|--9-9-9-9-9-9-9-9-|--8-8-8-8-8-8-8-8-|
G|-----------------|------------------|--9-9-9-9-9-9-9-9-|--9-9-9-9-9-9-9-9-|
D|-9-9-9-9-9-9-9-9-|--9-9-9-9-9-9-9-9-|--9-9-9-9-9-9-9-9-|--9-9-9-9-9-9-9-9-|
A|-9-9-9-9-9-9-9-9-|--9-9-9-9-9-9-9-9-|--7-7-7-7-7-7-7-7-|--7-7-7-7-7-7-7-7-|
E|-7-7-7-7-7-7-7-7-|--7-7-7-7-7-7-7-7-|------------------|------------------|

Guitar 2

e|-----------------|------------------|------------------|------------------|
B|-1212121212121212|--1010101010101010|--9-9-9-9-9-12129-|--8-8-8-8-8-8-8-8-|
G|-----------------|------------------|------------------|------------------|
D|-9-9-9-9-9-9-9-9-|--7-7-7-7-7-7-7-7-|--6-6-6-6-6-9-9-6-|--5-5-5-5-5-5-5-5-|
A|-----------------|------------------|------------------|------------------|
E|-----------------|------------------|------------------|------------------|

Guitar 2 (Cont.)

e|-----------------|-------------------|
B|-1212121212121212|---7-7-7-----------|
G|-----------------|-------------------|
D|-9-9-9-9-9-9-9-9-|---4-4-4-----------|
A|-----------------|-------------------|
E|-----------------|-------------------|

--POST CHORUS--

Guitar 1

e|--------------------------------------|
B|--------------------------------------|
G|-----------9-9-9-9-----------9-9-9-9--|
D|--9-9-9-9--9-9-9-9--9-9-9-9--9-9-9-9--| x2
A|--9-9-9-9--7-7-7-7--9-9-9-9--7-7-7-7--|
E|--7-7-7-7-----------7-7-7-7-----------|

Guitar 2

e|--------------------|-----------------|
B|--------------------|-----------------|
G|------11--1313--11--|-----11--1313--11| }To get the sound in the song,
D|--1313--13--------13|-1313--13--------| x2}use an octave pedal
A|--------------------|-----------------|
E|--------------------|-----------------|

--VERSE 2--

Guitar 1

Same as Verse 1

Guitar 2

e|-r---------------|------------------|------2-2-r---2-2-|--r---2-2-r---2-2-|
B|-r---5-5-r---5-5-|--r---5-5-r---5-5-|--r---4-4-r---4-4-|--r---4-4-r---4-4-|
G|-r---4-4-r---4-4-|--r---4-4-r---4-4-|--r---4-4-r---4-4-|--r---4-4-r---4-4-|
D|-----2-2-r---2-2-|--r---2-2-r---2-2-|--r---------------|------------------|
A|-----------------|------------------|------------------|------------------|
E|-----------------|------------------|------------------|------------------|

e|-r---6-6-r---6-6-|--r---6-6-r---6-6-|--r---2-2-r---2-2-|--r---2-2-r---2-2-|
B|-r---7-7-r---7-7-|--r---7-7-r---7-7-|--r---4-4-r---4-4-|--r---4-4-r---4-4-|
G|-r---6-6-r---6-6-|--r---6-6-r---6-6-|--r---4-4-r---4-4-|--r---4-4-r---4-4-|
D|-----------------|------------------|------------------|------------------|
A|-----------------|------------------|------------------|------------------|
E|-----------------|------------------|------------------|------------------|

--SOLO--

Chorus x1 - Both Guitars
POST-CHORUS x1 - Both guitars

Guitar 1

e|-----------------|------------------|------------------|------------------|
B|------4--4-5-4---|-------4--4-5-4---|-------9--9-109---|-------9--9-109---|
G|-----4---------4-|------4---------4-|------9---------9-|------9---------9-|
D|---4----4--------|----4----4--------|----9----9--------|----9----9--------|
A|-----------------|------------------|------------------|------------------|
E|-----------------|------------------|------------------|------------------|

e|-----------------|------------------|---------------------------|
B|------4--4-5-4---|-------4--4-5-4---|----------4b3----------4b3-|
G|-----4---------4-|------4---------4-|------4------------4-------|
D|---4----4--------|----4----4--------|----4---4--------4---4-----|
A|-----------------|------------------|--4------------4-----------| x2
E|-----------------|------------------|---------------------------|

Guitar 2 plays verse x2 underneath

then;

Guitar 1

e|-----------------|------------------|------------------|------------------|
B|-----------------|------------------|--9-9-9-9-9-9-9-9-|--8-8-8-8-8-8-8-8-|
G|-----------------|------------------|--9-9-9-9-9-9-9-9-|--9-9-9-9-9-9-9-9-|
D|-9-9-9-9-9-9-9-9-|--9-9-9-9-9-9-9-9-|--9-9-9-9-9-9-9-9-|--9-9-9-9-9-9-9-9-|
A|-9-9-9-9-9-9-9-9-|--9-9-9-9-9-9-9-9-|--7-7-7-7-7-7-7-7-|--7-7-7-7-7-7-7-7-|
E|-7-7-7-7-7-7-7-7-|--7-7-7-7-7-7-7-7-|------------------|------------------|

e|-----------------|------------------|------------------|------------------|
B|-----------------|------------------|------------------|------------------|
G|-----------------|------------------|------------------|------------------|
D|-9-9-9-9-9-9-9-9-|--9-9-9-9-9-9-9-9-|--4-4-4-4-4-4-4-4-|--4-4-4-4-4-4-4-4-|
A|-9-9-9-9-9-9-9-9-|--9-9-9-9-9-9-9-9-|--4-4-4-4-4-4-4-4-|--4-4-4-4-4-4-4-4-|
E|-7-7-7-7-7-7-7-7-|--7-7-7-7-7-7-7-7-|--2-2-2-2-2-2-2-2-|--2-2-2-2-2-2-2-2-|

e|-----------------|------------------|------------------|------------------|
B|-----------------|------------------|--9-9-9-9-9-9-9-9-|--8-8-8-8-8-8-8-8-|
G|-----------------|------------------|--9-9-9-9-9-9-9-9-|--9-9-9-9-9-9-9-9-|
D|-9-9-9-9-9-9-9-9-|--9-9-9-9-9-9-9-9-|--9-9-9-9-9-9-9-9-|--9-9-9-9-9-9-9-9-|
A|-9-9-9-9-9-9-9-9-|--9-9-9-9-9-9-9-9-|--7-7-7-7-7-7-7-7-|--7-7-7-7-7-7-7-7-|
E|-7-7-7-7-7-7-7-7-|--7-7-7-7-7-7-7-7-|------------------|------------------|

e|-----------------|------------------|
B|-----------------|------------------|
G|-----------------|------------------|
D|-9-9-9-9-9-9-9-9-|--4-4-4-r---------|
A|-9-9-9-9-9-9-9-9-|--4-4-4-r---------|
E|-7-7-7-7-7-7-7-7-|--2-2-2-r---------|

Guitar 2

e|-----------------|------------------|------------------|------------------|
B|-1212121212121212|--1010101010101010|--9-9-9-9-9-12129-|--8-8-8-8-8-8-8-8-|
G|-----------------|------------------|------------------|------------------|
D|-9-9-9-9-9-9-9-9-|--7-7-7-7-7-7-7-7-|--6-6-6-6-6-9-9-6-|--5-5-5-5-5-5-5-5-|
A|-----------------|------------------|------------------|------------------|
E|-----------------|------------------|------------------|------------------|

Guitar 2 (Cont.)

e|-----------------|-------------------|
B|-1212121212121212|---7-7-7-----------|
G|-----------------|-------------------|
D|-9-9-9-9-9-9-9-9-|---4-4-4-----------|
A|-----------------|-------------------|
E|-----------------|-------------------| x2

Then POST-CHORUS for outro
Song info
Last Of The American Girls
Green Day
2001
  • Rock
  • Alternative Rock
  • Pop Punk
Alternative tracks
Similar songs
Money - Pink Floyd
High And Dry - Radiohead
Peacemaker - Green Day
Interstate Love Song - Stone Temple Pilots

Hi! Hope you enjoy backing track experience.
If you want to help us in the development of the project, feel free to donate!