Poprocks And Coke - Green Day
00:00 / 00:00
Tabs and lyrics
Tunning: Standard (E A D G B e)
Artist: Green Day
Song: Poprocks & Coke
Album: Green Day: International Superhits (2001)
Note: Listen to the song for strumming patterns

Intro
e --------------------------------------------
B ---5---5-------5-------5-----------5---5----
G ---6---6---9---6---7---6---9---7---6---6----
D ---7---7---9---7---7---7---9---7---7---7----
A ---7---7---7---7---5---7---7---5---7---7----
E ---5---5-------5-------5-----------5---5----

Chorus
------------------------
-------5-----------5----
---7---6---9---7---6----
---7---7---9---7---7----
---5---7---7---5---7----
-------5-----------5----

Verse 1
-----------------------------------------------------------
-----------2---------------------------------------5---5---
---7-------2-------7-------9---7---7-------9---7---6---6---
---7---2---4---2---7---7---9---7---7---7---9---7---7---7---
---5---2---4---2---5---7---7---5---5---7---7---5---7---7---
-------0---2---0-------5---------------5-----------5---5---

Bridge
---------------------------
---------------------------
---9-----------------------
---9-----------------------
---7-----------------------
-------5555555555555555----

Verse 2
--------------------------------------------------------
--------------------------------------------------------
-----------------------7---6-----------------------7----
---7---2---4---2---7---7---6---7---2---4---2---7---7----
---7---2---4---2---7---5---4---7---2---4---2---7---5----
---5---0---2---0---5-----------5---0---2---0---5--------

---------------------
-------------10-9----
---6---7---9---------
---6---7---9---------
---4---5---7---------
---------------------



Ending |------x2------|
--------------------------------------------------------
-------5-----------5-----------2------------------------
---7---6---9---7---6---7-------2-------7-------9---7----
---7---7---9---7---7---7---2---4---2---7---7---9---7----
---5---7---7---5---7---5---2---4---2---5---7---7---5----
-------5-----------5-------0---2---0-------5------------

|--x4---|
----------------------------
---------------5-------5----
---7-------9---6---9---6----
---7---7---9---7---9---7----
---5---7---7---7---7---7----
-------5-------5-------5----

ORDER:
Intro
Chorus
Verse 1
Bridge
Chorus
Verse 1
Verse 2
Ending


Tunning: Standard (E A D G B e)
Poprocks and Coke
Green Day

E tuning


Intro

|-------------|---------------|
|-------------|------------99-|
|-6-66-6-6-66-|-6-66-6-6-6-99-|
|-7-77-7-7-77-|-7-77-7-7-7-99-|
|-7-77-7-7-77-|-7-77-7-7-7-77-|
|-5-55-5-5-55-|-5-55-5-5-5----|


Verse

|-------------|-------------|-------------|-------------|
|-------------|-7-77-7-7-77-|-------------|-9-99-9-9-99-|
|-6-66-6-6-66-|-7-77-7-7-77-|-6-66-6-6-66-|-9-99-9-9-99-|
|-7-77-7-7-77-|-7-77-7-7-77-|-7-77-7-7-77-|-9-99-9-9-99-|
|-7-77-7-7-77-|-5-55-5-5-55-|-7-77-7-7-77-|-7-77-7-7-77-|
|-5-55-5-5-55-|-------------|-5-55-5-5-55-|-------------|

|-------------|-------------|
|-7-77-7-7-77-|-------------|
|-7-77-7-7-77-|-6-66-6-6-66-|
|-7-77-7-7-77-|-7-77-7-7-77-|
|-5-55-5-5-55-|-7-77-7-7-77-|
|-------------|-5-55-5-5-55-|


Chorus

|---------------|---------------|---------------|
|-7-6-----------|-7-6-99-999-77-|-7-6-99-999-77-|
|-7-6-33-333-55-|-7-6-99-999-77-|-7-6-99-999-77-|
|-7-6-44-444-66-|-7-6-99-999-77-|-7-6-99-999-77-|
|-5-4-44-444-66-|-5-4-77-777-55-|-5-4-77-777-55-|
|-----22-222-44-|---------------|---------------|


Bridge

|---------------|---------------|-2-22-2-2-22-0-|
|---------------|---------------|-2-22-2-2-22-0-|
|-6-66-6-6-66-6-|-6-66-6-6-66-3-|-3-33-3-3-33-1-|
|-7-77-7-7-77-7-|-7-77-7-7-77-4-|-4-44-4-4-44-2-|
|-7-77-7-7-77-7-|-7-77-7-7-77-4-|-4-44-4-4-44-2-|
|-5-55-5-5-55-5-|-5-55-5-5-55-2-|-2-22-2-2-22-0-|

|-5-55-5-5-55-2-|---------------|-5-55-5-5-55-2-|
|-5-55-5-5-55-2-|-7-77-7-7-77-6-|-5-55-5-5-55-2-|
|-6-66-6-6-66-3-|-7-77-7-7-77-6-|-6-66-6-6-66-3-|
|-7-77-7-7-77-4-|-7-77-7-7-77-6-|-7-77-7-7-77-4-|
|-7-77-7-7-77-4-|-5-55-5-5-55-4-|-7-77-7-7-77-4-|
|-5-55-5-5-55-2-|---------------|-5-55-5-5-55-2-|

|-2-22-2-2-22-0-|-5-55-5-5-55-2-|-----------------|
|-2-22-2-2-22-0-|-5-55-5-5-55-2-|-----------------|
|-3-33-3-3-33-1-|-6-66-6-6-66-3-|-7-7-7-7-7-7-7-7-|
|-4-44-4-4-44-2-|-7-77-7-7-77-4-|-7-7-7-7-7-7-7-7-|
|-4-44-4-4-44-2-|-7-77-7-7-77-4-|-5-5-5-5-5-5-5-5-|
|-2-22-2-2-22-0-|-5-55-5-5-55-2-|-----------------|

|-----------------|-----------------|--------------|
|-----------------|-----------------|-10~~~~-9~~~~-|
|-6-6-6-6-7-7-7-7-|-9-9-9-9-9-9-9-9-|--------------|
|-7-7-7-7-7-7-7-7-|-9-9-9-9-9-9-9-9-|--------------|
|-5-5-5-5-5-5-5-5-|-7-7-7-7-7-7-7-7-|--------------|
|-----------------|-----------------|--------------|


Outro

|---------------|---------------|---------------|---------------|
|------------99-|------------99-|------------99-|---------------|
|-6-66-6-6-6-99-|-6-66-6-6-6-99-|-6-66-6-6-6-99-|-6-------------|
|-7-77-7-7-7-99-|-7-77-7-7-7-99-|-7-77-7-7-7-99-|-7-------------|
|-7-77-7-7-7-77-|-7-77-7-7-7-77-|-7-77-7-7-7-77-|-7-------------|
|-5-55-5-5-5----|-5-55-5-5-5----|-5-55-5-5-5----|-5-------------|

Order:

Intro (x1)
Verse (x2)
Chorus (x1)
Intro (x1)
Verse (x1)
Chorus (x1)
Bridge (x1)
Verse (x1) (come in a measure early playing A)
Chorus (x1) (play E an extra measure at the end)
Outro (x1)

Green Day rocks. Enjoy.
Tunning: Standard (E A D G B e)
"POPROCKS AND COKE"
WRITTEN BY: BILLIE JOE ARMSTRONG
MUSIC BY GREEN DAY
TABBED BY: el RAINBOW

INTRO:
A E
E---------------------------------------------------------------------|
B-2-2-2---2-2-2-2--2-2-2----------------------------------------------|
G-2-2-2---2-2-2-2--2-2-2--9-9-----------------------------------------|
D-2-2-2---2-2-2-2--2-2-2--9-9-----------------------------------------|
A-------------------------7-7-----------------------------------------|
E---------------------------------------------------------------------|

Verse 1 and 2:
A D A E D
E-------------------------------------------------------------------------|
B----2-2-2-2--2-2-2------------2-2-2-2--2-2-2-----------------------------|
G-*--2-2-2-2--2-2-2--7-7-7--*--2-2-2-2--2-2-2--9-9-9--9-9-9--7-7-7--7-7-7-|
D-*--2-2-2-2--2-2-2--7-7-7--*--2-2-2-2--2-2-2--9-9-9--9-9-9--7-7-7--7-7-7-|
A--------------------5-5-5---------------------7-7-7--7-7-7--5-5-5--5-5-5-|
E-------------------------------------------------------------------------|
A E
-------------- -------|
---2-2-2------ -------|
---2-2-2--{2x} --9-9--|
---2-2-2------ --9-9--|
-------------- --7-7--|
-------------- -------|

CHORUS:
F#m E D A E D A E D
E---------------------------------------------------------------|
B---------------------------------------------------------------|
G----------1-1-1-1--7----9-9-9-9--7-7-7-7----9-9-9-9--7-7-7-7---|
D-2-2-2-2--2-2-2-2--7-7--9-9-9-9--7-7-7-7--7-9-9-9-9--7-7-7-7---|
A-2-2-2-2--2-2-2-2--5-7--7-7-7-7--5-5-5-5--7-7-7-7-7--5-5-5-5---|
E-4-4-4-4-------------5--------------------5--------------------|

PLAY INTRO

VERSE 3 AND 4:
A D A E D
E---------------------------------------------------------------------------|
B----2-2-2-2--2-2-2-2------------2-2-2-2--2-2-2-----------------------------|
G-*--2-2-2-2--2-2-2-2--7-7-7--*--2-2-2-2--2-2-2--9-9-9--9-9-9--7-7-7--7-7-7-|
D-*--2-2-2-2--2-2-2-2--7-7-7--*--2-2-2-2--2-2-2--9-9-9--9-9-9--7-7-7--7-7-7-|
A----------------------5-5-5---------------------7-7-7--7-7-7--5-5-5--5-5-5-|
E---------------------------------------------------------------------------|
PM________________
A E
--------------|
---2-2-2------|
---2-2-2--9-9-|
---2-2-2--9-9-|
----------7-7-|
--------------|
CHORUS:
F#m E D A E D A E D
E---------------------------------------------------------------|
B---------------------------------------------------------------|
G----------1-1-1-1--7----9-9-9-9--7-7-7-7----9-9-9-9--7-7-7-7---|
D-2-2-2-2--2-2-2-2--7-7--9-9-9-9--7-7-7-7--7-9-9-9-9--7-7-7-7---|
A-2-2-2-2--2-2-2-2--5-7--7-7-7-7--5-5-5-5--7-7-7-7-7--5-5-5-5---|
E-4-4-4-4-------------5--------------------5--------------------|

PLAY INTRO

INSTRUMENTAL:
F#m E A D C# A F#m
E---------------------------------------------------------------------------|
B----------------2--2-2-2-2-2-2-2-----------------2--2-2-2-2-2-2-2----------|
G--------------1-2--2-2-2-2-2-2-2--7-7-7-7--7-7-6-2--2-2-2-2-2-2-2----------|
D-2-2-2-2--2-2-2-2--2-2-2-2-2-2-2--7-7-7-7--7-7-6-2--2-2-2-2-2-2-2--2-2-2-2-|
A-2-2-2-2--2-2-2-------------------5-5-5-5--5-5-4-------------------2-2-2-2-|
E-4-4-4-4--4-4------------------------------------------------------4-4-4-4-|
E A D Dmaj9 D E A E
----------------------------------------------------------------------------|
----------------------------------5-5----------------------------2----------|
-----1-2--2-2-2-2-2-2-2--7-7-7-7--6-6-7-7--1-1-1-1--1-1-1-1--1-1-2--9-9-9-9-|
-2-2-2-2--2-2-2-2-2-2-2--7-7-7-7--7-7-7-7--2-2-2-2--2-2-2-2--2-2-2--9-9-9-9-|
-2-2-2-2--2-2-2-2-2-2-2--5-5-5-5------5-5--2-2-2-2--2-2-2-2--2-2----7-7-7-7-|
-4-4------------------------------------------------------------------------|

----------|
----------|
-9-9-9-9--|
-9-9-9-9--|
-7-7-7-7--|
----------|

OUTRO:
A E A E
E----------------------------------------------------------|
B-2-2-2---2-2-2-2--2-2-2-------2-2-2---2-2-2-2--2-2-2------|
G-2-2-2---2-2-2-2--2-2-2--9-9--2-2-2---2-2-2-2--2-2-2--9-9-|
D-2-2-2---2-2-2-2--2-2-2--9-9--2-2-2---2-2-2-2--2-2-2--9-9-|
A-------------------------7-7--------------------------7-7-|
E----------------------------------------------------------|

A E
-----------------------------------|
--2-2-2---2-2-2-2--2-2-2-------2-2-|
--2-2-2---2-2-2-2--2-2-2--9-9--2-2-|
--2-2-2---2-2-2-2--2-2-2--9-9--2-2-|
--------------------------7-7------|
-----------------------------------|

-*-
-*- that means rest

*NOTE*
ok well I'm pretty sure all the verses are correct, but you might want to check the
and instrumental. All you have to do is listen the cd to get the rythym and timing and
ENJOY!--feel free to make any corrections.
Tunning: Standard (E A D G B e)
Green Day Poprocks & Coke
From the album International Superhits
Track: 2
Tabbed by Liam
Email: guitar_rocker_47@hotmail.com
Tuning: Standard

Riff 1
e|------------------------------------------------------------------|
B|------------------------------------------------------------------|
G|-6-x-66-x-6-x-6-x-66-x-6-x-66-x-66-x-6-x-6-x----------------------|
D|-7-x-77-x-7-x-7-x-77-x-7-x-77-x-77-x-7-x-7-x----------------------|
A|-7-x-77-x-7-x-7-x-77-x-7-x-77-x-77-x-7-x-7-x----------------------|
E|-5-x-55-x-5-x-5-x-55-x-5-x-55-x-55-x-5-x-5-x----------------------|

Riff add
e|------------------------------------------------------------------|
B|------------------------------------------------------------------|
G|------------------------------------------------------------------|
D|-9-9--------------------------------------------------------------|
A|-7-7--------------------------------------------------------------|
E|------------------------------------------------------------------|

Riff add 2
e|------------------------------------------------------------------|
B|------------------------------------------------------------------|
G|------------------------------------------------------------------|
D|-7-x-77-x-7-x-7-x-77----------------------------------------------|
A|-5-x-55-x-5-x-5-x-55----------------------------------------------|
E|------------------------------------------------------------------|

Riff add 3
e|------------------------------------------------------------------|
B|------------------------------------------------------------------|
G|------------------------------------------------------------------|
D|-9-x-99-x-9-x-9-x-99-x-7-x-77-x-7-x-7-----------------------------|
A|-7-x-77-x-7-x-7-x-77-x-5-x-55-x-5-x-5-----------------------------|
E|------------------------------------------------------------------|

Chorus
e|-----------------------------|------------------------------------|
B|-----------------------------|------------------------------------|
G|--2----------------7-7-7-7-7-|--2----------------7-7-7-7-7--------|
D|--2--2---4-4-4-4---7-7-7-7-7-|--2--2---4-4-4-4---7-7-7-7-7--------|
A|--0--2---4-4-4-4---5-5-5-5-5-|--0--2---4-4-4-4---5-5-5-5-5--------|
E|-----0---2-2-2-2-------------|-----0---2-2-2-2--------------------|

e|-----------------------------|------------------------------------|
B|-----------------------------|------------------------------------|
G|--2----------------7-7-7-7-7-|--2----------------7-7-7-7-7--------|
D|--2--2---4-4-4-4---7-7-7-7-7-|--2--2---4-4-4-4---7-7-7-7-7--------|
A|--0--2---4-4-4-4---5-5-5-5-5-|--0--2---4-4-4-4---5-5-5-5-5--------|
E|-----0---2-2-2-2-------------|-----0---2-2-2-2--------------------|

Fill 1
e|------------------------------------------------------------------|
B|------------------------------------------------------------------|
G|------------------------------------------------------------------|
D|--7-7-7-7-7-7-7-7-7-7-7-7-7-7-7-----------------------------------|
A|--7-7-7-7-7-7-7-7-7-7-7-7-7-7-7-----------------------------------|
E|--5-5-5-5-5-5-5-5-5-5-5-5-5-5-5-----------------------------------|
PM *****************************

Riff 2
e|------------------------------------------------------------------|
B|------------------------------------------------------------------|
G|------------------------------------------------------------------|
D|-7-x-77-x-7-x-7-x-77-x-77-x-77-x-7-x-7-x-7--2--4-x-44-x-44-x-4--2-|
A|-7-x-77-x-7-x-7-x-77-x-77-x-77-x-7-x-7-x-7--2--4-x-44-x-44-x-4--2-|
E|-5-x-55-x-5-x-5-x-55-x-55-x-55-x-5-x-5-x-5--0--2-x-22-x-22-x-2--0-|

e|------------------------------------------------------------------|
B|------------------------------------------------------------------|
G|------------------------------------------------------------------|
D|-7-x-77-x-77-x-7--2-----------------------------------------------|
A|-7-x-77-x-77-x-7--2-----------------------------------------------|
E|-5-x-55-x-55-x-5--0-----------------------------------------------|

Riff 2 add
e|------------------------------------------------------------------|
B|------------------------------------------------------------------|
G|-7-x-77-x-77-x-7-6------------------------------------------------|
D|-7-x-77-x-77-x-7-6------------------------------------------------|
A|-5-x-55-x-55-x-5-4------------------------------------------------|
E|------------------------------------------------------------------|

Bridge
e|------------------------------------------------------------------|
B|------------------------------------------------------------------|
G|-2-2-2-2-2-2-2-2---------------2-2-2-2-2-2-2-2--4-4-4-4-4-4---2---|
D|-0-0-0-0-0-0-0-0--4-4-4-4-4-4--0-0-0-0-0-0-0-0--2-2-2-2-2-2---2---|
A|------------------2-2-2-2-2-2---------------------------------0---|
E|------------------------------------------------------------------|

Outro
e|--------------------------------------------------------------------------|
B|--------------------------------------------------------------------------|
G|-6-x-66-x-6-x-6-x-66-x-6-x-66-x-66-x-6-x-6-x-------6-x-66-x-6-x-6-x-66----|
D|-7-x-77-x-7-x-7-x-77-x-7-x-77-x-77-x-7-x-7-x--9-9--7-x-77-x-7-x-7-x-77--9-|
A|-7-x-77-x-7-x-7-x-77-x-7-x-77-x-77-x-7-x-7-x--7-7--7-x-77-x-7-x-7-x-77--7-|
E|-5-x-55-x-5-x-5-x-55-x-5-x-55-x-55-x-5-x-5-x-------5-x-55-x-5-x-5-x-55----|


Order

Riff 1 (Acoustic)
Riff add (Acoustic)
Riff 1 (Acoustic)
Riff add 2 (Acoustic)
Riff 1 (Acoustic)
Riff add 3 (Acoustic)
Riff 1 (Acoustic)
Riff add 2 (Acoustic)
Riff 1 (Acoustic)
Riff add 3 (Acoustic)
Riff 1 (Acoustic)
Chorus (Acoustic)
Riff 1 (Acoustic)
Riff add (Acoustic)
Fill 1 (Acoustic)
Riff 1 (Electric)
Riff add 2 (Electric)
Riff 1 (Electric)
Riff add 3 (Electric)
Chorus (Electric)
Riff 1 (Electric)
Riff add (Electric)
Riff 2 (Electric)
Riff 2 add (Electric)
Riff 2 (Electric)
Bridge (Electric)
Riff 1
Riff add 2 (Electric)
Chorus (Electric)(hold last chord for 12 more measures than usual)
Outro (Acoustic)


Holy shit sticks this song kicks BOTTOM its really good and I hope this tab helps, please rate it. TA-RAH!
Tunning: Standard (E A D G B e)
Green Day Poprocks & Coke
From the album International superhits
Track 2
Tabbed by Liam
Email: guitar_rocker_47@hotmail.com
Tuning half a step down

Get ready for fun!!!! I worked so hard on this tab because it is such an amazing song–I
realise there are already tabs for this but mine is more accurate and for ppl looking
to being able to play the song straight from the tab –this is where you can find it.
Hope UG accept it! Have fun guys and gals but plz rate and comment on this –thank you!


Guitars:

All played and pre-recorded by Billie Joe Armstrong: -

Guitar 1 = acoustic/dreadnought guitar
Guitar 2 = electric clean guitar
Guitar 3 = electric distorted guitar

Notes:

Bass: bass plays the root note of each ‘Guitar 1’ (guitar 2 and 3 also where applicable)
chord played –very simple.

Effects: naturally you could use an acoustic modeller instead of acoustic guitar but
besides that possible effect –none.

General notes: listen out for the input of guitar 2 –the sound level increases at 00.24
and bass also enters here, its not that obvious to many but I noticed and have tabbed
this.

Verse 3’s rhythm is played the same as throughout although the speed increases slightly
–listen to hear this and compensate simply by playing faster.


Guitar tab – Poprocks and Coke


|Intro
|Guitar 1 only
e|--------------------------------------------|
B|-2-x-2-2-x-2-2-2-2-2---2-x-2-2-x-2-2-2--9-9-|
G|-2-x-2-2-x-2-2-2-2-2---2-x-2-2-x-2-2-2--9-9-|
D|-2-x-2-2-x-2-2-2-2-2---2-x-2-2-x-2-2-2--9-9-|
A|-0-x-0-0-x-0-0-0-0-0---0-x-0-0-x-0-0-0--7-7-|
E|--------------------------------------------|

|Verse part 1
|Guitar 1 only
e|----------------------------------------------------------------------------------|
B|2-x-2-2-x-2-2-2-2-2--7-x-7-7-x-7-7-7-7-7--2-x-2-2-x-2-2-2-2-2--9-x-9-9-x-9-9-9-9-9|
G|2-x-2-2-x-2-2-2-2-2--7-x-7-7-x-7-7-7-7-7--2-x-2-2-x-2-2-2-2-2--9-x-9-9-x-9-9-9-9-9|
D|2-x-2-2-x-2-2-2-2-2--7-x-7-7-x-7-7-7-7-7--2-x-2-2-x-2-2-2-2-2--9-x-9-9-x-9-9-9-9-9|
A|0-x-0-0-x-0-0-0-0-0--5-x-5-5-x-5-5-5-5-5--0-x-0-0-x-0-0-0-0-0--7-x-7-7-x-7-7-7-7-7|
E|----------------------------------------------------------------------------------|
e|---------------------|--------------------|
B|-7-x-7-7-x-7-7-7-7-7-|2-x-2-2-x-2-2-2-2-2-|
G|-7-x-7-7-x-7-7-7-7-7-|2-x-2-2-x-2-2-2-2-2-|
D|-7-x-7-7-x-7-7-7-7-7-|2-x-2-2-x-2-2-2-2-2-|
A|-5-x-5-5-x-5-5-5-5-5-|0-x-0-0-x-0-0-0-0-0-|
E|---------------------|--------------------|

|Verse part 2
|Guitar 1
e|----------------------------------------------------------------------------------|
B|2-x-2-2-x-2-2-2-2-2--7-x-7-7-x-7-7-7-7-7--2-x-2-2-x-2-2-2-2-2--9-x-9-9-x-9-9-9-9-9|
G|2-x-2-2-x-2-2-2-2-2--7-x-7-7-x-7-7-7-7-7--2-x-2-2-x-2-2-2-2-2--9-x-9-9-x-9-9-9-9-9|
D|2-x-2-2-x-2-2-2-2-2--7-x-7-7-x-7-7-7-7-7--2-x-2-2-x-2-2-2-2-2--9-x-9-9-x-9-9-9-9-9|
A|0-x-0-0-x-0-0-0-0-0--5-x-5-5-x-5-5-5-5-5--0-x-0-0-x-0-0-0-0-0--7-x-7-7-x-7-7-7-7-7|
E|----------------------------------------------------------------------------------|
|Guitar 2
e|----------------------------------------------------------------------------------|
B|----------------------------------------------------------------------------------|
G|---------------------7-x-7-7-x-7-7-7-7-7-----------------------9-x-9-9-x-9-9-9-9-9|
D|7-x-7-7-x-7-7-7-7-7--7-x-7-7-x-7-7-7-7-7--7-x-7-7-x-7-7-7-7-7--9-x-9-9-x-9-9-9-9-9|
A|7-x-7-7-x-7-7-7-7-7--5-x-5-5-x-5-5-5-5-5--7-x-7-7-x-7-7-7-7-7--7-x-7-7-x-7-7-7-7-7|
E|5-x-5-5-x-5-5-5-5-5-----------------------5-x-5-5-x-5-5-5-5-5---------------------|

|Guitar 1
e|---------------------|--------------------|--------------------0-|
B|-7-x-7-7-x-7-7-7-7-7-|2-x-2-2-x-2-2-2-2-2-|-2-x-2-2-x-2-2-2--2-0-|
G|-7-x-7-7-x-7-7-7-7-7-|2-x-2-2-x-2-2-2-2-2-|-2-x-2-2-x-2-2-2--2-1-|
D|-7-x-7-7-x-7-7-7-7-7-|2-x-2-2-x-2-2-2-2-2-|-2-x-2-2-x-2-2-2--2-2-|
A|-5-x-5-5-x-5-5-5-5-5-|0-x-0-0-x-0-0-0-0-0-|-0-x-0-0-x-0-0-0--0-2-|
E|---------------------|--------------------|--------------------0-|
|Guitar 2
e|---------------------|--------------------|----------------------|
B|---------------------|--------------------|----------------------|
G|-7-x-7-7-x-7-7-7-7-7-|--------------------|-2-x-2-2-x-2-2-2--2-1-|
D|-7-x-7-7-x-7-7-7-7-7-|7-x-7-7-x-7-7-7-7-7-|-2-x-2-2-x-2-2-2--2-2-|
A|-5-x-5-5-x-5-5-5-5-5-|7-x-7-7-x-7-7-7-7-7-|-0-x-0-0-x-0-0-0--0-2-|
E|---------------------|5-x-5-5-x-5-5-5-5-5-|--------------------0-|

|Chorus
|Guitar 1
e|----------0-0-0----------------------------------------------------|
B|----------0-0-0--7----9-9-9-9--7-7-7-7--7----9-9-9-9--7-7-7-7-7-9#-|
G|----------1-1-1--7-6--9-9-9-9--7-7-7-7--7-6--9-9-9-9--7-7-7-7-7-9#-|
D|-4-4-4-4--2-2-2--7-7--9-9-9-9--7-7-7-7--7-7--9-9-9-9--7-7-7-7-7-9#-|
A|-4-4-4-4--2-2-2--5-7--7-7-7-7--5-5-5-5--5-7--7-7-7-7--5-5-5-5-5-7#-|
E|-2-2-2-2--0-0-0----5----------------------5------------------------|
|Guitar 2
e|-2-2-2-2-----------------------------------------------------------|
B|-2-2-2-2-----------------------------------------------------------|
G|-3-3-3-3--1-1-1--7----9-9-9-9--7-7-7-7--7----9-9-9-9--7-7-7-7-7-9#-|
D|-4-4-4-4--2-2-2--7-7--9-9-9-9--7-7-7-7--7-7--9-9-9-9--7-7-7-7-7-9#-|
A|-4-4-4-4--2-2-2--5-7--7-7-7-7--5-5-5-5--5-7--7-7-7-7--5-5-5-5-5-7#-|
E|-2-2-2-2--0-0-0----5----------------------5------------------------|

|Post Chorus
|Guitar 1
e|-----------------------------------------------|
B|-2-x-2-2-x-2-2-2-2-2---2-x-2-2-x-2-2-2--9-9--2-|
G|-2-x-2-2-x-2-2-2-2-2---2-x-2-2-x-2-2-2--9-9--2-|
D|-2-x-2-2-x-2-2-2-2-2---2-x-2-2-x-2-2-2--9-9--2-|
A|-0-x-0-0-x-0-0-0-0-0---0-x-0-0-x-0-0-0--7-7--0-|
E|-----------------------------------------------|
|Guitar 1
e|-----------------------------------------------|
B|-----------------------------------------------|
G|----------------------------------------9-9----|
D|-7-x-7-7-x-7-7-7-7-7---7-x-7-7-x-7-7-7--9-9--7-|
A|-7-x-7-7-x-7-7-7-7-7---7-x-7-7-x-7-7-7--7-7--7-|
E|-5-x-5-5-x-5-5-5-5-5---5-x-5-5-x-5-5-5-------5-|

|Pre Verse
|Guitar 2 only
e|----------------------------------|
B|----------------------------------|
G|----------------------------------|
D|-7-7-7-7-7-7-7-7--7-7-7-7-7-7-7-7-|
A|-7-7-7-7-7-7-7-7--7-7-7-7-7-7-7-7-|
E|-5-5-5-5-5-5-5-5--5-5-5-5-5-5-5-5-|
PM *************** ***************

|Verse 2
|Guitar 3 only
e|-----------------------------------------------------------------------------------|
B|-----------------------------------------------------------------------------------|
G|-7-x-7-7-x-7-7-7-7-7--6-x-6-6-x-6-6-6-6-6--9-x-9-9-x-9-9-9-9-9--7-x-7-7-x-7-7-7-7-7|
D|-7-x-7-7-x-7-7-7-7-7--7-x-7-7-x-7-7-7-7-7--9-x-9-9-x-9-9-9-9-9--7-x-7-7-x-7-7-7-7-7|
A|-5-x-5-5-x-5-5-5-5-5--7-x-7-7-x-7-7-7-7-7--7-x-7-7-x-7-7-7-7-7--5-x-5-5-x-5-5-5-5-5|
E|----------------------5-x-5-5-x-5-5-5-5-5------------------------------------------|
e|--------------------0-|
B|------------------2-0-|
G|-2-x-2-2-x-2-2-2--2-1-|
D|-2-x-2-2-x-2-2-2--2-2-|
A|-0-x-0-0-x-0-0-0--0-2-|
E|--------------------0-|

|Chorus 2
|Guitar 3 only
e|----------0-0-0----------------------------------------------------|
B|----------0-0-0----------------------------------------------------|
G|----------1-1-1--7-6--9-9-9-9--7-7-7-7--7-6--9-9-9-9--7-7-7-7-7-9#-|
D|-4-4-4-4--2-2-2--7-7--9-9-9-9--7-7-7-7--7-7--9-9-9-9--7-7-7-7-7-9#-|
A|-4-4-4-4--2-2-2--5-7--7-7-7-7--5-5-5-5--5-7--7-7-7-7--5-5-5-5-5-7#-|
E|-2-2-2-2--0-0-0----5----------------------5------------------------|

|Bridge
|Guitar 3 only
e|-----------------------------------------0-|
B|-----------------------2-x-2-2-x-2-2-2-2-0-|
G|-6-x-6-6-x-6-6-6-6-6---2-x-2-2-x-2-2-2-2-1-|
D|-7-x-7-7-x-7-7-7-7-7---2-x-2-2-x-2-2-2-2-2-|
A|-7-x-7-7-x-7-7-7-7-7---0-x-0-0-x-0-0-0-0-2-|
E|-5-x-5-5-x-5-5-5-5-5---------------------0-|

|Interlude
|Guitar 3 only
e|-2-x-2-2-x-2-2-2-2-2-2--0-------------------------------------------------|
B|-2-x-2-2-x-2-2-2-2-2-2--0-------------------------------------------------|
G|-3-x-3-3-x-3-3-3-3-3-3--1--6-x-6-6-x-6-6-6-6-6-6--7-x-7-7-x-7-7-7-7-7-7-6-|
D|-4-x-4-4-x-4-4-4-4-4-4--2--7-x-7-7-x-7-7-7-7-7-7--7-x-7-7-x-7-7-7-7-7-7-6-|
A|-4-x-4-4-x-4-4-4-4-4-4--2--7-x-7-7-x-7-7-7-7-7-7--5-x-5-5-x-5-5-5-5-5-5-4-|
E|-2-x-2-2-x-2-2-2-2-2-2--0--5-x-5-5-x-5-5-5-5-5-5--------------------------|

e|-------------------------2-x-2-2-x-2-2-2-2-2-2--0------------------------|
B|-------------------------2-x-2-2-x-2-2-2-2-2-2--0------------------------|
G|-6-x-6-6-x-6-6-6-6-6-6---3-x-3-3-x-3-3-3-3-3-3--1--2-x-2-2-x-2-2-2-2-2-2-|
D|-7-x-7-7-x-7-7-7-7-7-7---4-x-4-4-x-4-4-4-4-4-4--2--2-x-2-2-x-2-2-2-2-2-2-|
A|-7-x-7-7-x-7-7-7-7-7-7---4-x-4-4-x-4-4-4-4-4-4--2--0-x-0-0-x-0-0-0-0-0-0-|
E|-5-x-5-5-x-5-5-5-5-5-5---2-x-2-2-x-2-2-2-2-2-2--0------------------------|

e|---------------------------------------------------------------------0-|
B|---------------------------------------------------------------------0-|
G|-7-7-7-7-7-7-7-7--7-7-7-7-7-7-7-7--6-6-6-6-6-6-6-6--7-7-7-7-7-7-7-7--1-|
D|-7-7-7-7-7-7-7-7--7-7-7-7-7-7-7-7--7-7-7-7-7-7-7-7--7-7-7-7-7-7-7-7--2-|
A|-5-5-5-5-5-5-5-5--5-5-5-5-5-5-5-5--5-5-5-5-5-5-5-5--5-5-5-5-5-5-5-5--2-|
E|---------------------------------------------------------------------0-|

|lead lick
|Guitar 1 only
e|-----------| (played during the
B|-10~~--9~~-| last D chord at the
G|-----------| end of the Interlude)
D|-----------|
A|-----------| D Chord = |x577xx|
E|-----------|

|Verse 3
|Guitar 3
e|----------------------------------------------------------------|
B|----------------------------------------------------------------|
G|--7-x-7-7-x-7-7-7-7-7--6-x-6-6-x-6-6-6-6-6--9-x-9-9-x-9-9-9-9-9-|
D|--7-x-7-7-x-7-7-7-7-7--7-x-7-7-x-7-7-7-7-7--9-x-9-9-x-9-9-9-9-9-|
A|--5-x-5-5-x-5-5-5-5-5--7-x-7-7-x-7-7-7-7-7--7-x-7-7-x-7-7-7-7-7-|
E|-----------------------5-x-5-5-x-5-5-5-5-5----------------------|

e|-----------------------------------------0-|
B|---------------------------------------2-0-|
G|-7-x-7-7-x-7-7-7-7-7--6-x-6-6-x-6-6-6--2-1-|
D|-7-x-7-7-x-7-7-7-7-7--7-x-7-7-x-7-7-7--2-2-|
A|-5-x-5-5-x-5-5-5-5-5--7-x-7-7-x-7-7-7--0-2-|
E|----------------------5-x-5-5-x-5-5-5----0-|

|Chorus 2
|Guitar 3 only
e|----------0-0-0---------------------------------------------------|
B|----------0-0-0---------------------------------------------------|
G|----------1-1-1--7-6--9-9-9-9--7-7-7-7--7-6--9-9-9-9--7-7-7-7-7-7-|
D|-4-4-4-4--2-2-2--7-7--9-9-9-9--7-7-7-7--7-7--9-9-9-9--7-7-7-7-7-7-|
A|-4-4-4-4--2-2-2--5-7--7-7-7-7--5-5-5-5--5-7--7-7-7-7--5-5-5-5-5-5-|
E|-2-2-2-2--0-0-0----5----------------------5-----------------------|
E|-------------------------------------|
B|-------------------------------------|
G|-6-9--9-9-9-9-9-9-9-9--9-9-9-9-9-9-9-|
D|-7-9--9-9-9-9-9-9-9-9--9-9-9-9-9-9-9-|
A|-7-7--7-7-7-7-7-7-7-7--7-7-7-7-7-7-7-|
E|-5-----------------------------------|

|Outro
|Guitar 1
e|----------------------------------------------------------------------|
B|-2-x-2-2-x-2-2-2--9-9---2-x-2-2-x-2-2-2--9-9---2-x-2-2-x-2-2-2--9-9-2-|
G|-2-x-2-2-x-2-2-2--9-9---2-x-2-2-x-2-2-2--9-9---2-x-2-2-x-2-2-2--9-9-2-|
D|-2-x-2-2-x-2-2-2--9-9---2-x-2-2-x-2-2-2--9-9---2-x-2-2-x-2-2-2--9-9-2-|
A|-0-x-0-0-x-0-0-0--7-7---0-x-0-0-x-0-0-0--7-7---0-x-0-0-x-0-0-0--7-7-0-|
E|----------------------------------------------------------------------|
Song info
Poprocks And Coke
Green Day
2001
  • Rock
  • Punk
Alternative tracks
Similar songs
Shes A Rebel - Green Day
Drunken Lullabies - Flogging Molly
Still Waiting - Sum 41
Human Fly - The Cramps
Problems - Sex Pistols

Hi! Hope you enjoy backing track experience.
If you want to help us in the development of the project, feel free to donate!