Wake Me Up When September Ends - Green Day
00:00 / 00:00
Tabs and lyrics
Tunning: Standard (E A D G B e)
[Intro]

e|---------------------------------------------------------|
B|------3-----3-------3-----3-------3-----3-------3-----3--|
G|----0-----0-------0-----0-------0-----0-------0-----0----|
D|--5-----5-------5-----5-------5-----5-------5-----5------|
A|---------------------------------------------------------|
E|---------------------------------------------------------|


[Verse]

e|---------------------------------------------------------|
B|------3-----3-------3-----3-------3-----3-------3-----3--|
G|----0-----0-------0-----0-------0-----0-------0-----0----|
D|--5-----5-------4-----4-------2-----2-------0-----0------|
A|---------------------------------------------------------|
E|---------------------------------------------------------|

e|------3-----3-------3-----3----|
B|------5-----5-------4-----4----|
G|----5-----5---5---5-----5---5--|
D|--5-----5-------5-----5--------|
A|-------------------------------|
E|-------------------------------|

e|------------------------------|
B|------3-----3-------3-----3---|
G|----0-----0---0---0-----0---0-|
D|--5-----5-------5-----5-------|
A|------------------------------|
E|------------------------------|


e|---------------------------------------------------------|
B|------3-----3-------3-----3-------3-----3-------3-----3--|
G|----0-----0-------0-----0-------0-----0-------0-----0----|
D|--5-----5-------4-----4-------2-----2-------0-----0------|
A|---------------------------------------------------------|
E|---------------------------------------------------------|

e|------3-----3-------3-----3----|
B|------5-----5-------4-----4----|
G|----5-----5---5---5-----5---5--|
D|--5-----5-------5-----5--------|
A|-------------------------------|
E|-------------------------------|

e|-----------------------------------|
B|------3-----3-------3-------3------|
G|----0-----0---0---0---0---0--0-----|
D|--5-----5-------5-------4----------|
A|-----------------------------------|
E|-----------------------------------|


[Chorus]

e|------------------------------------------------------------|
B|------3-----3-------3-----3-------3-----3-------3-------3---|
G|----0-----0---0---0-----0---0---0-----0---0---0---0---0--0--|
D|--2-----2-----------------------------------5-------4-------|
A|----------------2-----2-------3-----3-----------------------|
E|------------------------------------------------------------|

e|------------------------------------------------------------|
B|------3-----3-------3-----3-------3-----3-------3-----3-----|
G|----0-----0---0---0-----0---0---0-----0-------0-----0---0---|
D|--2-----2-----------------------------------0-----0---------|
A|----------------2-----2-------3-----3-----------------------|
E|------------------------------------------------------------|


e|---------------------------------------------------------|
B|------3-----3-------3-----3-------3-----3-------3-----3--|
G|----0-----0-------0-----0-------0-----0-------0-----0----|
D|--5-----5-------4-----4-------2-----2-------0-----0------|
A|---------------------------------------------------------|
E|---------------------------------------------------------|

e|------3-----3-------3-----3----|
B|------5-----5-------4-----4----|
G|----5-----5---5---5-----5---5--|
D|--5-----5-------5-----5--------|
A|-------------------------------|
E|-------------------------------|

e|------------------------------|
B|------3-----3-------3-----3---|
G|----0-----0---0---0-----0---0-|
D|--5-----5-------5-----5-------|
A|------------------------------|
E|------------------------------|


[Instrumental]

e|---------------------------------------------------------|
B|------3-----3-------3-----3-------3-----3-------3-----3--|
G|----0-----0-------0-----0-------0-----0-------0-----0----|
D|--5-----5-------5-----5-------5-----5-------5-----5------| x3
A|---------------------------------------------------------|
E|---------------------------------------------------------|


[Verse 2]

e|---------------------------------------------------------|
B|------3-----3-------3-----3-------3-----3-------3-----3--|
G|----0-----0-------0-----0-------0-----0-------0-----0----|
D|--5-----5-------4-----4-------2-----2-------0-----0------|
A|---------------------------------------------------------|
E|---------------------------------------------------------|

C Cm
e|-------------------------------|
B|--5-5-5-5-5-5-5-4-4-4-4-4-4-4--|
G|--5-5-5-5-5-5-5-5-5-5-5-5-5-5--|
D|--5-5-5-5-5-5-5-5-5-5-5-5-5-5--|
A|--3-3-3-3-3-3-3-3-3-3-3-3-3-3--|
E|-------------------------------|

G5
e|------------------------------|
B|------------------------------|
G|------------------------------|
D|--5-5-5-5-5-5-5-5-5-5-5-5-5-5-|
A|--5-5-5-5-5-5-5-5-5-5-5-5-5-5-|
E|--3-3-3-3-3-3-3-3-3-3-3-3-3-3-|


e|---------------------------------------------------------|
B|------3-----3-------3-----3-------3-----3-------3-----3--|
G|----0-----0-------0-----0-------0-----0-------0-----0----|
D|--5-----5-------4-----4-------2-----2-------0-----0------|
A|---------------------------------------------------------|
E|---------------------------------------------------------|

C Cm
e|-------------------------------|
B|--5-5-5-5-5-5-5-4-4-4-4-4-4-4--|
G|--5-5-5-5-5-5-5-5-5-5-5-5-5-5--|
D|--5-5-5-5-5-5-5-5-5-5-5-5-5-5--|
A|--3-3-3-3-3-3-3-3-3-3-3-3-3-3--|
E|-------------------------------|

G5 G5/F#
e|------------------------------|
B|------------------------------|
G|------------------------------|
D|--5-5-5-5-5-5-5-5-5-5-5-5-5-5-|
A|--5-5-5-5-5-5-5-5-5-5-5-5-5-5-|
E|--3-3-3-3-3-3-3-3-3-3-2-2-2-2-|


[Chorus]

Em Bm C5 G5 G5/F#
e|----------------------------------------------------------------|
B|-----------------3-3-3-3-3-3-3----------------------------------|
G|--0-0-0-0-0-0-0--4-4-4-4-4-4-4--5-5-5-5-5-5-5-------------------|
D|--2-2-2-2-2-2-2--4-4-4-4-4-4-4--5-5-5-5-5-5-5--5-5-5-5-5-5-5-5--|
A|--2-2-2-2-2-2-2--2-2-2-2-2-2-2--3-3-3-3-3-3-3--5-5-5-5-5-5-5-5--|
E|--0-0-0-0-0-0-0--------------------------------3-3-3-3-2-2-2-2--|

Em Bm C5 D5
e|----------------------------------------------------------------|
B|-----------------3-3-3-3-3-3-3----------------------------------|
G|--0-0-0-0-0-0-0--4-4-4-4-4-4-4--5-5-5-5-5-5-5--7-7-7-7-7-7-7-7--|
D|--2-2-2-2-2-2-2--4-4-4-4-4-4-4--5-5-5-5-5-5-5--7-7-7-7-7-7-7-7--|
A|--2-2-2-2-2-2-2--2-2-2-2-2-2-2--3-3-3-3-3-3-3--5-5-5-5-5-5-5-5--|
E|--0-0-0-0-0-0-0-------------------------------------------------|


e|---------------------------------------------------------|
B|------3-----3-------3-----3-------3-----3-------3-----3--|
G|----0-----0-------0-----0-------0-----0-------0-----0----|
D|--5-----5-------4-----4-------2-----2-------0-----0------|
A|---------------------------------------------------------|
E|---------------------------------------------------------|

C Cm
e|-------------------------------|
B|--5-5-5-5-5-5-5-4-4-4-4-4-4-4--|
G|--5-5-5-5-5-5-5-5-5-5-5-5-5-5--|
D|--5-5-5-5-5-5-5-5-5-5-5-5-5-5--|
A|--3-3-3-3-3-3-3-3-3-3-3-3-3-3--|
E|-------------------------------|

G5 G5/F#
e|------------------------------|
B|------------------------------|
G|------------------------------|
D|--5-5-5-5-5-5-5-5-5-5-5-5-5-5-|
A|--5-5-5-5-5-5-5-5-5-5-5-5-5-5-|
E|--3-3-3-3-3-3-3-3-3-3-2-2-2-2-|




[Solo]

Em Bm C5 G5 G5/F#
e|------7-----7-7------7-----7-7------8-----8-8--10-10-10-10-10-10--8-8-8-8-8-8--|
B|--8-8---8-8--8---7-7---7-7--7---8-8---8-8--8---8--8--8--8--8--8---7-7-7-7-7-7--|
G|-------------------------------------------------------------------------------|
D|-------------------------------------------------------------------------------|
A|-------------------------------------------------------------------------------|
E|-------------------------------------------------------------------------------|

Em Bm C5
e|------7-----7-7------7-----7-7-----8------8-8-------|
B|--8-8---8-8--8---7-7---7-7--7---8-8---8-8--8--------|
G|----------------------------------------------------|
D|----------------------------------------------------|
A|----------------------------------------------------|
E|----------------------------------------------------|

G5 G5/F# G5 G5/F#
e|--10-10-10-10-10-10--8-8-8-8-8-8--10-10-10-10-10-10--8-8-8-8-8-8-|
B|--8--8--8--8--8--8---7-7-7-7-7-7--8--8--8--8--8--8---7-7-7-7-7-7-|
G|-----------------------------------------------------------------|
D|-----------------------------------------------------------------|
A|-----------------------------------------------------------------|
E|-----------------------------------------------------------------|


[Instrumental]

e|---------------------------------------------------------|
B|------3-----3-------3-----3-------3-----3-------3-----3--|
G|----0-----0-------0-----0-------0-----0-------0-----0----|
D|--5-----5-------5-----5-------5-----5-------5-----5------|
A|---------------------------------------------------------|
E|---------------------------------------------------------|


[Verse 3]

e|---------------------------------------------------------|
B|------3-----3-------3-----3-------3-----3-------3-----3--|
G|----0-----0-------0-----0-------0-----0-------0-----0----|
D|--5-----5-------4-----4-------2-----2-------0-----0------|
A|---------------------------------------------------------|
E|---------------------------------------------------------|

C Cm
e|-------------------------------|
B|--5-5-5-5-5-5-5-4-4-4-4-4-4-4--|
G|--5-5-5-5-5-5-5-5-5-5-5-5-5-5--|
D|--5-5-5-5-5-5-5-5-5-5-5-5-5-5--|
A|--3-3-3-3-3-3-3-3-3-3-3-3-3-3--|
E|-------------------------------|

G5
e|------------------------------|
B|------------------------------|
G|------------------------------|
D|--5-5-5-5-5-5-5-5-5-5-5-5-5-5-|
A|--5-5-5-5-5-5-5-5-5-5-5-5-5-5-|
E|--3-3-3-3-3-3-3-3-3-3-3-3-3-3-|


e|---------------------------------------------------------|
B|------3-----3-------3-----3-------3-----3-------3-----3--|
G|----0-----0-------0-----0-------0-----0-------0-----0----|
D|--5-----5-------4-----4-------2-----2-------0-----0------|
A|---------------------------------------------------------|
E|---------------------------------------------------------|

C Cm
e|-------------------------------|
B|--5-5-5-5-5-5-5-4-4-4-4-4-4-4--|
G|--5-5-5-5-5-5-5-5-5-5-5-5-5-5--|
D|--5-5-5-5-5-5-5-5-5-5-5-5-5-5--|
A|--3-3-3-3-3-3-3-3-3-3-3-3-3-3--|
E|-------------------------------|

G5 G5/F#
e|------------------------------|
B|------------------------------|
G|------------------------------|
D|--5-5-5-5-5-5-5-5-5-5-5-5-5-5-|
A|--5-5-5-5-5-5-5-5-5-5-5-5-5-5-|
E|--3-3-3-3-3-3-3-3-3-3-2-2-2-2-|


[Outro]

C Cm G5
e|----------------------------------------------------------|
B|--5-5-5-5-5-5-5-4-4-4-4-4-4-4-----------------------------|
G|--5-5-5-5-5-5-5-5-5-5-5-5-5-5-----------------------------| x3
D|--5-5-5-5-5-5-5-5-5-5-5-5-5-5-5-5-5-5-5-5-5-5-5-5-5-5-5-5-|
A|--3-3-3-3-3-3-3-3-3-3-3-3-3-3-5-5-5-5-5-5-5-5-5-5-5-5-5-5-|
E|------------------------------3-3-3-3-3-3-3-3-3-3-3-3-3-3-|
Song info
Wake Me Up When September Ends
Green Day
2001
  • Rock
  • Alternative Rock
  • Pop Punk
  • Punk
Alternative tracks
Similar songs
All My Life - Foo Fighters
Perfect 10 - The Beautiful South
You Have Killed Me - Morrissey
Give Me A Sign - Breaking Benjamin
Viva La Gloria - Green Day

Hi! Hope you enjoy backing track experience.
If you want to help us in the development of the project, feel free to donate!