Sweet Child O Mine - Guns N' Roses
00:00 / 00:00
Tabs and lyrics
Tunning: Standard (E A D G B e)
[Intro]

D
eb|--------------15----14-----|--------------15----14-----|
Bb|-----15--------------------|-----15--------------------|
Gb|--------14-12----14----14--|--------14-12----14----14--|
Db|--12-----------------------|--12-----------------------|
Ab|---------------------------|---------------------------|
Eb|---------------------------|---------------------------|
C
eb|--------------15----14-----|--------------15----14-----|
Bb|-----15--------------------|-----15--------------------|
Gb|--------14-12----------14--|--------14-12----------14--|
Db|--14-----------------------|--14-----------------------|
Ab|---------------------------|---------------------------|
Eb|---------------------------|---------------------------|
G
eb|--------------15----14-----|--------------15----14-----|
Bb|-----15--------------------|-----15--------------------|
Gb|--12----14-12----14----14--|--12----14-12----14----14--|
Db|---------------------------|---------------------------|
Ab|---------------------------|---------------------------|
Eb|---------------------------|---------------------------|
D
eb|--------------15----14-----|--------------15----14-----|
Bb|-----15--------------------|-----15--------------------|
Gb|--------14-12----14----14--|--------14-12----14----14--|
Db|--12-----------------------|--12-----------------------|
Ab|---------------------------|---------------------------|
Eb|---------------------------|---------------------------|

x2


D
eb|--------------15----14-----|--------------15----14-----|
Bb|-----15--------------------|-----15--------------------|
Gb|--------14-12----14----14--|--------14-12----14----14--|
Db|--12-----------------------|--12-----------------------|
Ab|---------------------------|---------------------------|
Eb|---------------------------|---------------------------!
C
eb|--------------15----14-----|--------------15----14-----|
Bb|-----15--------------------|-----15--------------------|
Gb|--------14-12----------14--|--------14-12----------14--|
Db|--14-----------------------|--14-----------------------|
Ab|---------------------------|---------------------------|
Eb|---------------------------|---------------------------

eb|--------------15----14-----|--------------15----14-----|
Bb|-----15--------------------|-----15--------------------|
Gb|--12----14-12----14----14--|--12----14-12----14----14--|
Db|---------------------------|---------------------------|
Ab|---------------------------|---------------------------|
Eb|---------------------------|---------------------------|

eb|--12------------12----14---|--15----14----12---------------14---|
Bb|---------15----------------|---------------------15--------15---|
Gb|-----14------14----14---14-|-----14----14----14------14----14---|
Db|---------------------------|------------------------------------|
Ab|---------------------------|------------------------------------|
Eb|---------------------------|------------------------------------|


[Verse]

eb|----------------------------------------------------------------|
Bb|--15------------------------------------------------------------|
Gb|--14------------------------------------------------------------|
Db|----------------------------------------------------------------|
Ab|----------------------------------------------------------------|
Eb|----------------------------------------------------------------|


[Chorus]

A5 C5
eb|---------------------------|--------------12----10-----|
Bb|--14-14-------15----14-----|--13-13--------------------|
Gb|--------14-------14----14--|--------12-10----12----12--|
Db|-----------14--------------|---------------------------|
Ab|---------------------------|---------------------------|
Eb|---------------------------|---------------------------|
D5 D5
eb|--------------15----14-----|--------------15---14-----|
Bb|-----15--------------------|-----15-------------------|
Gb|--------14-12----14----14--|--------14-12---14----14--|
Db|--12-----------------------|--12----------------------|
Ab|---------------------------|--------------------------|
Eb|---------------------------|--------------------------|
A5 C5
eb|---------------------------|--------------12----10-----|
Bb|--14-14-------15----14-----|--13-13--------------------|
Gb|--------14-------14----14--|--------12-10----12----12--|
Db|-----------14--------------|---------------------------|
Ab|---------------------------|---------------------------|
Eb|---------------------------|---------------------------|
D5 D5
eb|---------------------------|---------------------------|
Bb|--------15-----------------|---------------------------|
Gb|--12s14--------------------|---------------------------|
Db|---------------------------|---------------------------|
Ab|---------------------------|---------------------------|
Eb|---------------------------|---------------------------|


[Interlude]

eb|-------------------------------------------------------------|
Bb|---10---8--7-----10--8--7----10---8------10---8-----10-\-8---|
Gb|-------------------------------------9------------9----------|
Db|-------------------------------------------------------------|
Ab|-------------------------------------------------------------|
Eb|-------------------------------------------------------------|

eb|------------------10--10b--(10)---------------|
Bb|-10-b-(10)8--10-b--------------full-----------|
Gb|--------------------------------9-b-----------|
Db|----------------------------------------------|
Ab|----------------------------------------------|
Eb|----------------------------------------------|


[Verse]

eb|----------------------------------------------------------------|
Bb|--15------------------------------------------------------------|
Gb|--14------------------------------------------------------------|
Db|----------------------------------------------------------------|
Ab|----------------------------------------------------------------|
Eb|----------------------------------------------------------------|


[Chorus]

A5 C5
eb|---------------------------|--------------12----10-----|
Bb|--14-14-------15----14-----|--13-13--------------------|
Gb|--------14-------14----14--|--------12-10----12----12--|
Db|-----------14--------------|---------------------------|
Ab|---------------------------|---------------------------|
Eb|---------------------------|---------------------------|
D5 D5
eb|--------------15----14-----|--------------15---14-----|
Bb|-----15--------------------|-----15-------------------|
Gb|--------14-12----14----14--|--------14-12---14----14--|
Db|--12-----------------------|--12----------------------|
Ab|---------------------------|--------------------------|
Eb|---------------------------|--------------------------|
A5 C5
eb|---------------------------|--------------12----10-----|
Bb|--14-14-------15----14-----|--13-13--------------------|
Gb|--------14-------14----14--|--------12-10----12----12--|
Db|-----------14--------------|---------------------------|
Ab|---------------------------|---------------------------|
Eb|---------------------------|---------------------------|
D5 D5
eb|---------------------------|---------------------------|
Bb|--------15-----------------|---------------------------|
Gb|--12s14--------------------|---------------------------|
Db|---------------------------|---------------------------|
Ab|---------------------------|---------------------------|
Eb|---------------------------|---------------------------|


[Interlude]

eb|-------------------------------------------------------------|
Bb|---10---8--7-----10--8--7----10---8------10---8-----10-\-8---|
Gb|-------------------------------------9------------9----------|
Db|-------------------------------------------------------------|
Ab|-------------------------------------------------------------|
Eb|-------------------------------------------------------------|

eb|--------------------------------10--------------------|
Bb|-10-\-8-7hb--(7)----7-b------------(7)-----10----8--7-|
Gb|------------------7-----------------------------------|
Db|------------------------------------------------------|
Ab|------------------------------------------------------|
Eb|------------------------------------------------------|

eb|------------------------10----10-\-8-------/12--------|
Bb|-10---8----7-----/10-b--------------------------------|
Gb|------------------------------------------------------|
Db|------------------------------------------------------|
Ab|------------------------------------------------------|
Eb|------------------------------------------------------|

eb|--12---12-\-10---10-(10)\-8---7-b--(7)----------------|
Bb|-----------------------------------------8------------|
Gb|---------------------------------------------7-~~~~~~~|
Db|------------------------------------------------------|
Ab|------------------------------------------------------|
Eb|------------------------------------------------------|

eb|-----------------------10---10-b--(10)-------------17----(17)|
Bb|-10-b--(10)p8---10-b-------------------17-b---(17)-------(17)|
Gb|-------------------------------------------------------------|
Db|-------------------------------------------------------------|
Ab|-------------------------------------------------------------|
Eb|-------------------------------------------------------------|


[Chorus]

A5 C5 D5
A5 C5 D5
A5 C5 D5


[Solo]

eb|-17b--hold----15--14--h15p14-----------15--14--h15p14-----------12--14-|
Bb|-----------------------------17-----------------------17-16------------|
Gb|-----------------------------------------------------------------------|
Db|-----------------------------------------------------------------------|
Ab|-----------------------------------------------------------------------|
Eb|-----------------------------------------------------------------------|

eb|-----------------------------------------------------------------------|
Bb|--15b--12----------------------------------------13-12-------h13p12\10-|
Gb|----------14b--12--11h12----------------11-12-14-----------------------|
Db|-----------------------------14-----14---------------------------------|
Ab|-----------------------------------------------------------------------|
Eb|-----------------------------------------------------------------------|

eb|---------------------------------------------15b-----------------------|
Bb|--13b-----13-----12--12-(12)-------12b----------------7bb--------------|
Gb|-----------------------------------------14-----------------9--9-------|
Db|-----------------------------------------------------------------------|
Ab|-----------------------------------------------------------------------|
Eb|-----------------------------------------------------------------------|

eb|-----------------------------------------------------------------------|
Bb|-----7b----------------------------------------------------------------|
Gb|----------9--9-----8b----8/11---------11b---9-----------------9--------|
Db|-----------------------------------------------9b---7---9--------------|
Ab|-----------------------------------------------------------------------|
Eb|-----------------------------------------------------------------------|

eb|-----------------------------------------------------------------------|
Bb|--------7h8--p7---------------------------------------------7b---7-10b-|
Gb|----------------------9------8b-----8------/11-----9b--8-9-----9-------|
Db|-----------------------------------------------------------------------|
Ab|-----------------------------------------------------------------------|
Eb|-----------------------------------------------------------------------|

eb|-7-8p7-11p7-8-11-12/14-11-12--14/15-12-14-15p14-12----14p11-12h14p12---|
Bb|---------------------------------------------------15----------------15|
Gb|-----------------------------------------------------------------------|
Db|-----------------------------------------------------------------------|
Ab|-----------------------------------------------------------------------|
Eb|-----------------------------------------------------------------------|

eb|-17--------------------------------------------------------------------|
Bb|----15b---15b---15b---15b---15b-p12-----15b----15b--------15b-p12------|
Gb|------------------------------------14----------------------------14---|
Db|-----------------------------------------------------------------------|
Ab|-----------------------------------------------------------------------|
Eb|-----------------------------------------------------------------------|

eb|----------------------------------15-----------------------------------|
Bb|--17b---17b--------17b----17b----------17b---------17b-p15--15h17------|
Gb|-------------------17b-------------------------------------------------|
Db|-----------------------------------------------------------------------|
Ab|-----------------------------------------------------------------------|
Eb|-----------------------------------------------------------------------|

eb|-----------12----------------------------------------------------------|
Bb|-15b------------15---12------------------------------------------------|
Gb|---------------------------14b-p12-14---12-14----12--14b----12--14--12-|
Db|-----------------------------------------------------------------------|
Ab|-----------------------------------------------------------------------|
Eb|-----------------------------------------------------------------------|

eb|----15-------------15-----15-----15------------------------------------|
Bb|----15-------15----15-----15-------15----------------------------------|
Gb|-14b--14--12-14b-----14b----14b------14b-p12----14p12--x-x----12b------|
Db|---------------------------------------------14--------x-x-------------|
Ab|-----------------------------------------------------------------------|
Eb|-----------------------------------------------------------------------|

eb|-----------------------------------------------------------------------|
Bb|-----------------------------------------------------------------------|
Gb|-----------------12h14p12----12b--------------------12h14p12-----12-12-|
Db|-14p12-14----x-x----------14--------14p12-14----x-x----------14--------|
Ab|-----------------------------------------------------------------------|
Eb|-----------------------------------------------------------------------|

eb|----------------------------------------------12-12-------15-15p12--15-|
Bb|-------------------12-12-------15-15p12-------------15p12--------------|
Gb|-------14-14p12-14-------14p12-----------------------------------------|
Db|-14p12-----------------------------------------------------------------|
Ab|-----------------------------------------------------------------------|
Eb|-----------------------------------------------------------------------|

eb|-14----12h15p12---------12-----------12-----------12-----------12------|
Bb|----15----------15--15b----15p12--------15p12-15b----15p12--------15p12|
Gb|----------------------------------14b-----------------------14b--------|
Db|-----------------------------------------------------------------------|
Ab|-----------------------------------------------------------------------|
Eb|-----------------------------------------------------------------------|

eb|------12-----------12-----------12--------------12-------15b-----------|
Bb|--15b----15p12--------15p12-15b----15p12-----12----15p12---------------|
Gb|---------------14b-----------------------14b---------------------------|
Db|-----------------------------------------------------------------------|
Ab|-----------------------------------------------------------------------|
Eb|-----------------------------------------------------------------------|

eb|--------------------15------12h15p12----12------12---------------------|
Bb|-------------------------------------15-----15b-----15p12--------------|
Gb|-----------------------------------------------------------14b-p12-14b-|
Db|-----------------------------------------------------------------------|
Ab|-----------------------------------------------------------------------|
Eb|-----------------------------------------------------------------------|

eb|---------------------------------------------------|
Bb|-------15------------------------------------------|
Gb|----------14b-p12-14b----14p12--------------12-----|
Db|----------------------14-------14------------------|
Ab|---------------------------------------------------|
Eb|---------------------------------------------------|


[Bridge]

E F# G A B C D G


[Outro]

eb|--------------------------------------------------------------------|
Bb|-----------------------------------------------------------------9--|
Gb|---------------------------------------------------------------9----|
Db|--14-/-9----9/5---------------------------------------------9-------|
Ab|---------------------10-/-7-/-2---------------------------7---------|
Eb|-------------------------------------5-/-3b---3-/-0-----------------|



***********************************
| / Slide up
| \ Slide down
| h Hummer-on
| p Pull-off
| b Bend
| x Dead note
***********************************
Tunning: Standard (E A D G B e)
[Intro]
e|--------------15----14-----|--------------15----14-----|
B|-----15--------------------|-----15--------------------|
G|--------14-12----14----14--|--------14-12----14----14--|
D|--12-----------------------|--12-----------------------|
A|---------------------------|---------------------------|
E|---------------------------|---------------------------|

e|--------------15----14-----|--------------15----14-----|
B|-----15--------------------|-----15--------------------|
G|--------14-12----------14--|--------14-12----------14--|
D|--14-----------------------|--14-----------------------|
A|---------------------------|---------------------------|
E|---------------------------|---------------------------|

e|--------------15----14-----|--------------15----14-----|
B|-----15--------------------|-----15--------------------|
G|--12----14-12----14----14--|--12----14-12----14----14--|
D|---------------------------|---------------------------|
A|---------------------------|---------------------------|
E|---------------------------|---------------------------|

e|--------------15----14-----|--------------15----14-----|
B|-----15--------------------|-----15--------------------|
G|--------14-12----14----14--|--------14-12----14----14--|
D|--12-----------------------|--12-----------------------|
A|---------------------------|---------------------------|
E|---------------------------|---------------------------|

e|--------------15----14-----|--------------15----14-----|
B|-----15--------------------|-----15--------------------|
G|--------14-12----14----14--|--------14-12----14----14--|
D|--12-----------------------|--12-----------------------|
A|---------------------------|---------------------------|
E|---------------------------|---------------------------|

e|--------------15----14-----|--------------15----14-----|
B|-----15--------------------|-----15--------------------|
G|--------14-12----------14--|--------14-12----------14--|
D|--14-----------------------|--14-----------------------|
A|---------------------------|---------------------------|
E|---------------------------|---------------------------

e|--------------15----14-----|--------------15----14-----|
B|-----15--------------------|-----15--------------------|
G|--12----14-12----14----14--|--12----14-12----14----14--|
D|---------------------------|---------------------------|
A|---------------------------|---------------------------|
E|---------------------------|---------------------------|

e|--12------------12----14---|--15----14----12---------------14---|
B|---------15----------------|---------------------15--------15---|
G|-----14------14----14---14-|-----14----14----14------14----14---|
D|---------------------------|------------------------------------|
A|---------------------------|------------------------------------|
E|---------------------------|------------------------------------|

[Chorus]
e|---------------------------|--------------12----10-----|
B|-----14-------15----14-----|-----13--------------------|
G|--------14-------14----14--|--------12-10----12----12--|
D|--11-------14--------------|--10-----------------------|
A|---------------------------|---------------------------|
E|---------------------------|---------------------------|

e|--------------15----14-----|--------------15----14-----|
B|-----15--------------------|-----15--------------------|
G|--------14-12----14----14--|--------14-12----14----14--|
D|--12-----------------------|--12-----------------------|
A|---------------------------|---------------------------|
E|---------------------------|---------------------------|

e|---------------------------|--------------12----10-----|
B|-----14-------15----14-----|-----13--------------------|
G|--------14-------14----14--|--------12-10----12----12--|
D|--11-------14--------------|--10-----------------------|
A|---------------------------|---------------------------|
E|---------------------------|---------------------------|

e|---------------------------|---------------------------|
B|--------15-----------------|---------------------------|
G|--12s14--------------------|---------------------------|
D|---------------------------|---------------------------|
A|---------------------------|---------------------------|
E|---------------------------|---------------------------|

[Fill]
e|-------------------------------------------------------------|
B|---10---8--7-----10--8--7----10---8------10---8-----10-\-8---|
G|-------------------------------------9------------9----------|
D|-------------------------------------------------------------|
A|-------------------------------------------------------------|
E|-------------------------------------------------------------|

e|------------------10--10b--(10)---------------|
B|-10-b-(10)8--10-b--------------full-----------|
G|--------------------------------9-b-----------|
D|----------------------------------------------|
A|----------------------------------------------|
E|----------------------------------------------|

[Fill 2]
e|-------------------------------------------------------------|
B|---10---8--7-----10--8--7----10---8------10---8-----10-\-8---|
G|-------------------------------------9------------9----------|
D|-------------------------------------------------------------|
A|-------------------------------------------------------------|
E|-------------------------------------------------------------|

e|--------------------------------10--------------------|
B|-10-\-8-7hb--(7)----7-b------------(7)-----10----8--7-|
G|------------------7-----------------------------------|
D|------------------------------------------------------|
A|------------------------------------------------------|
E|------------------------------------------------------|

e|------------------------10----10-\-8-------/12--------|
B|-10---8----7-----/10-b--------------------------------|
G|------------------------------------------------------|
D|------------------------------------------------------|
A|------------------------------------------------------|
E|------------------------------------------------------|

e|--12---12-\-10---10-(10)\-8---7-b--(7)----------------|
B|-----------------------------------------8------------|
G|---------------------------------------------7-~~~~~~~|
D|------------------------------------------------------|
A|------------------------------------------------------|
E|------------------------------------------------------|

e|-----------------------10---10-b--(10)-------------17----(17)|
B|-10-b--(10)p8---10-b-------------------17-b---(17)-------(17)|
G|-------------------------------------------------------------|
D|-------------------------------------------------------------|
A|-------------------------------------------------------------|
E|-------------------------------------------------------------|

[Chorus]
e|-----------------------------|
B|--7hb------------------------|
G|------7----------------------|
D|--------7--5-/-4---0---------|
A|----------------------3b-----|
E|-----------------------------|

[Solo]
e|-17b--hold----15--14--h15p14-----------15--14--h15p14-----------12--14-|
B|-----------------------------17-----------------------17-16------------|
G|-----------------------------------------------------------------------|
D|-----------------------------------------------------------------------|
A|-----------------------------------------------------------------------|
E|-----------------------------------------------------------------------|

e|-----------------------------------------------------------------------|
B|--15b--12----------------------------------------13-12-------h13p12\10-|
G|----------14b--12--11h12----------------11-12-14-----------------------|
D|-----------------------------14-----14---------------------------------|
A|-----------------------------------------------------------------------|
E|-----------------------------------------------------------------------|

e|---------------------------------------------15b-----------------------|
B|--13b-----13-----12--12-(12)-------12b----------------7bb--------------|
G|-----------------------------------------14-----------------9--9-------|
D|-----------------------------------------------------------------------|
A|-----------------------------------------------------------------------|
E|-----------------------------------------------------------------------|

e|-----------------------------------------------------------------------|
B|-----7b----------------------------------------------------------------|
G|----------9--9-----8b----8/11---------11b---9-----------------9--------|
D|-----------------------------------------------9b---7---9--------------|
A|-----------------------------------------------------------------------|
E|-----------------------------------------------------------------------|

e|-----------------------------------------------------------------------|
B|--------7h8--p7---------------------------------------------7b---7-10b-|
G|----------------------9------8b-----8------/11-----9b--8-9-----9-------|
D|-----------------------------------------------------------------------|
A|-----------------------------------------------------------------------|
E|-----------------------------------------------------------------------|

e|-7-8p7-11p7-8-11-12/14-11-12--14/15-12-14-15p14-12----14p11-12h14p12---|
B|---------------------------------------------------15----------------15|
G|-----------------------------------------------------------------------|
D|-----------------------------------------------------------------------|
A|-----------------------------------------------------------------------|
E|-----------------------------------------------------------------------|

e|-17--------------------------------------------------------------------|
B|----15b---15b---15b---15b---15b-p12-----15b----15b--------15b-p12------|
G|------------------------------------14----------------------------14---|
D|-----------------------------------------------------------------------|
A|-----------------------------------------------------------------------|
E|-----------------------------------------------------------------------|

e|----------------------------------15-----------------------------------|
B|--17b---17b--------17b----17b----------17b---------17b-p15--15h17------|
G|-------------------17b-------------------------------------------------|
D|-----------------------------------------------------------------------|
A|-----------------------------------------------------------------------|
E|-----------------------------------------------------------------------|

e|-----------12----------------------------------------------------------|
B|-15b------------15---12------------------------------------------------|
G|---------------------------14b-p12-14---12-14----12--14b----12--14--12-|
D|-----------------------------------------------------------------------|
A|-----------------------------------------------------------------------|
E|-----------------------------------------------------------------------|

e|----15-------------15-----15-----15------------------------------------|
B|----15-------15----15-----15-------15----------------------------------|
G|-14b--14--12-14b-----14b----14b------14b-p12----14p12--x-x----12b------|
D|---------------------------------------------14--------x-x-------------|
A|-----------------------------------------------------------------------|
E|-----------------------------------------------------------------------|

e|-----------------------------------------------------------------------|
B|-----------------------------------------------------------------------|
G|-----------------12h14p12----12b--------------------12h14p12-----12-12-|
D|-14p12-14----x-x----------14--------14p12-14----x-x----------14--------|
A|-----------------------------------------------------------------------|
E|-----------------------------------------------------------------------|

e|----------------------------------------------12-12-------15-15p12--15-|
B|-------------------12-12-------15-15p12-------------15p12--------------|
G|-------14-14p12-14-------14p12-----------------------------------------|
D|-14p12-----------------------------------------------------------------|
A|-----------------------------------------------------------------------|
E|-----------------------------------------------------------------------|

e|-14----12h15p12---------12-----------12-----------12-----------12------|
B|----15----------15--15b----15p12--------15p12-15b----15p12--------15p12|
G|----------------------------------14b-----------------------14b--------|
D|-----------------------------------------------------------------------|
A|-----------------------------------------------------------------------|
E|-----------------------------------------------------------------------|

e|------12-----------12-----------12--------------12-------15b-----------|
B|--15b----15p12--------15p12-15b----15p12-----12----15p12---------------|
G|---------------14b-----------------------14b---------------------------|
D|-----------------------------------------------------------------------|
A|-----------------------------------------------------------------------|
E|-----------------------------------------------------------------------|

e|--------------------15------12h15p12----12------12---------------------|
B|-------------------------------------15-----15b-----15p12--------------|
G|-----------------------------------------------------------14b-p12-14b-|
D|-----------------------------------------------------------------------|
A|-----------------------------------------------------------------------|
E|-----------------------------------------------------------------------|

e|---------------------------------------------------|
B|-------15------------------------------------------|
G|----------14b-p12-14b----14p12--------------12-----|
D|----------------------14-------14------------------|
A|---------------------------------------------------|
E|---------------------------------------------------|

[Outro]
e|--------------------------------------------------------------------|
B|-----------------------------------------------------------------9--|
G|---------------------------------------------------------------9----|
D|--14-/-9----9/5---------------------------------------------9-------|
A|---------------------10-/-7-/-2---------------------------7---------|
E|-------------------------------------5-/-3hb---3-/-0----------------|


*******************

|(n) Ghost note
| h hammer on
| p pull off
| x dead note
| b bend

*******************
Tunning: Standard (E A D G B e)
Sweet Child O Mine with the electric guitar riffs that sounds spot on for acoustic.
Sounds better with 2 guitars one for the main finger picking and the other for backing chords

Sweet Child O' Mine / Guns N' Roses

[Intro]

e|--------------3-----2------|--------------3-----2------|
B|-----3---------------------|-----3---------------------|
G|--------2--0-----2-----2---|--------2--0-----2-----2---|
D|--0------------------------|--0------------------------|
A|---------------------------|---------------------------|
E|---------------------------|---------------------------|

e|--------------3-----2------|--------------3-----2------|
B|-----3---------------------|-----3---------------------|
G|--------2--0-----2-----2---|--------2--0-----2-----2---|
D|--2------------------------|--2------------------------|
A|---------------------------|---------------------------|
E|---------------------------|---------------------------|

e|--------------3-----2------|--------------3-----2------|
B|-----3---------------------|-----3---------------------|
G|--0-----2--0-----2-----2---|--0-----2--0-----2-----2---|
D|---------------------------|---------------------------|
A|---------------------------|---------------------------|
E|---------------------------|---------------------------|

e|--------------3-----2------|--------------3-----2------|
B|-----3---------------------|-----3---------------------|
G|--------2--0-----2-----2---|--------2--0-----2-----2---|
D|--0------------------------|--0------------------------|
A|---------------------------|---------------------------|
E|---------------------------|-------------------------x3|
At the third time you play this intro, you must not repeat this last one, instead you
do this:

e|--0-----------0-----2------|--3-----2-----0------------|
B|--------3------------------|--------------------3------|
G|-----2-----2-----2-----2---|-----2-----2-----2---------|
D|---------------------------|---------------------------|
A|---------------------------|---------------------------|
E|---------------------------|---------------------------|


[Verse]

D
She's got smile that it seems to me
Cadd9
reminds me of childhood memories,
G D
Where everything was as fresh as the bright blue sky
D
Now and then When I see her face
Cadd9
she takes me away to that special place,
G
and if I stared too long,
D
I'd probably break down and cry


[Chorus]

Woah (A), woah, woah (C), sweet child o' mine (D)
E|----------------------------------------------------------------3-----2--------------------3-----2------|
B|-----2--------3-----2--------1--------3-----1----------3--------------------------3---------------------|
G|--------2--------2-----2--------0--------0-----0----------2--0-----2-----2-----------2--0-----2-----2---|
D|-----------2-----------------------2----------------0--------------------------0------------------------|
A|--0-----------------------3-----------------------------------------------------------------------------|
E|--------------------------------------------------------------------------------------------------------|

Woah (A), woah, woah (C), sweet love o' mine (D)
E|----------------------------------------------------------------3-----2------|
B|-----2--------3-----2--------1--------3-----1----------3---------------------|
G|--------2--------2-----2--------0--------0-----0----------2--0-----2-----2---|
D|-----------2-----------------------2----------------0------------------------|
A|--0-----------------------3--------------------------------------------------|
E|-----------------------------------------------------------------------------|

This time after the "sweet love o mine" riff, strum the D chord a few times then either move to the solo or
play the backing chords.


[Solo 1]

E|-----------------------------------------------------------------------------------10b11-------|
B|--10--8--7v--10--8--7v--10--8--10--8v------10--8v------10--8v--10b12r10--8--10b12---------9b---|
G|---------------------------------------9v----------9v------------------------------------------|
D|-----------------------------------------------------------------------------------------------|
A|-----------------------------------------------------------------------------------------------|
E|-----------------------------------------------------------------------------------------------|


[Verse 2]

D
She's got eyes of the bluest skies,
Cadd9
as if they thought of rain
G
I hate to look into those eyes
D
and see anounce of pain
D
Her hair reminds me of a warm safe place
Cadd9
where as a child I'd hide,
G
And pray for the thunder and the rain
D
to quietly pass me by


[Chorus]

Woah (A), woah, woah (C), sweet child o' mine (D)
E|----------------------------------------------------------------3-----2--------------------3-----2------|
B|-----2--------3-----2--------1--------3-----1----------3--------------------------3---------------------|
G|--------2--------2-----2--------0--------0-----0----------2--0-----2-----2-----------2--0-----2-----2---|
D|-----------2-----------------------2----------------0--------------------------0------------------------|
A|--0-----------------------3-----------------------------------------------------------------------------|
E|--------------------------------------------------------------------------------------------------------|

Woah (A), woah, woah (C), sweet love o' mine (D)
E|----------------------------------------------------------------3-----2------|
B|-----2--------3-----2--------1--------3-----1----------3---------------------|
G|--------2--------2-----2--------0--------0-----0----------2--0-----2-----2---|
D|-----------2-----------------------2----------------0------------------------|
A|--0-----------------------3--------------------------------------------------|
E|-----------------------------------------------------------------------------|


[Solo 2]

E|-----------------------------------------------------------------------10---------|
B|--10--8--7v--10--8--7v--10--8v------10--8v------10--8v--7b8r7-----7b8--------8r7--|
G|--------------------------------9v----------9v-----------------7------------------|
D|----------------------------------------------------------------------------------|
A|----------------------------------------------------------------------------------|
E|----------------------------------------------------------------------------------|

E|-------------------------10--10--8--8/12--12--12\10--10--10\8--7b8r7---------------------------10b12r10--17b
B|10--8--7v--10--8--10/12-----------------------------------------------8-----10b12r10p8--10b12---------------
G|-------------------------------------------------------------------------7----------------------------------
D|------------------------------------------------------------------------------------------------------------
A|------------------------------------------------------------------------------------------------------------
E|------------------------------------------------------------------------------------------------------------


[Chorus]

Woah (A), woah, woah (C), sweet child o' mine (D)
E|----------------------------------------------------------------3-----2--------------------3-----2------|
B|-----2--------3-----2--------1--------3-----1----------3--------------------------3---------------------|
G|--------2--------2-----2--------0--------0-----0----------2--0-----2-----2-----------2--0-----2-----2---|
D|-----------2-----------------------2----------------0--------------------------0------------------------|
A|--0-----------------------3-----------------------------------------------------------------------------|
E|--------------------------------------------------------------------------------------------------------|

Woah (A), woah, woah (C), sweet love o' mine (D)
E|----------------------------------------------------------------3-----2------|
B|-----2--------3-----2--------1--------3-----1----------3---------------------|
G|--------2--------2-----2--------0--------0-----0----------2--0-----2-----2---|
D|-----------2-----------------------2----------------0------------------------|
A|--0-----------------------3--------------------------------------------------|
E|-----------------------------------------------------------------------------|


[Bridge]

Em G
Where do we go? Where do we go now?
A C D
Where do we go?
Em G
Where do we go? Where do we go?
A C D
Where do we go now?
Em G
Where do we go? Sweet child, where do we go now?
A C D
Where do we go?
Em G
Where do we go? Where do we go now?
A C D
Where do we go?
Em G
Where do we go? Where do we go?
A C D
Where do we go now?

*This section sounds better by strumming and palm muting the chords*

Sweet Child o mine
E|-------------------------------------------------------------------2--|
B|-----2--------3-----2--------1--------3-----1-------------------3-----|
G|--------2--------2-----2--------0--------0-----0-------------2--------|
D|-----------2-----------------------2----------------------0-----------|
A|--0-----------------------3----------------------------0--------------|
E|----------------------------------------------------0-----------------|



************************************

| x Dead note
| p Pull-off
| r Release
| b Bend
| / Slide up
| \ Slide down

************************************
Song info
Sweet Child O Mine
Guns N' Roses
2001
  • Rock
  • Hard Rock
Similar songs
Dirty Little Thing - Velvet Revolver
I Am Immortal - Mortal Sin
Walk Away - Dokken
Nine Lives - Def Leppard

Hi! Hope you enjoy backing track experience.
If you want to help us in the development of the project, feel free to donate!