You Could Be Mine - Guns N' Roses
00:00 / 00:00
Tabs and lyrics
Tunning: Standard (E A D G B e)
[Verse]
F#
I'm a cold heartbreaker
Fit ta burn and I'll rip your heart in two
E F# B5
An I'll leave you lyin' on the bed
F#
I'll be out the door before ya wake
It's nuthin' new ta you
E
'Cause I think we've seen that movie,
F# B5
too

[Chorus]
A B F#
(OH woh) 'Cause you could be mine
A B F#m
But you're way out of line
A
With your bitch slap rappin'
B
And your cocaine tongue
F#m
You get nuthin' done
A B
I said you could be mine

[Instrumental]
F# E F#

[Verse]
Now holidays come and then they go
It's nothin' new today
Collect another memory
When I come home late at night
Don't ask me where I've been
Just count your stars
I'm home again

[Chorus]
A B F#
(OH woh) 'Cause you could be mine
A B F#m
But you're way out of line
A
With your bitch slap rappin'
B
And your cocaine tongue
F#m
You get nuthin' done
A B
I said you could be mine

[Instrumental] (x6)
F# E

[Verse]
G F#m G A
You've gone sketchin' too many times
G F#m G A
Ooh, Why don't ya give it a rest
G F#m G B A G
Why Must you find
F#m
Another reason to cry

[Solo]
e|------------------------------------------------------------------------------|
B|-------------------------------9-----9-----9--------9--(9)p7---9--7-----------|
G|-------------------------------9-----9-----9--------9--(9)p7---9--7-----------|
D|------------------------(9)-9-----9---------------------------------9--7--9~~-|
A|------------------------------------------------------------------------------|
E|------------------------------------------------------------------------------|

e|------------------------------------------------------------------------------|
B|---7--9--9--9--7--9-----9--------------------7--------------------------------|
G|---7--9--9--9--7--9--7--9----------7h9--9----7--9p7s6---7--6--7--6h7p6----6---|
D|---------------------7--------------------7-----------------------------9-----|
A|------------------------------------------------------------------------------|
E|------------------------------------------------------------------------------|

e|------------------------------------------------------------------------------|
B|------------------------------------------------------------------------------|
G|----6----------------------------------------------------------------------10-|
D|9------9--9--7-----9---7------------------------7-----------------------9-----|
A|----------------9----9---9--8--8---7----(7)p5---7--5--------------------------|
E|----------------------------------------------7-------7--7--10--7---(7)s------|

e|--10------7-------10---x--------10--9h10p9p7-----9-----7h9p7------10-------10-|
B|--10~~~~~~--10p7-------x--10p7---------------10----10---------10-----8s12-----|
G|------------------------------------------------------------------------------|
D|------------------------------------------------------------------------------|
A|------------------------------------------------------------------------------|
E|------------------------------------------------------------------------------|

e|----------12-----10--------14-------------17~~~-14--17------------------14----|
B|--12--10------------12--10-----17--14------------------14--17---17~~~~~~---17-|
G|-------------------------------------16---------------------------------------|
D|------------------------------------------------------------------------------|
A|------------------------------------------------------------------------------|
E|------------------------------------------------------------------------------|

e|------17--14-----------------14-------17-----17---14--17----17------17----17--|
B|---14--------17p14--17~~~~~-----17p14----14--------------14-------------------|
G|------------------------------------------------------------------------------|
D|------------------------------------------------------------------------------|
A|------------------------------------------------------------------------------|
E|------------------------------------------------------------------------------|

[Verse]
B
While you're breakin' down my back n'
Db
I been rackin' out my brain
D
It don't matter how we make it
D Db
'Cause it always ends the same
B
You can push it for more mileage
Db
But your flaps r' wearin' thin
D
And I could sleep on it 'til mornin'
D Db
But this nightmare never ends
B
Don't forget to call my lawyers
Db
With ridiculous demands
D
An you can take the pity so far
D Db
But it's more than I can stand
B
'Cause this couchtrip's gettin' older
Db
Tell me how long has it been
D
'Cause 5 years is forever
An you haven't grown up yet

[Verse]
You could be mine
But you're way out of line
With your bitch slap rappin'
And your cocaine tongue
You get nuthin' done
I said you could be mine
A B
You should be
A B F#
You could be mine
B5 F#
You could be mine (7x)
B5 F#
You could be mine

Yeah!

1/2 While you're breakin down my back an' I been
e|---------------------------------------------------------------------------|
B|17------16-----------------------------------------------------------------|
G|------------16--14------------------------14s16-------------16~~~~~~~~~~~~~|
D|--------------------16p15p14--122--14--12----------------------------------|
A|---------------------------------------------------------------------------|
E|---------------------------------------------------------------------------|

matter how we maek it cause it always
e|---------------------------------------------------------------------------|
B|--7------------------------------------------------------------------------|
G|--7------------------------------------------------------------------------|
D|--7-----------------------------7(harmonic)--------------------------------|
A|--5------------------------------------------------------------------------|
E|---------------------------------------------------------------------------|

I said you could be
e|---------------------------------------------------------------------------|
B|-------------------------10-------------------------10---------------------|
G|9s11--11s14---11-----11------11----------------11-------11-----------------|
D|---------------------------------9(full)p7---------------------------------|
A|7s9---9s12----------------------------------9---------------------9--9-----|
E|---------------------------------------------------------------------------|

you should be you
e|---------------------------------------------------------------------------|
B|--------------10------------------------------------------10---------------|
G|--------11---------11---11----------------------------11------11------11---|
D|-----------------------------9---------------------------------------------|
A|9--9----------------------------9----------------------------------9------9|
E|---------------------------------------------------------------------------|

could be mine
e|-------14--16--14--16--14--------------------------------------------------|
B|--11---14--16--14--16--14--------------------------------------------------|
G|-----------------------------16----14--16~~~~~~----------------------------|
D|---------------------------------------------------------------------------|
A|---------------------------------------------------------------------------|
E|---------------------------------------------------------------------------|

(Here's another tab)

e|-----------------------------------------|-------------------------------|
B|-----------------------------------------|-------------------------------|
G|-----------------------------------------|-------------------------------|
D|-----------------------------------------|-------------------------------|
A|-----------------------------------------|-------------------------------|
E|--12-12-12-12-12-12-12-12-9-9-9-9-9-9-7-7|7-7-7-7-7-7-7-7-5-5-4-4-3-3-3-3|

¼ B p 1/2 p
e|------------------------------------------------------------------3-----------------|
B|-4-----4---2------------2---------------2-----2-----0-------------3-----------------|
G|-4-----4---2------------2---------------2-----2-----0-------------------------------|
D|-------------------4----2------------------------------------2----------------------|
A|------------------------------------------------------------------------------------|
E|------------------------------------------------------------------------------------|

e|-----3--|
B|-----3--|
G|--2-----|
D|--------| (x5)
A|--------|
E|--------|

(Now we have about 4 measures of powerchords ect.)
Listen to the song to see how the timing goes(That goes for this whole work)
e|--------------------|
B|--------------------|
G|-----------7------9-|
D|-----9-----9------9-|
A|-----7-----7------7-|
E|--------------------|

(Then the main riff that is used through out the chorus and verses is this)
e|--------------------------------------------------------------------------------|
B|--------------------------------------------------------------------------------|
G|---2--4--2--4--2---------------------------------2--4--2--4--2------------------|
D|---2--4--2--4--2--4--2------------4--2--4--2--4--2--4--2--2--2--4--2------------|
A|------------------4--2--4---------4--2--4--2--4-----------------4--2--4---------|
E|------------------------2---------------------------------------------2---------|

[Solo]:
You could be mineanother reason to cry 1/2 1/2 hold
e|-----------------------------------------------------------------------------|
B|------------------------------9-----9-----9--------9--(9)p7---9--7-----------|
G|------------------------------9-----9-----9--------9--(9)p7---9--7-----------|
D|-----------------------(9)-9-----9---------------------------------9--7--9~~-|
A|-----------------------------------------------------------------------------|
E|-----------------------------------------------------------------------------|

1/2
e|-----------------------------------------------------------------------------|
B|---7--9--9--9--7--9-----9--------------------7-------------------------------|
G|---7--9--9--9--7--9--7--9----------7h9--9----7--9p7s6---7--6--7--6h7p6----6--|
D|---------------------7--------------------7-----------------------------9----|
A|-----------------------------------------------------------------------------|
E|-----------------------------------------------------------------------------|

1/2 1/2~~ 1/2 1/2 2(1/2) F~~
e|-----------------------------------------------------------------------------|
B|-----------------------------------------------------------------------------|
G|---6----------------------------------------------------------------------10-|
D|-9----9--9--7-----9---7------------------------7-----------------------9-----|
A|---------------9----9---9--8--8---7----(7)p5---7--5--------------------------|
E|---------------------------------------------7-------7--7--10--7---(7)s------|

1/2
e|-10------7-------10---x--------10--9h10p9p7-----9-----7h9p7------10-------10-|
B|-10~~~~~~--10p7-------x--10p7---------------10----10---------10-----8s12-----|
G|-----------------------------------------------------------------------------|
D|-----------------------------------------------------------------------------|
A|-----------------------------------------------------------------------------|
E|-----------------------------------------------------------------------------|

F(ull)
e|--------12-----10--------14-------------17~~~-14--17------------------14-----|
B|-12--10------------12--10-----17--14------------------14--17---17~~~~~~---17-|
G|--------------------------------------16-------------------------------------|
D|-----------------------------------------------------------------------------|
A|-----------------------------------------------------------------------------|
E|-----------------------------------------------------------------------------|

F F F
e|-----17--14-----------------14-------17-----17---14--17----17------17----17--|
B|--14--------17p14--17~~~~~-----17p14----14--------------14-------------------|
G|-----------------------------------------------------------------------------|
D|-----------------------------------------------------------------------------|
A|-----------------------------------------------------------------------------|
E|-----------------------------------------------------------------------------|

½B While you're breakin down my back an' I been
e|-----------------------------------------------------------------------------|
B|-17------16------------------------------------------------------------------|
G|-------------16--14------------------------14s16-------------16~~~~~~~~~~~~~-|
D|---------------------16p15p14--122--14--12-----------------------------------|
A|-----------------------------------------------------------------------------|
E|-----------------------------------------------------------------------------|

matter how we maek it cause it always
e|---------------------------------------------------------------------------|
B|--7------------------------------------------------------------------------|
G|--7------------------------------------------------------------------------|
D|--7-----------------------------7(harmonic)--------------------------------|
A|--5------------------------------------------------------------------------|
E|---------------------------------------------------------------------------|

I said you could be
e|-----------------------------------------------------------------------------|
B|---------------------------10-------------------------10---------------------|
G|-9s11---11s14---11-----11------11----------------11-------11-----------------|
D|-----------------------------------9(full)p7---------------------------------|
A|-7s9----9s12----------------------------------9---------------------9--9-----|
E|-----------------------------------------------------------------------------|

you should be you
e|-----------------------------------------------------------------------------|
B|---------------10------------------------------------------10----------------|
G|---------11---------11---11----------------------------11------11------11----|
D|------------------------------9----------------------------------------------|
A|-9--9----------------------------9----------------------------------9------9-|
E|-----------------------------------------------------------------------------|

could be mine
e|---------------------------------------------------------------------------|
B|-------14--16--14--16--14--------------------------------------------------|
G|--11---14--16--14--16--14--------------------------------------------------|
D|-----------------------------16----14--16~~~~~~----------------------------|
A|---------------------------------------------------------------------------|
E|---------------------------------------------------------------------------|
Tunning: Standard (E A D G B e)
You Could Be Mine
Guns N' Roses
Use your illusion II


[Intro]

e|----------------------------------------|---------------------------------|-----------|
B|----------------------------------------|---------------------------------|-----------|
G|----------------------------------------|---------------------------------|-----------|
D|----------------------------------------|---------------------------------|-----x/----|
A|----------------------------------------|---------------------------------|-----x/----|
E|12-12-12-12-12-12-12-12-9-9-9-9-9-9-7-7-|-7-7-7-7-7-7-7-7-5-5-4-4-3-3-3-3-|-----------|


Hold this note
e|--14---------|------------|------------|-------------|14-17-14-17-14-17-14-17-14-17-14-17-14-17-14-17|
B|--14---------|------------|------------|-------------|-----------------------------------------------|
G|--14---------|------------|------------|-------------|-----------------------------------------------|
D|-------------|------------|------------|-------------|-----------------------------------------------|
A|-------------|------------|------------|-------------|-----------------------------------------------|
E|-------------|------------|------------|-------------|-----------------------------------------------|
| | | | | |
e|-------------|------------|------------|-------------|-----------------------------------------------|
B|-------------|------------|------------|-------------|-----------------------------------------------|
G|-------------|------------|------------|-2-----------|-----------------------------------------------|
D|-------------|------------|------------|-2-----------|-----------------------------------------------|
A|-------------|------------|------------|-------------|-----------------------------------------------|
E|-------------|------------|------------|-------------|-----------------------------------------------|


e|14-17-14-17-14-17-14-17----------------|----------14-|-------------|------------|--14-----14-|
B|-----------------------14--------------|-------------|-------------|------------|---------14-|
G|---------------------------------------|-------------|14-----------|------------|-----14--14-|
D|---------------------------------------|-------------|-------------|------------|------------|
A|---------------------------------------|-------------|-------------|------------|------------|
E|---------------------------------------|-------------|-------------|------------|------------|
| | | | | |
e|---------------------------------------|-------------|-------------|------------|------------|
B|---------------------------------------|-------------|------2------|------------|------2-----|
G|-2-------------------------------------|-------------|-------------|------------|------------|
D|---------------------------------------|-------------|-------------|------------|------------|
A|---------------------------------------|-------------|-------------|------------|------------|
E|---------------------------------------|-------------|-------------|------------|------------|


e|------------------|---------------|-----------------|---------------|-----------------|
B|----------16b16p14|---14----------|---------14b14p12|---12----------|---------16b16p14|
G|----------16b16p14|---14----------|---------14b14p12|---12----------|---------16b16p14|
D|---16\9/20--------|16-14----------|-----------------|14-12----------|-----------------|
A|-14---------------|---------------|-----------------|---------------|-----------------|
E|------------------|---------------|-----------------|---------------|-----------------|
| | | | | |
e|------------------|---------------|-----------------|----3----------|-----------------|
B|-----------4b-4p-2|----2----------|----------2b-2p-0|----3----------|----------4b-4p-2|
G|-----------4b-4p-2|----2----------|----------2b-2p-0|---------------|----------4b-4p-2|
D|----x-------------|-4--2----------|-----------------|-2-------------|-----------------|
A|------------------|---------------|-----------------|---------------|-----------------|
E|------------------|---------------|-----------------|---------------|-----------------|


e|----------------|-----------------|----------------|-----------------|----------------|
B|---14-----------|---------16b16p14|----12----------|---------16b16p14|----14--14b14p14|
G|---14-----------|---------16b16p14|----12----------|---------16b16p14|----14--14b14p14|
D|16-14-----------|-----------------|-14-12----------|-----------------|-16-14----------|
A|----------------|-----------------|----------------|-----------------|----------------|
E|----------------|-----------------|----------------|-----------------|----------------|
| | | | | |
e|----------------|-----------------|-----3----------|-----------------|----------------|
B|----2-----------|----------2b-2p-0|-----3----------|----------4b-4p-2|-----2---4b-4p-2|
G|----2-----------|----------2b-2p-0|----------------|----------4b-4p-2|-----2---4b-4p-2|
D|-4--2-----------|-----------------|--2-------------|-----------------|--4--2----------|
A|----------------|-----------------|----------------|-----------------|----------------|
E|----------------|-----------------|----------------|-----------------|----------------|


e|----------------|----------------|----------------|-----------------|-----------------|
B|---14---14b14p12|---12---14b14p12|---12---16b16p14|----14---16b16p14|----14---14b14p12|
G|---14---14b14p12|---12---14b14p12|---12---16b16p14|----14---16b16p14|----14---14b14p12|
D|16-14-----------|14-12-----------|14-12-----------|-16-14-----------|-16-14-----------|
A|----------------|----------------|----------------|-----------------|-----------------|
E|----------------|----------------|----------------|-----------------|-----------------|
| | | | | |
e|----------------|----3-----------|----3-----------|-----------------|-----------------|
B|----2----2b-2p-0|----3----2b-2p-0|----3----4b-4p-2|-----2----4b-4p-2|-----2----2b-2p-0|
G|----2----2b-2p-0|---------2b-2p-0|---------4b-4p-2|-----2----4b-4p-2|-----2----2b-2p-0|
D|-4--2-----------|-2--------------|-2--------------|--4--2-----------|--4--2-----------|
A|----------------|----------------|----------------|-----------------|-----------------|
E|----------------|----------------|----------------|-----------------|-----------------|

E Esus4

e|----------------|---------------|-----------------|-----------------|-----------------|
B|--12b--12b--12b-|---12b--12\----|-----------------|-----------------|--------------10B|
G|--12b--12b--12b-|---12b--12\----|/9-------------2/|13-------------2/|14---------------|
D|14---14---14----|-14---14-------|-----------------|-----------------|-----------------|
A|----------------|---------------|-----------------|-----------------|-----------------|
E|----------------|---------------|-----------------|-----------------|-----------------|
| | | | | |
e|---3----3----3--|----3----3-----|-----------------|-----------------|-----------------|
B|---3----3----3--|----3----3-----|-----------------|-----------------|-----------------|
G|----------------|---------------|---------7-7-7-7-|-9-9-9-9-9-9-9-9-|-9-9-9-9-9-9-9-9-|
D|-2----2----2----|--2----2-------|-9-9-9-9-9-9-9-9-|-9-9-9-9-9-9-9-9-|-9-9-9-9-9-9-9-9-|
A|----------------|---------------|-7-7-7-7-7-7-7-7-|-7-7-7-7-7-7-7-7-|-7-7-7-7-7-7-7-7-|
E|----------------|---------------|-0-0-0-0-0-0-0-0-|-0-0-0-0-0-0-0-0-|-0-0-0-0-0-0-0-0-|

Hold note until opening lyrics

e|-----------------|--------------|----------------|--------------|----------------|
B|-----------------|-12B----------|----------------|--------------|------5B------5-|
G|-----------------|--------------|----------------|--------------|----------------|
D|-----------------|--------------|----------------|--------------|----------------|
A|-----------------|--------------|----------------|--------------|----------------|
E|-----------------|--------------|----------------|--------------|----------------|
| | | | | |
e|-----------------|--------------|----------------|--------------|----------------|
B|-----------------|--------------|----------------|--------------|----------------|
G|-9-2-4-2-4-2-----|--------------|--2-4-2-4-2-----|--------------|--2-4-2-4-2-----|
D|-9-2-4-2-4-2-4-2-|-4--4--2-4--4-|--2-4-2-4-2-4-2-|-4--4--2-4--4-|--2-4-2-4-2-4-2-|
A|-7-----------4-2-|-4--4--2-4--4-|------------4-2-|-4--4--2-4--4-|------------4-2-|
E|-0---------------|--------------|----------------|--------------|----------------|

I'm a
e|--------------|--------------2-|------------------2------|-2---------------------|
B|------------5-|----------------|-5p2-------------2-5p-2--|--5p2------------------|
G|--------------|----------------|-------4B44p2-4B-------4B|-----4--2--4--2--------|
D|--------------|----------------|-------------------------|-----------------4--2--|
A|--------------|----------------|-------------------------|-----------------------|
E|--------------|----------------|-------------------------|-----------------------|
| | | | |
e|--------------|----------------|-------------------------|-----------------------|
B|--------------|----------------|-------------------------|-----------------------|
G|--------------|--2-4-2-4-2-----|-------------------------|--2--4--2--4--2--------|
D|-2--2--0-2--2-|--2-4-2-4-2-4-2-|-4-----4-----2--4-----4--|--2--4--2--4--2--4--2--|
A|-2--2--0-2--2-|------------4-2-|-4-----4-----2--4-----4--|-----------------4--2--|
E|--------------|----------------|-------------------------|-----------------------|


[Verses 1,2]

2nd time w/Fill2
F#5
cold heart-break-er, fit ta burn,_and I'll_ rip your heart in two,_
e|--------------------------|-------------------------|--------------------------|
B|----------------------2---|-------------------------|--------------------------|
G|----------------------2---|-------------------------|--------------------------|
D|-4--------------------2---|-------------------------|--------------------------|
A|--------------------------|-------------------------|--------------------------|
E|--------------------------|-------------------------|--------------------------|
| | | |
e|-------2---------2-----2--|-------------------------|-------2---------2-----2--|
B|-------2---------2-----2--|----2--------4-----------|-------2---------2-----2--|
G|-----------------------2--|----2--4--2--4--2--------|--------------------------|
D|-4--------4-4-4-----------|-4--2--4-----------4--2--|-4--------x-4-4-----4-----|
A|--------------------------|-------------------------|--------------------------|
E|--------------------------|-------------------------|--------------------------|

F#5 E5 F#5
____ and I'll leave____ you____ ly - in'__ on_the bed.__
e|-------------------------|-------0--------0-----0--|-------------------------|
B|----2--4--2--4--2--------|-------0-----0-----2--0--|----2--4--2--4--2--------|
G|----2--4--2--4--2--------|-1-------x-x-1-----------|----2--4--2--4--2--------|
D|-4-----------------4--0--|-2-------x-x-------------|-------------------4--2--|
A|-------------------------|-------------------------|-------------------------|
E|-------------------------|-------------------------|-------------------------|

F#5 F#5
________ Well I'll be out the door_ be -
e|-------2---------2-----2--|-------------------------|----------------2-----2--|
B|-------2--x-x-2--2-----2--|-4-----------------------|-------2--------2--2--2--|
G|--------------------------|-4--2--4--2--4--2--------|-------2-----------------|
D|-4------------------------|----2--4--2--4--2--4--2--|-------------------------|
A|--------------------------|-------------------4--2--|-4-----------x-----------|
E|--------------------------|-------------------------|-2-----------x-----------|

F#5
fore ya wake._ It's nuth-in' new ta you,__ 'Cause I
e|-------------------------|-------2---------2-----2--|-------------------------|
B|----2--4--2--4--2--------|-------2--x-x----2-----2--|-------------------------|
G|----2--4--2--4--2--------|--------------4-----------|----2--4--2--4--2--------|
D|-------------------4--2--|-4------------------------|----2--4--2--4--2--4--0--|
A|-------------------------|--------------------------|-------------------------|
E|-------------------------|--------------------------|-------------------------|

E F#5
think___ we've___ seen that mov - ie too.______________ Ow!______ 'Cause
e|-----0------0---0-|-------------------------|-----2------2---2--|----------------|
B|-----0---0----2---|----2--------4-----------|-----2-xx---2---2--|----------------|
G|-1-----x-1--------|----2--4--2--4--2--------|-------xx----------|--2-4-2-4-2-----|
D|-2-----x----------|-2-----4-----------4--0--|-4-------4---------|--2-4-2-4-2-2---|
A|------------------|-------------------------|-------------------|--------------0-|
E|------------------|-------------------------|-------------------|----------------|


[Chorus]

Fig. 2A
A5 B5 F#5 A5 B5
you could_ be mine,_ but you're way___________________ out_ of
e|----------|----------|--------------|----------------|----------------------|-----------|
B|----------|----------|--------------|----------------|----2-2---------------|-----------|
G|---2------|---4------|--------------|----------------|----2-2---------------|---4-------|
D|-2-2------|-4-4------|----4---------|----------------|-2----2---------------|-4---------|
A|-0--------|-2--------|---4----------|----------------|-0----0---------------|-2---------|
E|----------|----------|-2------------|----------------|----------------------|-----------|

F#5 A5 B5
line.__ With your bitch slap rappin' and your co-caine tongue,__
e|------------|---------------------|--------------------------|--------------------------|
B|------------|---------------------|--------------------------|--------------------------|
G|------------|---------------------|-----2--------------------|-------4-----------(0)-x--|
D|---4--------|----4---x--4---4-----|-2--2---------------------|----4--------------(0)-x--|
A|--4---------|-4---------4---4--0--|-0------------------------|-2------------------------|
E|-2----------|-2---------2---2-----|--------------------------|--------------------------|
(end Rhy. Fig. 2A)
____________________
|1.
F#5 A5 B5 F#5
nuth - in'____ done. I said you____________________ could__be_ mine.__
e|----------------|-------------------------|-------------------------|----------|-------|
B|----------------|-------------------------|-------------------------|----------|-------|
G|14-----11/13----|11-----------------------|-------------------------|-4--------|-------|
D|----------------|-------------------------|-------------------------|-4--------|-4-----|
A|12------9/11----|-9-----------------------|-------------------------|-2--------|-4-----|
E|----------------|-------------------------|-------------------------|----------|-2-----|
| | | | |
e|----------------|-------------------------|-------------------------|----------|
B|----------------|-------------------------|-------------------------|----------|
G|----------------|-------------------------|-------2-----------------|----------|
D|-7------6-------|-4-----------------------|----2--------------------|----------|
A|----------------|-------------------------|-0-----------------------|----------|
E|-5------4-------|-2-----------0--1--2--4--|-------------------------|----------|

Ow!Wow!
e|----------------|---------------|-----------------|---------------|-----------------|
B|----------------|---------------|-----------------|---------------|--------------17-|
G|----------------|---------------|-----------------|---------------|-----------------|
D|----------------|---------------|-----------------|---------------|-----------------|
A|----------------|---------------|-----------------|---------------|-----------------|
E|----------------|---------------|-----------------|---------------|-----------------|
| | | | | |
e|----------------|---------------|-----------------|---------------|-----------------|
B|----------------|---------------|-----------------|---------------|-----------------|
G|--2-4-2-4-2-----|---------------|---2-4-2-4-2-----|---------------|---2-4-2-4-2-----|
D|--2-4-2-4-2-4-2-|--4--4--2-4--4-|---2-4-2-4-2-4-2-|--4--4--2-4--4-|---2-4-2-4-2-4-2-|
A|------------4-2-|--4--4--2-4--4-|-------------4-2-|--4--4--2-4--4-|-------------4-2-|
E|----------------|---------------|-----------------|---------------|-----------------|

Now_
e|-----------------|-------------14-----17B|----17b-14----16b16|------p14-----16b16----|
B|------------14---|-17------------17p14---|----------17p14----|---------17p14---------|
G|---------------14|-----------------------|-------------------|-----------------------|
D|--------------16-|-----------------------|-------------------|-----------------------|
A|-----------------|-----------------------|-------------------|-----------------------|
E|-----------------|-----------------------|-------------------|-----------------------|
| | | | |
e|-----------------|-----------------------|-------------------|-----------------------|
B|-----------------|-----------------------|-------------------|-----------------------|
G|-----------------|--2--4--2--4--2--------|-------------------|--2--4--2--4--2--------|
D|-2---2---0-2---2-|--2--4--2--4--2--4--2--|-4---4---2--4---4--|--2--4--2--4--2--4--2--|
A|-2---2---0-2---2-|-----------------4--2--|-4---4---2--4---4--|-----------------4--2--|
E|-----------------|-----------------------|-------------------|-----------------------|


[Interlude]
w/Riffs A, A1, & A2
B5 C#5
could___ be mine!________________________________________
e|------------------|---------------|-----------------------------|
B|------------------|---------------|---------------16--------14--|
G|--4---------------|--6------------|--6\-----------16--------14--|
D|--4---------------|--6------------|--6\-------------------------|
A|--2---------------|--4------------|--4\-------------------------|
E|------------------|---------------|-----------------------------|
| | | |
e|------------------|---------------|-----------------------------|
B|------------------|---------------|-----------------------------|
G|--4---------------|--6------------|----------------4---------2--|
D|--4---------------|--6------------|----------------4---------2--|
A|--2---------------|--4------------|-----------------------------|
E|------------------|---------------|-----------------------------|

You could be mine.____________________________
You could be mine
(Whispered)
Sh-sh-sh-sh sh.
You_ could be mine.
You could be mine.
Sh - sh-sh-sh.
You could be mine,_ mine, mine, mine!


[Bridge]

(end Rhy. Fig. 3)
Rhy. Fig.3

G5 F#5 G5 A D A
Ooh, you've gone_ sketch'in too_ man-y__ time._______

G5 F#5 G5 A5 D A
Woo,_____ why don't_ ya give it a rest._______

G5 F#5 G5 A B5
Why__________ must you find _______________________

Rhy.
Fig.4 Guitar solo

G F#5 D5 A5 B5 D5 A B
another reason to cry?______
e|--------------------------|-----------------|------------------|-----------------|
B|--------------7--7--7-----|-----9---9-----9-|--9--99p7-9-7-----|-----7-999-7-9---|
G|--------------7--7--7-----|-----9---9b----9b|--9--99p7-9-7-----|-----7-999-7-9-7-|
D|-----------------------9--|---9---9---------|--------------9-7-|--9------------7-|
A|--------------------------|-----------------|------------------|-----------------|
E|--------------------------|-----------------|------------------|-----------------|

D5 A5 D5 A5 B5
e|--------------------------|----------------------------|------------------------|
B|-9-----------------7---p__|_---------------------------|------------------------|
G|-9b------7h9-9-----7--9-7\|-6--7--6--7---6h7p6---6----6|------------------------|
D|----------------7---------|--------------------9----9--|--9--9---7--9---7-------|
A|--------------------------|----------------------------|----------9---9---9--8--|
E|--------------------------|----------------------------|------------------------|
(end Rhy. Fig 4) w/Rhy. Fig 4
D5 A5 B5 /\/\/\/
e|------------------------------|---------------------|-------------7---10b---|
B|------------------------------|---------------------|-------------10p7------|
G|------------------------------|------------------10B|----10-----------------|
D|-------b----------7-----------|----------------9----|-----------------------|
A|--8b--7(7|7)p-5---7--5b-------|---------------------|-----------------------|
E|----------------7-------7--7--|10b--7BBb-(7)\-------|-----------------------|

D5 A5 B5
e|------14-----17-14----------|---14-----17--17--1417--17B|-----17B---17B------|
B|17-------1714-----17p14-17--|-----17p14--14--------14---|---------------17b--|
G|----------------------------|---------------------------|--------------------|
D|----------------------------|---------------------------|--------------------|
A|----------------------------|---------------------------|--------------------|
E|----------------------------|---------------------------|--------------------|

B C#5
While your breakin'down my back n'I been rackin' out_my brain, it don't
e|--------------------------|-----------------------------|------------------------------|
B|-16-----------------------|-----------------------------|------------------------------|
G|----16-14-----------------|14/16------------------------|------------------------------|
D|----------16p15p141214-12-|-----------------------------|------------------------------|
A|--------------------------|-----------------------------|------------------------------|
E|--------------------------|-----------------------------|------------------------------|

Dv A
mat-ter how we make it 'cause it al - ways ends the same. You can
e|-----------------------------------|---------------------------------|
B|-7---------------------------------|---------------------------------|
G|-7---------------------------------|---------------------------------|
D|-7-------------------------------7-|(7)b-----------------------------|
A|-5---------------------------------|---------------------------------|
E|-----------------------------------|---------------------------------|
*Bend neck.
B
push it for more mile-age
C#
but your flaps r' wear-in' thin
Dv
and I__ could sleep on it til' morn-in,

but this night-mare nev-er ends,__
C# B
don't for-get to call my law-yers
C#
with ri-dic-u-lous_ de-mands
Dv
an you can take the pi-ty so far,

but it's
C#
more than I__ can stand,_ 'Cause this

e|-------------------------------------|
B|(7)b---------------------------------|
G|(7)b---------------------------------|
D|-------------------------------------|
A|-------------------------------------|
E|-------------------------------------|

B
couch-trip's get-tin' old-er,
C#
tell me how long has it been,_
Dv
'cause 5 years is for-ev-er

An you
C#
have-n't grown up yet._
e|---------------------------------|
B|---------------------------------|
G|-----9b------9-------------------|
D|-----9b------9-------------------|
A|-----------------5---5-----------|
E|-------------------------5-------|


[Chorus]

w/Rhy. Figs. 2 & sA

A5 B5 F#5
You could be mine,____
A5 B5 F#5
but you're way____________ out_____ of line.____
A A5
With your bitch slap rap-pin'
B5
and your co-caine tongue,_

you get


F#5 A5
nuth - in'_____ done. I said, you___________________
e|-----------------------|-----------------------|-----------------------------|
B|-----------------------|-----------------------|---------10------------------|
G|14---------13----------|11--------9/11-11/14---|11----11----11---------------|
D|-----------------------|-----------------------|-------------------9B(9)7----|
A|12---------11----------|-9--------7/-9--9/12---|--------------------------9--|
E|-----------------------|-----------------------|-----------------------------|

B5 A5 B5
could_____ be, you_____________________ should______ be,
e|--------------------------|------------------------|------------------------------|
B|------10------------------|-----10-----------------|------------------------------|
G|11-------11---------------|11------11-11-----------|------------------------------|
D|--------------------------|------------------------|---------------·/.------------|
A|-------------------9--9---|-----------------9--9---|------------------------------|
E|--------------------------|------------------------|------------------------------|

A5
you_______________________
e|--------------------------|--------|----------------------------------|
B|------10------------------|--------|----------------------------------|
G|11-------11-------11------|--------|----------------------------------|
D|--------------------------|--------|----------------------------------|
A|----------------9-----9---|--------|----------------------------------|
E|--------------------------|--------|----------------------------------|

e|--------------------------|-------------------------------|
B|--------------------------|---14--16--14--16--14----------|
G|--------------------------|---14--16--14--16--14----------|
D|16----16----14--16----16--|-----------------------16--14--|
A|--------------------------|-------------------------------|
E|--------------------------|-------------------------------|(x4)

e|--------------------------|---17--19--17--19--17----------|
B|19----19----17--19----19--|-----------------------19--17--|
G|--------------------------|-------------------------------|
D|--------------------------|-------------------------------|
A|--------------------------|-------------------------------|
E|--------------------------|-------------------------------|(x4)

************************************

| x Dead note
| (n) Ghost note
| h Hammer-on
| p Pull-off
| b Bend
| / Slide up
| \ Slide down

************************************
Tunning: Standard (E A D G B e)
Intro
Q=152
N.C.
4/4
Gtr I
PM---------------------------------------------------------------------
S S S S S S S S S S S S S S S S
|-------------------------------------------------------------------------|
|-------------------------------------------------------------------------|
|-------------------------------------------------------------------------|
|-------------------------------------------------------------------------|
|-------------------------------------------------------------------------|
|-----------------|


-------------------------------------------------------------|
S S S S S S S S S S S S S S S S H Q Q
|-----------------------------------------------------------------|-------------|
|-----------------------------------------------------------------|-------------|
|-----------------------------------------------------------------|-------------|
|-----------------------------------------------------------------|------x/-----|
|-----------------------------------------------------------------|------x/-----|
|-----------------|-------------|


N.C(F#m)
Gtr II
> -|
|------------------|-----------------|-5-------(5)-----|
|------------------|-----------------|-----------------|


+H Q Q
|--------------------------------------|
|--(7)--------------7------------------|
|--(7)--------------7------------------|
|--(7)--------------7---------7\-------|
|--(5)--------------5------------------|
|--------------------------------------|
|
| \0.5__________/ |
| +Q. +E +E +Q +E
|--------------------------------------|
|--------------------------------------|
|--------------------------------------|
|-()---()---()-()----()-|
|--------------------------------------|
|--------------------------------------|


B C# D C#
Gtrs I, II
W W Q. E H +H Q Q
|----------|----------|-------------|---------------|
|-4--------|-6--------|-7----7-7----|-(7)----7--6---|
|-4--------|-6--------|-7----7-7----|-(7)----7--6---|
|-4--------|-6--------|-7----7-7----|-(7)----7--6---|
|-2--------|-4--------|-5----5-5----|-(5)----5--4---|
|----------|----------|-------------|---------------|


B C# D C#
Gtr I
W W W +H Q Q
|----------|----------|---------------------|----------------------------|
|-4--------|-6--------|-7-------------------|--(7)--------------7----6---|
|-4--------|-6--------|-7-------------------|--(7)--------------7----6---|
|-4--------|-6--------|-7-------------------|--(7)--------------7----6---|
|-2--------|-4--------|-5-------------------|--(5)--------------5----4---|
|----------|----------|---------------------|----------------------------|
|
| Gtr II
| \0.5______/0____|
| W W Q +E. S +H +Q. +E +H
|----------|----------|---------------------|----------------------------|
|-4--------|-6--------|-7--(7)--()----|-()-----()-()------|
|-4--------|-6--------|-7--(7)--()----|-()-----()-()------|
|-4--------|-6--------|-7--(7)--------------|----------------------------|
|-2--------|-4--------|-5--(5)--------------|----------------------------|
|----------|----------|---------------------|----------------------------|


B C# D C#
W W W +H. Q
|----------|----------|----------|------------------------|
|-4--------|-6--------|-7--------|-(7)----------------6---|
|-4--------|-6--------|-7--------|-(7)----------------6---|
|-4--------|-6--------|-7--------|-(7)----------------6---|
|-2--------|-4--------|-5--------|-(5)----------------4---|
|----------|----------|----------|------------------------|
|
| W W W +E E +E E E E Q
|----------|----------|----------|------------------------|
|-4--------|-6--------|-7--------|-(7)--------------------|
|-4--------|-6--------|-7--------|-(7)-9b10r(9)-9---------|
|-4--------|-6--------|-7--------|-(7)-9b10r(9)-9---------|
|-2--------|-4--------|-5--------|-(5)------------5-5-----|
|----------|----------|----------|--------------------5---|


Chorus
A5 B5 F#5
W W W +W
|----------------|----------------|--------------|--------|
|----------------|----------------|--------------|--------|
|----------------|----------------|--------------|--------|
|-2--------------|-4--------------|--------------|--------|
|-0--------------|-2--------------|-4------------|-(4)----|
|----------------|----------------|-2------------|-(2)----|
|
| Q H. a Q H. a E. S H. +W
|----------------|----------------|--------------|--------|
|----------------|----------------|--------------|--------|
|----2-------(2)-|----4-------(4)-|--------------|--------|
|-2--2-------(2)-|-4--------------|------4-------|-(4)----|
|-0--------------|-2--------------|----4---------|--------|
|----------------|----------------|-2------------|--------|


A5 B5 F#5
W W W +E Q E Q E E
|--------------|-----------------|--------------|-----------------|
|--------------|-----------------|--------------|-----------------|
|--------------|-----------------|--------------|-----------------|
|-2------------|-4---------------|--------------|-----------------|
|-0------------|-2---------------|-4------------|-(4)-4--x-4--4-0-|
|--------------|-----------------|-2------------|-(2)-2--x-2--2---|
|
| PM
| E. S H. E E H. a E. S H. E Q E Q E E
|--------------|-----------------|--------------|-----------------|
|----2-2-------|-----------------|--------------|-----------------|
|----2-2-------|-----4-------(4)-|--------------|-----------------|
|-2----2-------|---4-------------|------4-------|-----4--x-4--4---|
|-0----0-------|-2---------------|----4---------|--4-------4--4-0-|
|--------------|-----------------|-2------------|--2-------2--2---|


A5 B5 F#5
PM
W W Q E E E E E E Q E E +E +E E E
|--------------|--------------------|------------------|-----------------------|
|--------------|--------------------|------------------|-----------------------|
|--------------|--------------------|------------------|-----------------------|
|-2------------|-4------------------|------------------|-----------------------|
|-0------------|-2------------------|--4--4-x--4-4---4-|--4--4-4-(4)(4)\--x--x-|
|--------------|--------------------|--2--2-x--2-2---2-|--2--2-2-(2)(2)\--x--x-|
|
| ~~~~~~~~~
| E. S H. E E H +S E S H H H E E E E
|--------------|--------------------|------------------|-----------------------|
|--------------|--------------------|------------------|-----------------------|
|------2-------|-----4----(4)-(0)-x-|------------------|-----------------------|
|-2--2---------|---4----------(0)-x-|--7-------6-------|--4--------------------|
|-0------------|-2------------------|------------------|-----------------------|
|--------------|--------------------|--5-------4-------|--2-------0--1----2--4-|
|
| Gtr III
| W W H H H E E E E
|--------------|--------------------|------------------|-----------------------|
|--------------|--------------------|------------------|-----------------------|
|--------------|--------------------|-14------13-------|-11-------9s11---11s14-|
|--------------|--------------------|------------------|-----------------------|
|--------------|--------------------|-12------11-------|--9-------7s=9----9s12-|
|--------------|--------------------|------------------|-----------------------|


A5 B5
Gtrs I, II
W W
|------------------------------|---------------------|
|------------------------------|---------------------|
|------------------------------|---------------------|
|--2---------------------------|--4------------------|
|--0---------------------------|--2------------------|
|------------------------------|---------------------|
|
| Gtr III
| ~~~~~~~~~~~~~~~~~~~~~~~~~ ~~~~~~~~~~~~~~ PM
| |--3--| |-3--|
| Q E E E E E +E E E Q E E +Q E E
|------------------------------|---------------------|
|--------10--------------------|-----10--------------|
|-11--11----11-11--------------|-11-----11-(11)------|
|-----------------9b11r(9)p7---|---------------------|
|----------------------------9-|-----------------9-9-|
|------------------------------|---------------------|


A5 B5
W W
|-------------------|--------------------|
|-------------------|--------------------|
|-------------------|--------------------|
|--2----------------|--4-----------------|
|--0----------------|--2-----------------|
|-------------------|--------------------|
|
| ~~~~~~~~~~~~ ~~~~~~~~~~~~
| Q E E Q E E Q E E Q E E
|-------------------|--------------------|
|-----10------------|-----10-------------|
|-11-----11-11------|-11-----11-11-------|
|---------------9---|---------------9----|
|-----------------9-|-----------------9--|
|-------------------|--------------------|


A5 B5 A5 B5 A5 B5 A5 F#5E5
W E E E E E E E E
|-----------------------|------------------------------|
|-----------------------|------------------------------|
|-----------------------|-----2--4--2--4--2------------|
|--2--------------------|--4--2--4--2--4--2-------4--2-|
|--0--------------------|--2----------------------4--2-|
|-----------------------|----------------------------0-|
|
| ~~~~~~~~~~~~~~
| Q E E +E E E E E E E E E E E E
|-----------------------|------------------------------|
|-----10----------------|----14-16-14-16-14b14.5-------|
|-11-----11-(11)---11---|-11-14-16-14-16-14b14.5-------|
|-----------------------|------------------------16-14-|
|----------------9----9-|------------------------------|
|-----------------------|------------------------------|


Chorus
F#5 E5 F#5E5 F#5 A5 B5 A5 B5 A5 F#5E5
PM
Q q E E E E +E E E E E E E E
|-----------------------|--------------------------------|
|-----------------------|--------------------------------|
|-----------------------|-------2--4--2--4--2------------|
|------4-----2--4--2--4-|--(4)--2--4--2--4--2-------4--2-|
|--4---4-----2--4--2--4-|--(4)----------------------4--2-|
|--2--------------------|--------------------------------|
|
| ~~ ~~~~~~~~~
| Q E E E E E E +E E E E E E E E
|-----------------------|--------------------------------|
|-----------16----------|------14-16-14-16---------------|
|-----14----16----------|------14-16-14-16-14b14.5-------|
|-16--14-16----16-16-16-|-(16)---------------------16-14-|
|-----------------------|--------------------------------|
|-----------------------|--------------------------------|


F#5 A5 B5 A5 B5 A5 F#5E5
Q Q E E E E +E E E E E E E E
|-----------------------|----------------------------|
|-----------------------|----------------------------|
|-----------------------|-------2--4--2--4--2--------|
|-----------------------|-------2--4--2--4--2--4--2--|
|--4---4-----x--4-----4-|--(4)-----------------4--2--|
|--2---2-----x--2-----2-|--(2)-----------------------|
|
| ~~ ~~~~~~~~~
| Q E E E E E E +E E E E E E E E
|-----------------------|----------------------------|
|-----------16-14-------|---------14----16-14--------|
|-----14----16-14-14----|---------14----16-14--------|
|-16--14-16----------16-|-(16)-16----16-------16-14--|
|-----------------------|----------------------------|
|-----------------------|----------------------------|


F#5 E5 F#5E5 F#5 A5 B5 A5 B5 A5 F#5E5
PM
Q q E E E E +E E E E E E E E
|-----------------------|--------------------------------|
|-----------------------|--------------------------------|
|-----------------------|-------2--4--2--4--2------------|
|------4-----2--4--2--4-|--(4)--2--4--2--4--2-------4--2-|
|--4---4-----2--4--2--4-|--(4)----------------------4--2-|
|--2--------------------|--------------------------------|
|
| ~~ ~~~~~~~~~
| Q E E E E E E +E E E E E E E E
|-----------------------|--------------------------------|
|-----14----------------|---------16----16---------------|
|-----14----16-14-------|------14-16-14-16-14b14.5-------|
|-16-----16-------16-16-|-(16)-14------------------16-14-|
|-----------------------|--------------------------------|
|-----------------------|--------------------------------|


F#5 A5B5 A5 B5 A5 F#5 E5
Q Q E E E E +E E E E E E E E
|----------------------------|----------------------------------|
|----------------------------|----------------------------------|
|----------------------------|------2--4--2--4--2---------------|
|----------------------------|------2--4--2--4--2--4----------2-|
|--4---4-----x--4-----4------|--(4)----------------4----------2-|
|--2---2-----x--2-----2------|--(2)-----------------------------|
|
| ~~
| Q E E E E E E +Q E E E E S +S E
|----------------------------|----------------------------------|
|-----------16-14----16b16.5-|-(16)---16-14-16-14-16b17r(16)-14-|
|-----14----16-14----16b16.5-|-(16)---16-14-16-14-16b17r(16)-14-|
|-16-----16-------16---------|----------------------------------|
|----------------------------|----------------------------------|
|----------------------------|----------------------------------|


F#5 E5 F#5E5 F#5 A5B5 A5 B5 A5 F#5E5
PM
Q q E E E E +E E E E E E E E
|----------------------------------|-------------------------------------|
|----------------------------------|-------------------------------------|
|----------------------------------|-------2--4------2-------4---2-------|
|---------4-----2-----4--2--4------|--(4)--2--4------2-------4---2--4--2-|
|--4------4-----2-----4--2--4------|--(4)---------------------------4--2-|
|--2-------------------------------|-------------------------------------|
|
| ~~~~~~~~~~~~~~~
| Q E E E E E E +Q E +E +E E E E
|--------14----------14------------|---------17b19r(17)b19-(17)-17-14----|
|-17b19-----14-17b19----14-17pb19==|=(17)r----------------------------14-|
|----------------------------------|-------------------------------------|
|----------------------------------|-------------------------------------|
|----------------------------------|-------------------------------------|
|----------------------------------|-------------------------------------|


F#5 A5 B5 A5 B5 A5 F#5E5
Q Q E E E E +E E E E E E E E
|---------------------------------|---------------------------------------|
|---------------------------------|---------------------------------------|
|---------------------------------|--------2--4------2-------4---2--------|
|---------------------------------|--------2--4------2-------4---2--4--2--|
|--4------4-----x-----4-----4-----|--(4)----------------------------4--2--|
|--2------2-----x-----2-----2-----|--(2)----------------------------------|
|
| ~~~~~~~~~~~~~~
| Q E E E E E E +E E E +E +E E E E
|--------14----------14-----------|-------14-17b19r(17)b19-(17)-17-14-----|
|-17b19-----14-17b19----14-17b19==|=(17)r-----------------------------14--|
|---------------------------------|---------------------------------------|
|---------------------------------|---------------------------------------|
|---------------------------------|---------------------------------------|
|---------------------------------|---------------------------------------|


F#5 E5 F#5E5 F#5 A5 B5 A5 B5 A5 F#5E5
PM
Q q E E E E +E E E E E E E E
|---------------------------------|--------------------------------------|
|---------------------------------|--------------------------------------|
|---------------------------------|--------2--4------2-------4---2-------|
|---------4-----2-----4--2--4-----|--(4)---2--4------2-------4---2--4--2-|
|--4------4-----2-----4--2--4-----|--(4)----------------------------4--2-|
|--2------------------------------|--------------------------------------|
|
| ~~~~~~~~~~~~~~
| Q E E E E E E +E E E +E +E E E E
|--------14----------14-----------|-------14-17b19r(17)b19-(17)-17-14----|
|-17b19-----14-17b19----14-17b19==|=(17)r-----------------------------14-|
|---------------------------------|--------------------------------------|
|---------------------------------|--------------------------------------|
|---------------------------------|--------------------------------------|
|---------------------------------|--------------------------------------|


F#5 A5 B5 A5 B5 A5 F#5E5
Q Q E E E E +E E E E E E E E
|--------------------------------------|---------------------------------|
|--------------------------------------|---------------------------------|
|--------------------------------------|-------2-----4--2--4--2----------|
|--------------------------------------|-------2-----4--2--4--2-----4--2-|
|--4------4--------x-------4---------4-|--(4)-----------------------4--2-|
|--2------2--------x-------2---------2-|--(2)----------------------------|
|
| ~~~~~~~~~
| Q E S S E +S S E E +E E a E E E E E E
|--------14----------------------------|---------------------------------|
|-17b19-----17-14----------------------|---------------------------------|
|-----------------16pb17r(16)-14-------|---------------------------------|
|--------------------------------16-16-|-(16)-14-------------------------|
|--------------------------------------|---------16s14-12-14-12b13-------|
|--------------------------------------|---------------------------14-12-|


F#5
Q. +E H Wx4
|-----------------------|--------*|
|-----------------------|--------*|
|-----------------------|--------*|
|-----------------------|--------*|
|--4--------(4)\--------|--------*|
|--2--------(2)\--------|--------*|
|
| ~~~~~~~~~~
| Q +Q E E Q Wx4
|-----------------------|--------*|
|-----------------------|--------*|
|-----------------------|--------*|
|-----------------------|--------*|
|-----------------------|--------*|
|-14---(14)s=====1h2-2--|--------*|




--------------------------------------------------------------------------------


Duration Legend
---------------
W - whole; H - half; Q - quarter; E - 8th; S - 16th; T - 32nd; X - 64th; a - acciaccatura
+ - note tied to previous; . - note dotted; .. - note double dotted
Uncapitalized letters represent notes that are staccato (1/2 duration)
Irregular groupings are notated above the duration line
Duration letters will always appear directly above the note/fret number it represents the
duration for. Duration letters with no fret number below them represent rests. Multi-
bar rests are notated in the form Wxn, where n is the number of bars to rest for. Low
melody durations appear below the staff

Tablature Legend
----------------
h - hammer-on
p - pull-off
b - bend
pb - pre-bend
r - bend release (if no number after the r, then release immediately)
/\ - slide into or out of (from/to "nowhere")
s - legato slide
S - shift slide
- natural harmonic
[n] - artificial harmonic
n(n) - tapped harmonic
~ - vibrato
tr - trill
T - tap
TP - trem. picking
PM - palm muting
\n/ - tremolo bar dip; n = amount to dip
\n - tremolo bar down
n/ - tremolo bar up
/n\ - tremolo bar inverted dip
= - hold bend; also acts as connecting device for hammers/pulls
- volume swell (louder/softer)
x - on rhythm slash represents muted slash
o - on rhythm slash represents single note slash

Misc Legend
-----------
| - bar
|| - double bar
||o - repeat start
o|| - repeat end
*| - double bar (ending)
: - bar (freetime)
$ - Segno
& - Coda
Tempo markers - = BPM(8/16=s8/s16), where s8 = swing 8ths, s16 = swing 16ths

Song info
You Could Be Mine
Guns N' Roses
2001
  • Rock
  • Hard Rock
Alternative tracks
Similar songs
Wake Up - Rage Against the Machine
Back Off Bitch - Guns N' Roses
Lunatic Fringe - Red Rider
Rock City - Krokus
This I Love - Guns N' Roses

Hi! Hope you enjoy backing track experience.
If you want to help us in the development of the project, feel free to donate!