Celebrity Skin - Hole
00:00 / 00:00
Tabs and lyrics
Tunning: Standard (E A D G B e)
[Intro and Verse]
e|-------------|
B|-------------|
G|-----6-6-----| This riff has some variations through
D|-7-7-6-6-4-4-| the song. The first two times DO NOT
A|-7-7-4-4-4-4-| let ring. The 3rd time let ring but
E|-5-5-----2-2-| NOT TOO LONG. Last time let ring with a lot of vibrato, tremolo and phaser
(well, it's only tremolo, but sounds better this way)

[Chorus]
e|-------------------------------------------
B|-------------------------------------------
G|-7-7-7-7-7------------7-7-7-7-7------------
D|-7-7-7-7-7-7-7-7-7-7--7-7-7-7-7-7-7-7-7-7--
A|-5-5-5-5-5-7-7-7-7-7--5-5-5-5-5-7-7-7-7-7--
E|-----------5-5-5-5-5------------5-5-5-5-5--

e|--------------------------------|
B|--------------------------------|
G|------------4-4-4-4-4-7-7-7-7-7-|
D|-4-4-4-4-4--4-4-4-4-4-7-7-7-7-7-|
A|-4-4-4-4-4--2-2-2-2-2-5-5-5-5-5-|
E|-2-2-2-2-2----------------------|

[Bridge]
A D F#m
e|---------------2---| |--------------|
B|-----2-----------3-| |--------------|
G|-------2-----2-----| x3 |-----2------2-|
D|---2-------0-------| |-----2------2-|
A|-0-----------------| |---4------4---|
E|-------------------| |-2------2-----|
Tunning: Nashville (E A D G B E)
Hole Celebrity Skin
Tabbed by Liam
Email: guitar_rocker_47@hotmail.com
Tuning: Standard
Date: 09/04/06

Im just tabbing this as our band played it at a school production sometime ago, and
its pretty kwl, just bringing back old memories as I listen to it, didn’t really like
it at the time but now its pretty rocking! Enjoy, this is exactly how I played it and
still how I play it, I believe it sounds quite good. If you disagree or agree please
leave comments and rate, thanks, have fun.

Verse 1
E|-------------------------------------------------------------------------|
B|-------------------------------------------------------------------------|
G|-----6-6------------6-6------------6-6------------6-6--------------------|
D|-7-7-6-6-4-4----7-7-6-6-4-4----7-7-6-6-4-4----7-7-6-6-4-4----------------|
A|-7-7-4-4-4-4----7-7-4-4-4-4----7-7-4-4-4-4----7-7-4-4-4-4----------------|
E|-5-5-----2-2----5-5-----2-2----5-5-----2-2----5-5-----2-2--2-2-2-2-2-2-2-|

Chorus
E|------------------------------------------------------------|
B|------------------------------------------------------------|
G|-7-7-7-7-7-7-------------------7-7-7-7-7-7------------------|
D|-7-7-7-7-7-7--7-7-7-7-7-7-7-7--7-7-7-7-7-7--7-7-7-7-7-7-7-7-|
A|-5-5-5-5-5-5--7-7-7-7-7-7-7-7--5-5-5-5-5-5--7-7-7-7-7-7-7-7-|
E|--------------5-5-5-5-5-5-5-5---------------5-5-5-5-5-5-5-5-|

E|-------------------------------------------------------|
B|-------------------------------------------------------|
G|--------------4-4-4-4-4-4-4-4--7-7-7-7-7-7-7-7-7-7-7-7-|
D|-4-4-4-4-4-4--4-4-4-4-4-4-4-4--7-7-7-7-7-7-7-7-7-7-7-7-|
A|-4-4-4-4-4-4--2-2-2-2-2-2-2-2--5-5-5-5-5-5-5-5-5-5-5-5-|
E|-2-2-2-2-2-2-------------------------------------------|

Verse 2
E|-------------------------------------------------------------------------|
B|-------------------------------------------------------------------------|
G|-----6-6------------6-6------------6-6------------6-6--------------------|
D|-7-7-6-6-4-4----7-7-6-6-4-4----7-7-6-6-4-4v---7-7-6-6-4-4----------------|
A|-7-7-4-4-4-4----7-7-4-4-4-4----7-7-4-4-4-4v---7-7-4-4-4-4----------------|
E|-5-5-----2-2----5-5-----2-2----5-5-----2-2v---5-5-----2-2--2-2-2-2-2-2-2-|

Bridge
E|--------------2------------------2------------------2------------------|
B|-----2----------3-------2----------3-------2----------3----------------| x3
G|-------2----2-------------2----2-------------2----2--------------------| then
D|---2------0-----------2------0-----------2------0------------2b-----2b-| play
A|-0------------------0------------------0-------------------4------4----| that
E|---------------------------------------------------------2------2------| below

E|--------------2------------------2-----------------2-------------------|
B|-----2----------3-------2----------3------2----------3-----------------|
G|-------2----2-------------2----2------------2----2---------------------|
D|---2------0-----------2------0----------2------0-------4-4-4-4-4-4-4-4-|
A|-0------------------0-----------------0----------------4-4-4-4-4-4-4-4-|
E|-------------------------------------------------------2-2-2-2-2-2-2-2-|

Outro
E|-----------------------------------------------------------|
B|-----------------------------------------------------------|
G|-----6-6------------6-6------------6-6------------6-6------|
D|-7-7-6-6-4-4----7-7-6-6-4-4----7-7-6-6-4-4----7-7-6-6-4--4-|
A|-7-7-4-4-4-4----7-7-4-4-4-4----7-7-4-4-4-4----7-7-4-4-4--4-|
E|-5-5-----2-2----5-5-----2-2----5-5-----2-2----5-5-----2--2-|

Order

Verse 1
Chorus
Verse 2
Chorus
Bridge
Verse 2
Chorus
Bridge
Outro

Have fun with that, please rate and comment, thanks, bye
Song info
Celebrity Skin
Hole
2001
  • Rock
  • Alternative Rock
  • Grunge
Alternative tracks
Similar songs
Higher - Creed
Lump - Presidents Of The United States Of America
Everything About You - Ugly Kid Joe
Light Years - Pearl Jam
One Day Remains - Alter Bridge

Hi! Hope you enjoy backing track experience.
If you want to help us in the development of the project, feel free to donate!