Running Free - Iron Maiden
00:00 / 00:00
Tabs and lyrics
Tunning: Standard (E A D G B e)
[Intro] (2x)
E G F# E C D
e|----------------------------------------------------|
B|----------------------------------------------------|
G|--9-------12--11--9-9--------x-5------xxx-7-----xxx-|
D|--9-------12--11--9-9--------x-5------xxx-7-----xxx-|
A|--7-------10--9---7-7--------x-3------xxx-5-----xxx-|
E|----------------------------------------------------|

[Verse] (2x)
E C D E G A
e|----------------------------------|---------------------------------|
B|----------------------------------|---------------------------------|
G|--9---xxx-9---xxx-5---xxx-7---xxx-|-9---xxx-9-------------------xxx-|
D|--9---xxx-9---xxx-5---xxx-7---xxx-|-9---xxx-9---xxx-5---xxx-7---xxx-|
A|--7---xxx-7---xxx-3---xxx-5---xxx-|-7---xxx-7---xxx-5---xxx-7---xxx-|
E|----------------------------------|-------------xxx-3---xxx-5-------|

[Chorus] (2x)
E G E C D
e|----------------------------------------------------|
B|----------------------------------------------------|
G|--9-------12--9---7-9--x-9---xxx-5----xxx-7-----xxx-|
D|--9-------12--9---7-9--x-9---xxx-5----xxx-7-----xxx-|
A|--7-------10--7---5-7--x-7---xxx-3----xxx-5-----xxx-|
E|----------------------------------------------------|

[Solo]
e|--9--------------------------------------------------------|
B|---12-10-12-10--10-----------------------------------------|
G|--------------12--12-11-12-11-9-11-9--9--------------------| (2x)
D|------------------------------------12-12-11-12-11-9-------|
A|----------------------------------------------------12-----|
E|-----------------------------------------------------------|

e|--17-15-14-15-14--14-----------------------------------------|
B|----------------17--17-15-17-15-14-15-14--14-----------------|
G|----------------------------------------16--16-14-16-14------| (2x)
D|-------------------------------------------------------17-16-|

e|-------------------------------------------------------------|
B|-------------------------------------------------------------|
G|-16-14---------16-14----------16-14----16-14----16-14--------|
D|------17-16---------17-16----------17-------17-------17-16---|

[Outro] (4x)
e|--------------------------|--------------------------------|
B|--------------------------|----------------------------12\-|
G|--------------------------|-12-12-12-11-12-11--------------|
D|--9-----9-----9-----9-----|-------------------12-12-12-----|
A|--7-----7-----7-----7-----|--------------------------------|
E|--0---0-0---0-0---0-0---0-|--------------------------------|
PM......................|
(play this bar 3x)

e|-----------------|
B|-----------------|
G|--9----5--7---x--|
D|--9----5--7---x--|
A|--7----3--5---x--|
E|--0--------------|

[Break]
e|------------------------------------------------------|
B|------------------------------------------------------|
G|--9-9-------7-9-9-------7-9-9------5-5----5-7-7----7--| (2x)
D|--9-9-------7-9-9-------7-9-9------5-5----5-7-7----7--|
A|--7-7-------5-7-7-------7-9-9------3-3----3-5-5----5--|
E|------------------------------------------------------|

e|------5-6-5-5-----5-6-5-5----5-6-5-5--------------------|
B|-----------8-----------8----------8---------------------|
G|--9-9---------9-9---------9-9--------5-5----5-7-7----7--| (2x)
D|--9-9---------9-9---------9-9--------5-5----5-7-7----7--|
A|--7-7---------7-7---------9-9--------3-3----3-5-5----5--|
E|--------------------------------------------------------|


2. Version of the song

(Gtr 1)
e|-9----------------------------------------------------------|
B|--12-10-12-10----10-----------------------------------------|
G|--------------12----12-11-12-11-9-11-9----9-----------------|
D|---------------------------------------12---12-11-12-11-9---|
A|----------------------------------------------------------12|
E|------------------------------------------------------------|

(Gtr 2)
e|-5-------------------------------------------|
B|---8-7-8-7-5-7-5---5-------------------------|
G|-----------------7---7-6-7-6-4-6-4---4-------|
D|-----------------------------------7---7-5-4-|
A|---------------------------------------------| (x2)
E|---------------------------------------------|

(Gtr 1)
e|17--------------------------------------------------------------|
B|---20-19-20-19-17-19-17----17-----------------------------------|
G|------------------------19----19-18-17-18-16-18-16----16--------|
D|---------------------------------------------------19---19-17-16|
A|----------------------------------------------------------------|
E|----------------------------------------------------------------|

(Gtr 2)
e|-14---------------------------------------------------------------|
B|----17-15-17-15-14-15-14----14------------------------------------|
G|-------------------------16----16-14-16-14----14------------------|
D|-------------------------------------------17---17-16-17-16-14----| (x2)
A|---------------------------------------------------------------17-|
E|------------------------------------------------------------------|

(Gtr 1)
e|-----------------------------------------------------|
B|-----------------------------------------------------|
G|-16----------16---------16-------16------16----------|
D|----19-17-16---19-17-16----19-17---19-17----19-17-16-|
A|-----------------------------------------------------|
E|-----------------------------------------------------|

(Gtr 2)
e|----------------------------------------------------|
B|----------------------------------------------------|
G|----------------------------------------------------|
D|17-16-14----17-16-14---17-16-14-17-16-14-17-16-14---|
A|---------17---------17----------------------------17|
E|----------------------------------------------------|

(Gtr 1)
e|14-14-14-----12-14-12-------------19-|
B| -----------------------15-15-15-----|
G|-------------------------------------|
D|-------------------------------------|
A|-------------------------------------|
E|-------------------------------------|

(Gtr 2)
e|-12-12-12------------------------------15|
B|------------15-15-15---------------------|
G|------------------------16-16-16---------|
D|-----------------------------------------|
A|-----------------------------------------|
E|-----------------------------------------|


************************************

| x Dead note
| \ Slide down
| PM Palm mute

************************************
Tunning: Standard (E A D G B e)
Band- Iron Maiden
Song- Running Free

Gtr I (E A D G B E) - 'Dennis Stratton - dist electric'
Gtr II (E A D G B E) - 'Dave Murray - dist electric'

Intro
Q=175(8=s8)
4/4
Gtr I
Wx12 W +Q. Q. Q H. E E
|-------------|----------|------------------|--------------|
|-------------|----------|------------------|--------------|
|-------------|-9--------|-(9)---12----11---|-9-------9-x--|
|-------------|-9--------|-(9)---12----11---|-9-------9-x--|
|-------------|-7--------|-(7)---10-----9---|-7-------7-x--|
|-------------|----------|------------------|--------------|
|
| Gtr II
| Wx12 W +Q. Q. E E H. E E
|-------------|----------|------------------|--------------|
|-------------|----------|------------------|--------------|
|-------------|-9--------|-(9)---12----11-9-|-9-------9-x--|
|-------------|-9--------|-(9)---12----11-9-|-9-------9-x--|
|-------------|-7--------|-(7)---10-----9-7-|-7-------7-x--|
|-------------|----------|------------------|--------------|


|--3--| |--3--|
Q E E E Q E E E W +Q. Q. Q
|-------------------------|----------|------------------|
|-------------------------|----------|------------------|
|-5---x-x---x-7---x-x---x-|-9--------|-(9)---12----11---|
|-5---x-x---x-7---x-x---x-|-9--------|-(9)---12----11---|
|-3---x-x---x-5---x-x---x-|-7--------|-(7)---10-----9---|
|-------------------------|----------|------------------|
|
| Q. E Q. E W +Q. Q. E E
|-------------------------|----------|------------------|
|-------------------------|----------|------------------|
|-5-------x---7-------x---|-9--------|-(9)---12----11-9-|
|-5-------x---7-------x---|-9--------|-(9)---12----11-9-|
|-3-------x---5-------x---|-7--------|-(7)---10-----9-7-|
|-------------------------|----------|------------------|


|--3--| |--3--|
H. +E E Q E E E Q E E E
|---------------|---------------------------|
|---------------|---------------------------|
|-9-------(9)-x-|-5---x-x---x-7---x-x---x---|
|-9-------(9)-x-|-5---x-x---x-7---x-x---x---|
|-7-------(7)-x-|-3---x-x---x-5---x-x---x---|
|---------------|---------------------------|
|
| H. +E E Q. E Q. E
|---------------|---------------------------|
|---------------|---------------------------|
|-9-------(9)-x-|-5-------x---7-------x-----|
|-9-------(9)-x-|-5-------x---7-------x-----|
|-7-------(7)-x-|-3-------x---5-------x-----|
|---------------|---------------------------|


Verse
Gtrs I, II
|-3-| |-3-| |-3-| |-3-|
Q E E E Q E E E Q E E E Q E E E
||--------------------|-------------------|
||o-------------------|-------------------|
||--9--x-x-x-9--x-x-x-|-5--x-x-x-7--x-x-x-|
||--9--x-x-x-9--x-x-x-|-5--x-x-x-7--x-x-x-|
||o-7--x-x-x-7--x-x-x-|-3--x-x-x-5--x-x-x-|
||--------------------|-------------------|


|-3-| |-3-| |-3-| |-3-|
Q E E E Q E E E Q E E E Q E E E
|-------------------|-------------------|
|-------------------|-------------------|
|-9--x-x-x-9--x-x-x-|-------------------|
|-9--x-x-x-9--x-x-x-|-5--x-x-x-7--x-x-x-|
|-7--x-x-x-7--x-x-x-|-5--x-x-x-7--x-x-x-|
|-------------------|-3--x-x-x-5--x-x-x-|


|-3-| |-3-| |-3-| |-3-|
Q E E E Q E E E Q E E E Q E E E
|-------------------|-------------------|
|-------------------|-------------------|
|-9--x-x-x-9--x-x-x-|-5--x-x-x-7--x-x-x-|
|-9--x-x-x-9--x-x-x-|-5--x-x-x-7--x-x-x-|
|-7--x-x-x-7--x-x-x-|-3--x-x-x-5--x-x-x-|
|-------------------|-------------------|


|-3-| |-3-| |-3-| |-3-|
Q E E E Q E E E Q E E E Q E E E
|-------------------|--------------------|
|-------------------|--------------------|
|-9--x-x-x-9--x-x-x-|--------------------|
|-9--x-x-x-9--x-x-x-|-5--x-x-x-7--x-x-x--|
|-7--x-x-x-7--x-x-x-|-5--x-x-x-7--x-x-x--|
|-------------------|-3--x-x-x-5--x-x-x--|


Chorus
Gtr I
|-3-| |-3-| |-3-|
H. +E E +Q. Q. E E +Q E E +Q E E E Q E E E Q E E E
|----------------|-----------------|---------------------|--------------------|
|----------------|-----------------|---------------------|--------------------|
|-9-------(9)-12-|-(12)---9----7-9-|-(9)--x-9-(9)--x-x-x-|-5--x-x-x-7--x-x-x--|
|-9-------(9)-12-|-(12)---9----7-9-|-(9)--x-9-(9)--x-x-x-|-5--x-x-x-7--x-x-x--|
|-7-------(7)-10-|-(10)---7----5-7-|-(7)--x-7-(7)--x-x-x-|-3--x-x-x-5--x-x-x--|
|----------------|-----------------|---------------------|--------------------|
|
| Gtr II
| |-3-| |-3-|
| H. +E E +Q. Q. E E +Q E E +Q Q Q E E E Q E E E
|----------------|-----------------|---------------------|--------------------|
|----------------|-----------------|---------------------|--------------------|
|-9-------(9)-12-|-(12)---9----7-9-|-(9)--7-9-(9)--7-----|-5--x-x-x-7--x-x-x--|
|-9-------(9)-12-|-(12)---9----7-9-|-(9)--7-9-(9)--7-----|-5--x-x-x-7--x-x-x--|
|-7-------(7)-10-|-(10)---7----5-7-|-(7)--5-7-(7)--5-----|-3--x-x-x-5--x-x-x--|
|----------------|-----------------|---------------------|--------------------|


H. +E E +Q. Q. E E
|----------------|-----------------|
|----------------|-----------------|
|-9-------(9)-12-|-(12)---9----7-9-|
|-9-------(9)-12-|-(12)---9----7-9-|
|-7-------(7)-10-|-(10)---7----5-7-|
|----------------|-----------------|
|
| H. +E E +Q. Q. E E
|----------------|-----------------|
|----------------|-----------------|
|-9-------(9)-12-|-(12)---9----7-9-|
|-9-------(9)-12-|-(12)---9----7-9-|
|-7-------(7)-10-|-(10)---7----5-7-|
|----------------|-----------------|

_______________
|1.
|-3-| |-3-| |-3-|
+Q E E +Q E E E Q E E E Q E E E
|---------------------|---------------------||
|---------------------|--------------------o||
|-(9)--x-9-(9)--x-x-x-|-5--x-x-x-7--x-x-x---||
|-(9)--x-9-(9)--x-x-x-|-5--x-x-x-7--x-x-x---||
|-(7)--x-7-(7)--x-x-x-|-3--x-x-x-5--x-x-x--o||
|---------------------|---------------------||
|
| |-3-|
| +Q E E +Q Q Q E E E H
|---------------------|---------------------||
|---------------------|--------------------o||
|-(9)--7-9-(9)--7-----|-5--x-x-x-7----------||
|-(9)--7-9-(9)--7-----|-5--x-x-x-7----------||
|-(7)--9-7-(7)--5-----|-3--x-x-x-5---------o||
|---------------------|---------------------||


______________ Guitar Break
|2.
|-3-| |-3--| |-3--| |-3-| |-3-| |-3-| |-3-| |-3-|
Q E E E H E E E E E E E E E E E E E E E E E E E E E Q
|---------------||--9-7----7-------------------|------------------------||
|---------------||o-----10---10-8-10-8-7-8-7---|-7---------------------o||
|-5--x-x-x-7----||---------------------------9-|---9-7-9-7-6-7-6--------||
|-5--x-x-x-7----||-----------------------------|-----------------9-7----||
|-3--x-x-x-5----||o----------------------------|-----------------------o||
|---------------||-----------------------------|------------------------||
|
| |-3-| |-3--| |-3--| |-3-| |-3-| |-3-| |-3-| |-3-|
| Q E E E H E E E E E E E E E E E E E E E E E E E E E Q
|---------------||--5--------------------------|------------------------||
|---------------||o---8--7-8--7-5--7-5---5-----|-----------------------o||
|-5--x-x-x-7----||---------------------7---7-6-|-7-6-4-6-4---4----------||
|-5--x-x-x-7----||-----------------------------|-----------7---7-5-4----||
|-3--x-x-x-5----||o----------------------------|-----------------------o||
|---------------||-----------------------------|------------------------||


|--3--| |--3--| |--3--| |--3--|
E E E E E E E E E E E E
||--17-15-14-15-14----14----------------|
||o----------------17----17-15-17-15-14-|
||--------------------------------------|
||--------------------------------------|
||o-------------------------------------|
||--------------------------------------|
|
| |--3--| |--3--| |--3--| |--3--|
| E E E E E E E E E E E E
||--14-12----12-------------------------|
||o-------15----15-14-15-14-12-14-12----|
||-----------------------------------14-|
||--------------------------------------|
||o-------------------------------------|
||--------------------------------------|


|--3--| |--3--| |--3--| |-3--| |-3--|
E E E E E E E E E Q E E E Q E E E Q
|---------------------------------||-||--7---------7----------||
|-15-14----14--------------------o||-||o---10-8-7----10-8-7--o||
|-------16----16-14-16-14---------||-||-----------------------||
|-------------------------17-16---||-||-----------------------||
|--------------------------------o||-||o---------------------o||
|---------------------------------||-||-----------------------||
|
| |--3--| |--3--| |--3--| |-3--| |-3--|
| E E E E E E E E E Q E E E Q E E E Q
|---------------------------------||-||-----------------------||
|-12-----------------------------o||-||o-8--7-5----8--7-5----o||
|----14-12-14-12-11-12-11---------||-||---------7---------7---||
|-------------------------14-12---||-||-----------------------||
|--------------------------------o||-||o---------------------o||
|---------------------------------||-||-----------------------||


E E E E E E Q E E E E E E Q
||------------------|-----------------|
||o-----------------|-----------------|
||--------------9---|-------------9---|
||--------------9---|-------------9---|
||o-------------7---|-------------7---|
||--0-0-0-0-0-0-0---|-0-0-0-0-0-0-0---|
|
| E E E E E E E E E E E E E E E E
||------------------|-----------------|
||o-----------------|-----------------|
||------------------|-----------------|
||--9-9-9-9-9-9-9-9-|-9-9-9-9-9-9-9-9-|
||o-7-7-7-7-7-7-7-7-|-7-7-7-7-7-7-7-7-|
||--0-0-0-0-0-0-0-0-|-0-0-0-0-0-0-0-0-|

______________________
|1.,2.,3.
|-3-| |-3-| |-3-|
E E E E E E Q E E E E E E E E E Q
|-----------------|-------------------7\---||
|-----------------|-8-8-8-7-8-7-----------o||
|-------------9---|-------------7-7-7------||
|-------------9---|------------------------||
|-------------7---|-----------------------o||
|-0-0-0-0-0-0-0---|------------------------||
|
| |-3-| |-3-| |-3-|
| E E E E E E E E E E E E E E E E E Q
|-----------------|-------------------3\---||
|-----------------|-5-5-5-3-3-3-----------o||
|-----------------|-------------4-4-4------||
|-9-9-9-9-9-9-9-9-|------------------------||
|-7-7-7-7-7-7-7-7-|-----------------------o||
|-0-0-0-0-0-0-0-0-|------------------------||


___________ Chorus
|4.
Gtrs I, II
E E E E E E E E Q E Q Q E H. +E E +Q. Q. E E
|-----------------|--------------||-----------------|-----------------|
|-----------------|--------------||o----------------|-----------------|
|-----------------|-9----5--7--x-||--9-------(9)-12-|-(12)---9----7-9-|
|-9-9-9-9-9-9-9-9-|-9----5--7--x-||--9-------(9)-12-|-(12)---9----7-9-|
|-7-7-7-7-7-7-7-7-|-7----3--5--x-||o-7-------(7)-10-|-(10)---7----5-7-|
|-0-0-0-0-0-0-0-0-|-0------------||-----------------|-----------------|


Interlude
Gtr I
|-3-| |-3-| |-3-|
+Q E E +Q E E E Q E E E Q E E E E E Q Q E E E E Q Q E E
|---------------------|--------------------||---------------|----------------|
|---------------------|-------------------o||---------------|----------------|
|-(9)--x-9-(9)--x-x-x-|-5--x-x-x-7--x-x-x--||-9-9---------7-|-9-9---------7--|
|-(9)--x-9-(9)--x-x-x-|-5--x-x-x-7--x-x-x--||-9-9---------7-|-9-9---------7--|
|-(7)--x-7-(7)--x-x-x-|-3--x-x-x-5--x-x-x-o||-7-7---------5-|-7-7---------5--|
|---------------------|--------------------||---------------|----------------|
|
| Gtr II
| |-3-| |-3-|
| +Q E E +Q Q Q E E E Q E E E E E Q Q E E E E Q Q E E
|---------------------|--------------------||---------------|----------------|
|---------------------|-------------------o||---------------|----------------|
|-(9)--7-9-(9)--7-----|-5--x-x-x-7--x-x-x--||-9-9---------7-|-9-9---------7--|
|-(9)--7-9-(9)--7-----|-5--x-x-x-7--x-x-x--||-9-9---------7-|-9-9---------7--|
|-(7)--5-7-(7)--5-----|-3--x-x-x-5--x-x-x-o||-7-7---------5-|-7-7---------5--|
|---------------------|--------------------||---------------|----------------|


Gtrs I, II
E E H. E Q E E Q E E E Q Q E E E E Q Q E E
|-------------|---------------|---------------|---------------|
|-------------|---------------|---------------|---------------|
|-9-9---------|-5-5--5-7-7--7-|-9-9---------7-|-9-9---------7-|
|-9-9---------|-5-5--5-7-7--7-|-9-9---------7-|-9-9---------7-|
|-7-7---------|-3-3--3-5-5--5-|-7-7---------5-|-7-7---------5-|
|-------------|---------------|---------------|---------------|


Gtr I
|-3-|
E E H. E Q E E Q E E E E E E E E Q
|-------------||----------------|-------5-7-5---5--|
|-------------||o---------------|-------------8----|
|-9-9---------||--5-5--5-7-7--7-|-9-9--------------|
|-9-9---------||--5-5--5-7-7--7-|-9-9--------------|
|-7-7---------||o-3-3--3-5-5--5-|-7-7--------------|
|-------------||----------------|------------------|
|
| Gtr II
| |-3-|
| E E H. E Q E E Q E E E E E E E E Q
|-------------||----------------|------------------|
|-------------||o---------------|-------7-8-7-5-7--|
|-9-9---------||--5-5--5-7-7--7-|-9-9--------------|
|-9-9---------||--5-5--5-7-7--7-|-9-9--------------|
|-7-7---------||o-3-3--3-5-5--5-|-7-7--------------|
|-------------||----------------|------------------|


|-3-| |-3-|
E E E E E E E Q E E E E E E E Q
|-------5-7-5---5--|-------5-7-5---5---||
|-------------8----|-------------8----o||
|-9-9--------------|-9-9---------------||
|-9-9--------------|-9-9---------------||
|-7-7--------------|-7-7--------------o||
|------------------|-------------------||
|
| |-3-| |-3-|
| E E E E E E E Q E E E E E E E Q
|------------------|-------------------||
|-------7-8-7-5-7--|-------7-8-7-5-7--o||
|-9-9--------------|-9-9---------------||
|-9-9--------------|-9-9---------------||
|-7-7--------------|-7-7--------------o||
|------------------|-------------------||


Verse
Gtrs I, II
|-3-| |-3-| |-3-| |-3-|
E Q E E Q E Q E E E Q E E E Q E E E Q E E E
|---------------||--------------------|-------------------|
|---------------||o-------------------|-------------------|
|-5-5--5-7-7--7-||--9--x-x-x-9--x-x-x-|-5--x-x-x-7--x-x-x-|
|-5-5--5-7-7--7-||--9--x-x-x-9--x-x-x-|-5--x-x-x-7--x-x-x-|
|-3-3--3-5-5--5-||o-7--x-x-x-7--x-x-x-|-3--x-x-x-5--x-x-x-|
|---------------||--------------------|-------------------|


Chorus
|-3-| |-3-| |-3-| |-3-|
Q E E E Q E E E Q E E E Q E E E H. +E E +Q. Q. E E
|-------------------|--------------------||----------------|-----------------|
|-------------------|-------------------o||----------------|-----------------|
|-9--x-x-x-9--x-x-x-|--------------------||-9-------(9)-12-|-(12)---9----7-9-|
|-9--x-x-x-9--x-x-x-|-5--x-x-x-7--x-x-x--||-9-------(9)-12-|-(12)---9----7-9-|
|-7--x-x-x-7--x-x-x-|-5--x-x-x-7--x-x-x-o||-7-------(7)-10-|-(10)---7----5-7-|
|-------------------|-3--x-x-x-5--x-x-x--||----------------|-----------------|


|-3-| |-3-| |-3-|
+Q E E +Q E E E Q E E E Q E E E H. +E E +Q. Q. E E
|---------------------|-------------------|----------------|------------------|
|---------------------|-------------------|----------------|------------------|
|-(9)--x-9-(9)--x-x-x-|-5--x-x-x-7--x-x-x-|-9-------(9)-12-|-(12)---9----7-9--|
|-(9)--x-9-(9)--x-x-x-|-5--x-x-x-7--x-x-x-|-9-------(9)-12-|-(12)---9----7-9--|
|-(7)--x-7-(7)--x-x-x-|-3--x-x-x-5--x-x-x-|-7-------(7)-10-|-(10)---7----5-7--|
|---------------------|-------------------|----------------|------------------|


|-3-| |-3-| |-3-|
+Q E E +Q E E E Q E E E Q E E E
|---------------------|-------------------|
|---------------------|-------------------|
|-(9)--x-9-(9)--x-x-x-|-5--x-x-x-7--x-x-x-|
|-(9)--x-9-(9)--x-x-x-|-5--x-x-x-7--x-x-x-|
|-(7)--x-7-(7)--x-x-x-|-3--x-x-x-5--x-x-x-|
|---------------------|-------------------|


Outro
H. +E E +H. +E E
||-----------------|--------------------|
||o----------------|--------------------|
||--9-------(9)-12-|-(12)------(12)-14--|
||--9-------(9)-12-|-(12)------(12)-14--|
||o-7-------(7)-10-|-(10)------(10)-12--|
||-----------------|--------------------|

_____________________ __________
|1.,2.,3. ||4.
Gtr I
|-3-| |-3-| |-3-|
H. +E E Q E E E Q E E E Q E E E H
|-----------------|--------------------||---------------|
|-----------------|-------------------o||---------------|
|-14-------(14)-x-|-5--x-x-x-7--x-x-x--||-5--x-x-x-7----|
|-14-------(14)-x-|-5--x-x-x-7--x-x-x--||-5--x-x-x-7----|
|-12-------(12)-x-|-3--x-x-x-5--x-x-x-o||-3--x-x-x-5----|
|-----------------|--------------------||---------------|
|
| Gtr II
| |-3-| |-3-| |-3-|
| H. +E E Q E E E Q E E E Q E E E H
|-----------------|--------------------||---------------|
|---------------5-|-5-----------------o||-5--x-x-x-7----|
|-14-------(14)-5-|-5--x-x-x-7--x-x-x--||-5--x-x-x-7----|
|-14-------(14)-5-|-5--x-x-x-7--x-x-x--||-5--x-x-x-7----|
|-12-------(12)-3-|-3--x-x-x-5--x-x-x-o||-3--x-x-x-5----|
|-----------------|--------------------||---------------|


|-3--| |-3--| |-3-| |-3-| |-3-| |-3-| |-3-| |-3-| |-3--| |--3--|
E E E E E E E E E E E E E E E E E E E E E E E E Q Q Q Q Q Q
|-9-7----7-------------------|-------------------------|-12-12---14-14----*|
|-----10---10-8-10-8-7-8-7---|-7-----------------------|------------------*|
|--------------------------9-|---9-7-9-7-6-7-6---6-----|------------------*|
|----------------------------|-----------------9---9-7-|------------------*|
|----------------------------|-------------------------|------------------*|
|----------------------------|-------------------------|------------------*|
|
| |-3--| |-3--| |-3-| |-3-| |-3-| |-3-| |-3-| |-3-| |-3--| |--3--|
| E E E E E E E E E E E E E E E E E E E E E E E E Q Q Q Q Q Q
|-5--------------------------|-------------------------|--8--8----7--7\---*|
|---8--7-8--7-5--7-5---5-----|-------------------------|------------------*|
|--------------------7---7-6-|-7-6-4-6-4---4-----------|------------------*|
|----------------------------|-----------7---7-5-7-5-4-|------------------*|
|----------------------------|-------------------------|------------------*|
|----------------------------|-------------------------|------------------*|
Song info
Running Free
Iron Maiden
2001
  • Rock
  • Heavy Metal
Alternative tracks
Similar songs
Bomber - Motörhead
In Your Face - Children of Bodom
Gets Me Through - Ozzy Osbourne
Lifer - Down

Hi! Hope you enjoy backing track experience.
If you want to help us in the development of the project, feel free to donate!