The Clairvoyant - Iron Maiden
00:00 / 00:00
Tabs and lyrics
Tunning: Standard (E A D G B e)
tuning :Normal
ARTIST :Iron Maiden
SONG :The Clairvoyant
ALBMN :Seventh Son of a Seventh Son
TRANSCRIBED BY Mark Graham

[Intro]
G|-----------------------------------------------------------------------|
D|------7-----7----------5-----5------4----------------------------------|Steve
A|--5-5---5-5---5-5--5-5---5-5---5-5----5-5-5--5-5-5-5--5-5-5-5--5-5-5-5-|Harris
E|-----------------------------------------------------------------------|

[Riff 1]
e|------------------------------------------|
B|------------------------------------------|
G|---Damped---------------------------------|
D|------------------------------------------|Smith
A|----5-5-5-5--5-5-5-5----------------------|
E|------------------------------------------|

[Riff 1]
e|--------------------------------------------------------------|
B|--------------------------------------------------------------|
G|--------------------------------------------------------------|
D|7--5--7---7/9--7--5-----7---------7--5--7---7/9--7--5-----7---|Murray
A|-----------------------------5--------------------------------|
E|--------------------------------------------------------------|

[Riff 2]
e|----------------------------------------------|---------------------------------------------|
B|----------------------------------------------|---------------------------------------------|
G|----------------5-5-5-------------------5-5-5-|--------------------7-7-7--------------------|Smith
D|5-5-5-5p4----5--5-5-5--5-5-5-5p4-----5--5-5-5-|-5-5-5-5p4-7-5-4----7-7-7--5-5-5-5p4-7-5-4---|
A|----------7-----3-3-3-------------7-----3-3-3-|------------------5-5-5-5------------------5-|
E|----------------------------------------------|---------------------------------------------|

[Riff 2]
e|-----------------------------------------------------------------------------|
B|-----------------------------------------------------------------------------|
G|-----------------------------------------------------------------------------|
D|5-5-5-5p4---5~~-5-5-5-5p4----5~~-5-5-5-5p4-7--5-4-----5-5-5-5p4-7--5-4-------|Murray
A|----------7----------------7-----------------------5--------------------5~~--|
E|-----------------------------------------------------------------------------|

[Riff 3]
e|---------------------------------------------------------------------|
B|------------------------------------------------------------------15-|
G|-14--12--14-14/16--14--12--14-------14--12--14-14/16--14--12--14-----|
D|-------------------------------12------------------------------------|
A|---------------------------------------------------------------------|
E|---------------------------------------------------------------------|

[Riff 3]
e|--------------------------------------------------------------------|
B|--------------------------------------------------------------------|
G|--------------------------------------------------------------------|Smith
D|-7------7-----7----5-----5---------4-----4-----4--------------------|
A|---5-5----5-5---5----5-5---5-5-5-5---5-5-5-5-5-5-5-5-5-5-5----------|
E|--------------------------------------------------------------------|

[Riff 4]
e|---------------------------------------------------------------------------------------------------|
B|---------------------------------------------------------------------------------------------------|
G|12-12-12-12p11----12~~12-12-12-12p11----12~~12-12-12-12p11-14-12-11-----12-12-12-12p11-14-12-11----|
D|---------------14--------------------14-----------------------------12--------------------------12-|
A|---------------------------------------------------------------------------------------------------|
E|---------------------------------------------------------------------------------------------------|

[Riff 5]
Feel the sweat break on my brow
I wonder why I wonder how
Just by looking through
e|-----------------------------------------|
B|-----------------------------------------|
G|-----------------------------------------|
D|--7------5---------3-----5---------------|Murray
A|--5------3----5----1-----3---------------|
E|--------------3--------------------------|

[Riff 5]
Feel the sweat break on my brow
I wonder why I wonder how
Just by looking through
e|--------5-----------3--------------------1----------3------|
B|----6-----------3---------------3--------------------------|
G|-/7---6-------5---5---------3--------3-3---3----5-5---5----|Smith
D|--------------------------5---5----------------------------|
A|-let ring--------------------------------------------------|
E|-----------------------------------------------------------|

[Riff 6a]
eyes!!!!!
e|-----------------------------------------------------------------------|
B|-----------------10--11------------------------------------10--11------|
G|--10--9--10--12----------9------9--10--9-----10--9--10-12-----------9--|Murray
D|----------------------------12------------12---------------------------|
A|-----------------------------------------------------------------------|
E|-----------------------------------------------------------------------|

[Riff 6a]
eyes!!!!
e|-----------------8--10-------------------------------------8--10-------|
B|--10--8--10--11---------8~-----8--10--8-----10--8--10-11-----------8---|
G|---------------------------10-----------10-----------------------------|Smith
D|-----------------------------------------------------------------------|
A|-----------------------------------------------------------------------|
E|-----------------------------------------------------------------------|

[Riff 6b]
Anymore!!!!!
Demise
e|-----------------------------------------------------------------------|
B|-----------------10--11------------------------------------10--11------|
G|--10--9--10--12----------9------9--10--9-----10--9--10-12----------9---|Murray
D|----------------------------12------------12---------------------------|
A|-----------------------------------------------------------------------|
E|-----------------------------------------------------------------------|

e|-----------------------------------------------------------------------|
B|------------------8--9--------------------------------------8--9-------|
G|---8--7--8---10----------7------7--8--7-------8--7---8-10---------7----|Murray
D|----------------------------10------------10---------------------------|
A|-----------------------------------------------------------------------|
E|-----------------------------------------------------------------------|

[Riff 6b] cont
e|-----------------8--10-------------------------------------8--10-------|
B|--10--8--10--11---------8~-----8--10--8-----10--8--10-11-----------8---|
G|---------------------------10-----------10-----------------------------|Smith
D|-----------------------------------------------------------------------|
A|-----------------------------------------------------------------------|
E|-----------------------------------------------------------------------|

e|----------------6---8------------------------------------6--8----------|
B|---8--6--8---9----------6-----6--8--6------8--6--8--9----------6-------|
G|---------------------------8-----------8-------------------------------|Smith
D|-----------------------------------------------------------------------|
A|-----------------------------------------------------------------------|
E|-----------------------------------------------------------------------|

[Riff 7] [Chorus]
Theres live time to die time meet the mak er
e|----------------------------------------------------------------------|-----------------|
B|-----------Listen for strum-------------------------------------------|-----------------|
G|----------------------------------------------------------------------|--5-5--4-0---5---|Murray
D|---7---8-----------5----------7-----------7-----8------5-----5--7-7---|-----------------|
A|---5---5-----------3----------5-----------5-----5------3-----3--5-5---|-----------------|
E|----------------------------------------------------------------------|-----------------|

[Riff 7] [Chorus] *note: play as Dave Murray 1st time then below
let ring
e|----13-------13-------15--------------13-------13------------------|----------------|
B|-----------------------------15~~--------------------13-15--15-----|----------------|
G|-14----14-15----16-17----17--------14----14-15----15----14--14-----|-17-16----17~~--|Smith
D|-------------------------------------------------------------------|-------17-------|
A|-------------------------------------------------------------------|----------------|
E|-------------------------------------------------------------------|----------------|

[Solo]
b b
e|--19--19-19--17-16h17p16----16--b--------------------------------------------|
B|-------------------------19----19-19-17--------------------------------------|
G|-----------------------------------------20--18--16--------------------------|
D|------------------------------------------------------19-18p19---18----------|
A|-----------------------------------------------------------------------------|
E|-----------------------------------------------------------------------------|

e|-------------------------------------------------------------------------------------|
B|---------------------------16h17p16--------------------------------------------------|
G|------14p13----13-14-16-18----------18-16-13-16-14p13--------------------------------|
D|14-16-------16-----------------------------------------16-14-13----------------------|
A|----------------------------------------------------------------16-14-12-11-12--11~--|
E|-------------------------------------------------------------------------------------|

e|---------------------------------------------------------------------16---b----|
B|------------------------------------------------------------16-17-19-----19----|
G|-/18-16-18-16h18p16\---------------------------------16-18---------------------|
D|---------------------/19-18-19--18h19p18----16-18-19---------------------------|
A|-------------------------------------------------------------------------------|
E|-------------------------------------------------------------------------------|

b
e|-b----------------------------16h17p16----16-17-19-19-17-16h17p16-|
B|19-19-17-16h17p16----16h17h19----------19-------------------------|
G|------------------18----------------------------------------------|
D|------------------------------------------------------------------|
A|------------------------------------------------------------------|
E|------------------------------------------------------------------|

*Delay Effect on last few notes
e|---b----------------------------------------------------------------|
B|--20-20-17-20---17----b--------------------b---------*----*---------|
G|--------------19-----19-19-16--19----16---14-14-12--14---12---*-----|
D|----------------------------------19-------------------------14-----|
A|--------------------------------------------------------------------|
E|--------------------------------------------------------------------|

b
e|--17-16h17p16-----------16-17p--16h17p16---------------16---19-19--16h17p16----|
B|--------------17-----17------------------17--------17--------------------------|
G|------------------16---------------------------16------------------------------|
D|-------------------------------------------------------------------------------|
A|-------------------------------------------------------------------------------|
E|-------------------------------------------------------------------------------|

[Rythm for solo]
e|--------------------------------------------------------------------|
B|--------------------------------------------------------------------|
G|--------------------------------------------------------------------|Smith
D|-9------9-----9----7-----7---------6-----6-----6--------------------|
A|---7-7----7-7---7----7-7---7-7-7-7---7-7-7-7-7-7-7-7-7-7-7----------|
E|--------------------------------------------------------------------|

e|---------------------------------------------|--------------------------------------------|
B|----------------7-7-7------------------7-7-7-|----------------9-9-9-----------------9-9-9-|
G|----------------7-7-7------------------7-7-7-|----------------9-9-9-----------------9-9-9-|Smith
D|-7-7-7-7-6---7--7-7-7--7-7-7-7-6----7--7-7-7-|-7-7-7-7-6---9--9-9-9--7-7-7-7-6---9--9-9-9-|
A|-----------7-5--5-5-5------------7--5--5-5-5-|-----------7-7--7-7-7------------7-7--7-7-7-|
E|---------------------------------------------|--------------------------------------------|

[Riff 8] [Chorus]
Theres live time to die time meet the mak er
e|----------------------------------------------------------------------|-----------------|
B|-----------Listen for strum-------------------------------------------|-----------------|
G|----------------------------------------------------------------------|--3-3--2----3----|Murray
D|---5---6-----------3----------5-----------5-----6------3-----3--5-5---|---------3-------|
A|---3---3-----------1----------3-----------3-----3------1-----1--3-3---|-----------------|
E|----------------------------------------------------------------------|-----------------|

[Riff 8] [Chorus]
let ring
e|----11-------11-------13--------------11-------11----------------|-------------------|
B|-----------------------------13~~------------------11-11--13-----|-------------------|
G|-12----12-13----14-15----15--------12----12-13--------10--12-----|-15-15-14----15~~--|Smith
D|-----------------------------------------------------------------|----------15-------|
A|-----------------------------------------------------------------|-------------------|
E|-----------------------------------------------------------------|-------------------|


************************************

| / Slide up
| p Pull-off
| ~ Vibrato
| h Hammer-on
| b Bend
| \ Slide down
| * Natural harmonic

************************************
Tunning: Standard (E A D G B e)
#----------------------------------PLEASE NOTE---------------------------------#
#This file is the author's own work and represents their interpretation of the #
#song. You may only use this file for private study, scholarship, or research. #
#------------------------------------------------------------------------------##
Received: from kubds1.kub.nl (kubds1.kub.nl [137.56.0.60]) by post-office.nevada.edu (8.6.4/8.6.4) with SMTP id JAA19443 for ; Fri, 25 Mar 1994 09:54:23 -0800
Received: from charon-6.kub.nl by kubds1.kub.nl with SMTP id AA00649
(5.65c+/IDA-1.4.4 for ); Fri, 25 Mar 1994 18:54:15 +0100
Received: From DRC_1/CH6-OUT by charon-6.kub.nl
via Charon-4.0A-VROOM with IPX id 100.940325185351.320;
25 Mar 94 18:54:12 -0100
Message-Id:
To: jamesb@nevada.edu
From: "Constantijn Enders"
Date: 25 Mar 94 18:53:47 MET
Subject: Clairvoyant.Tab
X-Pmrqc: 1
Priority: normal
X-Mailer: Pegasus Mail v2.3 (R4).

THE CLAIRVOYANT - IRON MAIDEN


BASS [solo intro]
G------------------|-----------------|------------------|------------------
D------7-----7-----|-----5-----5-----|-4----------------|------------------
A--5-5---5-5---5-5-|-5-5---5-5---5-5-|---5-5-5--5-5-5-5-|-5-5-5-5--5-5-5-5-
E------------------|-----------------|------------------|------------------

Guitar 1 [damped] [% = repeat last measure]
E-------------------|---------|---------|---------|
B-------------------|---------|---------|---------|
G-------------------|---*-/---|---*-/---|---*-/---|
D-------------------|----/----|----/----|----/----|
A--5-5-5-5--5-5-5-5-|---/-*---|---/-*---|---/-*---|
E-------------------|---------|---------|---------|

D!
E------------------|-----------------|------------------|------------------
B------------------|-----------------|------------------|------------------
G------------------|-----------------|------------------|------------------
D--7--5----7-------|-7/9--7--5-------|--7---------------|------------------
A------------------|-----------------|-----5------------|------------------
E------------------|-----------------|------------------|------------------

D!
E------------------|-----------------|------------------|------------------
B------------------|-----------------|------------------|------------------
G------------------|-----------------|------------------|------------------
D--7--5----7-------|-7/9--7--5-------|--7--7------------|---5-5-5-5p4---5--
A------------------|-----------------|------------------|-------------7----
E------------------|-----------------|------------------|------------------

[riff 1]
C!
E------------------|-----------------|------------------|------------------
B------------------|-----------------|------------------|------------------
G------------------|-----------------|------------------|------------------
D------------------|-5-5-5-5p4---5---|------------------|---5-5-5-5p4-7-5--
A------------------|-----------7-----|------------------|------------------
E------------------|-----------------|------------------|------------------

D!
E------------------|-----------------|------------------|------------------
B------------------|-----------------|------------------|------------------
G------------------|-----------------|------------------|------------------
D--4---------------|-5-5-5-5p4-7-5---|--4---------------|------------------
A----5-------------|-----------------|-----5------------|------------------
E------------------|-----------------|------------------|------------------

[end riff 1]
D!
E------------------|-----------------|------------------|------------------
B------------------|-----------------|------------------|------------------
G--14--12--14------|-14/16---14--12--|--14--------------|------------------
D------------------|-----------------|-------12---------|------------------
A------------------|-----------------|------------------|------------------
E------------------|-----------------|------------------|------------------

D!
E------------------|-----------------|------------------|------------------
B------------------|-----------------|-------15---------|------------------
G--14--12--14------|-14/16--14--12---|--14--------------|------------------
D------------------|-----------------|------------------|--5-5-5-5p4---5---
A------------------|-----------------|------------------|------------7-----
E------------------|-----------------|------------------|------------------

[play riff 1]
[to D minor]

[riff 2]
D! Cadd9!
E------------------|--5--------------|------------------|--3---------------
B-----6------------|-----------------|-----3------------|------------------
G--7-----6---------|-----------------|--5-----5---------|------------------
D------------------|-----------------|------------------|------------------
A------------------|-----------------|------------------|------------------
E------------------|-----------------|------------------|------------------

Gm add9 Bb! C!
E------------------|-----------------|------------------|------------------
B------------------|---3-------------|------------------|------------------
G-----3------------|-----------------|--------3---------|--------5---------
D--5-----5---------|-----------------|-----3------------|-----5------------
A------------------|-----------------|--1---------------|--3---------------
E------------------|-----------------|------------------|------------------

[play riff 2]
Dm / / / / / / / Cadd9! / / / / / /
Feel the sweat break on my brow
Gmadd9!/ / / / / / / Bb! / / / C! / / /
Is it me or is it shadows that are dancing on the walls ?

Dm / / / / / / / Cadd9! / / / / / /
Is it a dream or is it now
Gmadd9!/ / / / / / / Bb! / / / C! / / /
Is this a vision or nor-mali- ty I see be- fore my

Eyes.
[riff 3]
Dm/A Gm/Bb C/D (bass G) Dm/A
E------------------|-----8------10---|------------------|------------------
B--10--8------10---|-11--------------|--8-----------8---|-10--8------------
G------------------|-----------------|-----10-----------|-------------10---
D------------------|-----------------|------------------|------------------
A------------------|-----------------|------------------|------------------
E------------------|-----------------|------------------|------------------

Dm/A Gm/Bb C/D (bass plays G)
E------------------|-----8------10---|--3---------------|------------------
B--10--8------10---|-11--------------|--5---------------|------------------
G------------------|-----------------|--5---------------|------------------
D------------------|-----------------|--0---------------|------------------
A------------------|-----------------|------------------|------------------
E------------------|-----------------|------------------|------------------

[repeat riff 2]
Dm Cadd9!
I wonder why I wonder how,
Gm add9 Bb! C!
that it seems that the power is getting stronger ev'ry day

Dm Cadd9!
I feel a strength an inner fire,
Gm add9 Bb! C!
but I am scared I wont be able to con- trol it anymore

[repeat riff 3]
[riff 4]
Cm/G Fm/Ab Bb/C (bass F) Cm/G
E------------------|-----------------|------------------|------------------
B------------------|------11-----13--|------------------|------------------
G--12---10-----12--|-13--------------|-10-----------10--|--12--10----------
D------------------|-----------------|------13----------|--------------13--
A------------------|-----------------|------------------|------------------
E------------------|-----------------|------------------|------------------

Cm/G Fm/Ab Bb/C (bass F) [slower]
E------------------|-----------------|------------------|------------------
B------------------|------11-----13--|------------------|------------------
G--12---10-----12--|-13--------------|-10---------------|--\---------------
D------------------|-----------------|------------------|------------------
A------------------|-----------------|------------------|------------------
E------------------|-----------------|------------------|------------------
There's a
D! D!+5 C!/D D! D! D!+5 C! D!
time to live and a time to die when it's time to meet the ma-ker. There's a
D! D!+5 C!/D D! D! D!+5 C! D!
time to live but isn't it strange that as soon as you're born you're dying.

[repeat "there's a..." but play the last measure the next riff]

D! D!+5 C! No chord [faster]
E------------------|-----------------|------------------|------------------
B------------------|-----------------|------------------|------------------
G--------------5-5-|-----4--0--5-----|------------------|------------------
D------------------|-----------------|------------------|------------------
A------------------|-----------------|------------------|------------------
E------------------|-----------------|------------------|------------------

[to E major]
[solo]

E! ________
E--19^21-------19^21-21-21v19-|--17-16h17p16----16-----------------|
B-----------------------------|--------------19----19^21-----------|
G-----------------------------|------------------------------------|
D-----------------------------|------------------------------------|
A-----------------------------|------------------------------------|
E-----------------------------|------------------------------------|

E!
E-----------------------------|------------------------------------|
B--19-17----------------------|------------------------------------|
G--------20-18--16------------|------------------------------------|
D------------------19-18p19---|--18~~~~~~~~~-------------------14h-|
A-----------------------------|------------------------------------|
E-----------------------------|------------------------------------|

E! ___3___
E-----------------------------|------------------------------------|
B-----------------------------|--16h17p16--------------------------|
G-----14p13-----13-14-16/18---|-----------18-16\-13-16-14p13-------|
D--16-------16----------------|------------------------------------|
A-----------------------------|------------------------------------|
E-----------------------------|------------------------------------|

E!
E-----------------------------|------------------------------------|
B-----------------------------|------------------------------------|
G-----------------------------|------------------------------------|
D--16-14-13-------------------|------------------------------------|
A-----------16--14-12-11-12---|--11~~~~~~~-------------------------|
E-----------------------------|------------------------------------|

E!__3___
E-----------------------------|------------------------------------|
B-----------------------------|------------------------------------|
G-/18-16-18-----16h18p16\-----|------------------------------------|
D-----------------------------|-/19-18-19---18h19p18-----------16--|
A-----------------------------|------------------------------------|
E-----------------------------|------------------------------------|

E!
E------------------------16---|------------------------------------|
B---------------16-17-19------|--19^21~~~~~~~~~~-------------------|
G--------16-18----------------|------------------------------------|
D--18-19----------------------|------------------------------------|
A-----------------------------|------------------------------------|
E-----------------------------|------------------------------------|

E! ___
E-----------------------------------|--16h17p16----16-17-19-19^21--|
B--19^21v19-17-16h17p16----16h17h19-|-----------19-----------------|
G-----------------------18----------|------------------------------|
D-----------------------------------|------------------------------|
A-----------------------------------|------------------------------|
E-----------------------------------|------------------------------|

_________ [guitar 2 play riff 5]
E---------v19--------17-------|--16h17p16-------\------------------|
B-----------------------------|------------------------------------|
G-----------------------------|------------------------------------|
D-----------------------------|------------------------------------|
A-----------------------------|------------------------------------|
E-----------------------------|------------------------------------|

D!3
____3______ ____3____ ____3______ ____3____
E-----------------------------|------------------------------------|
B--20^22v20-17---20-----17----|------------------------------------|
G-------------------19--------|--19^21v19-16---19----16------------|
D-----------------------------|-------------------19---------------|
A-----------------------------|------------------------------------|
E-----------------------------|------------------------------------|
[guitar 1 let echo device repeat last 3 tones]

E-----------------------------|------------------------------------|
B-----------------------------|------------------------------------|
G--14^16v14-12---14----12-----|------------------------------------|
D-------------------14--------|-14---------------------------------|
A-----------------------------|------------------------------------|
E-----------------------------|------------------------------------|

E! _____3_____ ____3_____
E--17-16h17p16-----------16-17p-|-16h17p16---------------16--------|
B--------------17-----17--------|----------17--------17------------|
G------------------16-----------|----------------16----------------|
D-------------------------------|----------------------------------|
A-------------------------------|----------------------------------|
E-------------------------------|----------------------------------|

_________
E--19^21---------v19----17----|--16h17p16------\-------------------|
B-----------------------------|------------------------------------|
G-----------------------------|------------------------------------|
D-----------------------------|------------------------------------|
A-----------------------------|------------------------------------|
E-----------------------------|------------------------------------|
[end solo and end riff 5]

[riff 5 for guitar 2]
E! D!
E-----------------------------|------------------------------------|
B-----------------------------|------------------------------------|
G-----------------------------|------------------------------------|
D-----7-7-7---7-6-------------|------------------------------------|
A-----------------7-5---------|------------------------------------|
E-----------------------------|------------------------------------|

E-----------------------------|------------------------------------|
B-----------------------------|------------------------------------|
G-----------------------------|------------------------------------|
D-----7-7-7---7-6-------------|------------------------------------|
A-----------------7-5---------|------------------------------------|
E-----------------------------|------------------------------------|

D! E!
E-----------------------------|------------------------------------|
B-----------------------------|------------------------------------|
G-----------------------------|------------------------------------|
D-----7-7-7---7-6-------------|------------------------------------|
A-----------------7-7---------|------------------------------------|
E-----------------------------|------------------------------------|

E-----------------------------|------------------|-----------------|
B-----------------------------|------------------|-----------------|
G-----------------------------|------------------|-----------------|
D-----7-7-7---7-6-------------|------------------|-----------------|
A-----------------7-7---------|------------------|-----------------|
E-----------------------------|------------------|-----------------|
[end riff 5]

[repeat riff 2]
Dm Cadd9!
Just by looking through your eyes,
Gm add9 Bb! C!
He could see the future penetrating right in through your mind

Dm Cadd9!
See the truth and see your lies
Gm add9 Bb! C!
But for all his power couldn't forsee his own demise

[repeat riff 3]
[repeat riff 4]
There's a
D! D!+5 C!/D D! D! D!+5 C! D!
time to live and a time to die when it's time to meet the ma-ker. There's a
D! D!+5 C!/D D! D! D!+5 C! D!
time to live but isn't it strange that as soon as you're born you're dying.

[to C minor]
There's a
C! C!+5 Bb!/C C! C! C!+5 Bb! C!
time to live and a time to die when it's time to meet the ma-ker. There's a
C! C!+5 Bb!/C C! C!
time to live but isn't it strange that as soon as you're

born you're dying.
C! C!+5 Bb! No chord [faster]
E------------------|-----------------|
B------------------|-----------------|
G--------------3-3-|-----2-----3-----|
D------------------|--------3--------|
A------------------|-----------------|
E------------------|-----------------|

D!
E------------------|-----------------|------------------|------------------
B------------------|-----------------|------------------|------------------
G------------------|-----------------|------------------|------------------
D-/7--5----7-------|-7/9--7--5-------|-/7---------------|------------------
A------------------|-----------------|-----5~~~~~~~-----|------------------
E------------------|-----------------|------------------|------------------

D!
I feel re- born a- gain
E------------------|-----------------|------------------|
B------------------|-----------------|------------------|
G------------------|-----------------|------------------|
D--7--5----7-------|-7/9--7--5-------|--7--7------------|
A------------------|-----------------|------------------|
E------------------|-----------------|------------------|

C!
E-----------------------------|------------------------------------|
B-----------------------------|------------------------------------|
G-----------------------------|------------------------------------|
D---5-5-5-5p4---5-------------|------------------------------------|
A-------------7---------------|------------------------------------|
E-----------------------------|------------------------------------|

E-----------------------------|------------------------------------|
B-----------------------------|------------------------------------|
G-----------------------------|------------------------------------|
D---5-5-5-5p4---5-------------|------------------------------------|
A-------------7---------------|------------------------------------|
E-----------------------------|------------------------------------|

D!
E-----------------------------|------------------------------------|
B-----------------------------|------------------------------------|
G-----------------------------|------------------------------------|
D---5-5-5-5p4-7-5-------------|----4-------------------------------|
A-----------------------------|---------5--------------------------|
E-----------------------------|------------------------------------|

> > >
E-----------------------------|------------------------------------|
B-----------------------------|------------------------------------|
G-----------------------------|------------------------------------|
D---5-5-5-5---4---------------|---5-4----5-4-------5--4------------|
A-----------------5-----------|-------5-------5----------5---------|
E-----------------------------|------------------------------------|

> > > > > >
E-----------------------------|------------------------------------|
B-----------------------------|------------------------------------|
G-----------------------------|------------------------------------|
D------5-4-----5--4-----------|------------------------------------|
A---5------5---------5--------|---5----5----5----------------------|
E-----------------------------|------------------------------------|



CHORDS

D! C! Dm Cadd9! Gm add9 Bb! Dm/A Gm/Bb C/D Cm/G Fm/Ab Bb/C D!+5
E-------1----3-----5-----------1-----3----3----3----1----------------------
B-3-----3----3-----3-----------3-----3----5----4----1---3------3-----------
G-2--5--2----5-----3------3----2-----3----5----5----1---3------3-----------
D-0--5--0----5-----5------3----0-----0----0----5--------3------0-----------
A----3-------3------------1----0-----1------------------3------------------
E--------------------------------------------------------------------------

C!/D (D by Bass) D E! C!+5
E------------------2-------------------------------------------------------
B------------------3-------------------------------------------------------
G---5--------------2--9----5-----------------------------------------------
D---5-----------------9----6-----------------------------------------------
A---3-----------------7----3-----------------------------------------------
E---------------------0----------------------------------------------------


/ = slide up
\ = slide down
^ = bend up
v = release bend down
h = hammer on
p = pull off
~ = vibrate
_ = hold the bend
> = play this tone a little bit harder
_3_ = play as triplets
E! = E (no 3th)


Song taken from the album Seventh Son of a Seventh Son.
Tab arranged by Rick Cardinalli.
Tab taken from the song book published by WISE PUBLICATIONS
U.K. ISBN : 0.7119.1622.5





Greetings,
_____ _____
| | | _ |
| ---| | _|-|
|_____|* |_____|*

Let the beat control your body.
Song info
The Clairvoyant
Iron Maiden
2001
  • Rock
  • Heavy Metal
Alternative tracks
Similar songs
Seek destroy - Metallica
Waking the Demon - Bullet for My Valentine
Welcome - Slipknot
Welcome Home - King Diamond

Hi! Hope you enjoy backing track experience.
If you want to help us in the development of the project, feel free to donate!