La Flaca - Jarabe de Palo
00:00 / 00:00
Tabs and lyrics
Tunning: Standard (E A D G B e)
[Riff A]
Am E
e|---------|---------------------------------------|
B|---------|---------------------------------------|
G|---------|--*-*-----*-*-----------------7b8r7-5--|
D|---------|-(7-7)7-7(7-7)7-7--6-6-6-6-6--7b8r7-5--|
A|---------|-(7-7)7-7(7-7)7-7--7-7-7-7-7-----------|
E|--0-3-0--|--5-5-5-5-5-5-5-5--0-0-0-0-0-----------|





[Intro]

(clean tone)
Am E D
e|---------|-----------------------------------|-------------------------------|
B|---------|-----------------------------------|-----*-*-*-*-*-----------------|
G|---------|--*-*-----*-*------*-*-*-*----7-6--|--5-(5-5-5-5-5)5---5-4---------|
D|---------|-(7-7)7-7(7-7)7-7-(6-6-6-6)6--6-5--|--4-(4-4-4-4-4)4---3-2---------|
A|---------|-(7-7)7-7(7-7)7-7-(7-7-7-7)7--7-6--|--5--5-5-5-5-5-5-0(0)----------|
E|--0-3-0--|--5-5-5-5-5-5-5-5--0-0-0-0-0-------|------------------------0-3-0--|

Am E
e|---------------------------------------|
B|---------------------------------------|
G|--*-*-----*-*-----------------7b8r7-5--|
D|-(7-7)7-7(7-7)7-7--6-6-6-6-6--7b8r7-5--|
A|-(7-7)7-7(7-7)7-7--7-7-7-7-7-----------|
E|--5-5-5-5-5-5-5-5--0-0-0-0-0-----------|


[Verse]

Am E D# D C
En la vida conoci mujer igual a la flaca Coral negro de La
Habana
Ddim Am
tremend?sima mulata

E D# D
Cien libras de piel y hueso 40 kilos de salsa y en la cara los
F7
soles E7 F F# G Riff A
que sin palabras hablan. que sin palabras hablan.

Am E D# D
La flaca duerme de dia dice que as? el hambre enga?a cuando cae la
C Ddim Am
noche baja a bailar a la tasca
E D# D F7 E7
Y bailar y bailar y tomar y tomar una cerveza tras otra pero ella
nunca
F G Am D(2nd)
engorda, pero ella nunca engorda.


[Chorus]

F G Am D(2nd)
Por un beso de la flaca daria lo que fuera por un beso de ella aunque
F
s?lo uno fuera.
G Am D(2nd)
Por un beso de la flaca daria lo que fuera por un beso de ella aunque


solo uno fuera. F F# G

Riff A
Aunque solo uno fuera.


[Verse]

Am E D# D C

Coge mis sabanas blancas como dice la canci?n recordando las caricias
Ddim Lam
que me brindo el primer dia y

E D# D F7
Enloquezco de ganas de dormir a su ladito porque Dios que esta flaca
a
E7 F G
mi me tiene loquito.
Am D(2nd)
A mi me tiene loquito.

[Chorus]
F G Am D(2nd)
Por un beso de la flaca yo dar?a lo que fuera por un beso de ella
aunque
F
s?lo uno fuera.

G Am D(2nd)
Por un beso de la flaca yo dar?a lo que fuera por un beso de ella
aunque

F G
s?lo uno fuera.
Am Ebdim E7(2nd) F G
Aunque s?lo uno fuera. Aunque s?lo uno fuera.
Am Ebdim
Aunque s?lo uno fuera.
E7(2nd) F G Am Ebdim
Aunque s?lo uno fuera.
E7(2nd) F G Am Ebdim
Aunque s?lo uno fuera.
E7(2nd) F G Am Ebdim
Aunque s?lo uno fuera.
E7(2nd) F G Am Ebdim
Aunque s?lo uno fuera.
E7(2nd) F G Am Ebdim
Aunque s?lo uno fuera.
E7(2nd) F G Am Ebdim
Aunque s?lo uno fuera.
E7(2nd)
Aunque s?lo uno fuera.


[Outro]

Am Am9 Am Ebdim E7/9- (fading)




Chords


Am 577555
E x7645x
D# x6534x
D x5423x
D(2nd) x5777x
C x3555x
Ddim x5646x
F 133211
F# 244322
G 355433
F7 x3324x
E7 x2213x
E7(2nd) x767xx
Am9 575557
Ebdim x6757x
E7/9- x7676x


************************************

| (n) Ghost note
| r Release
| b Bend
| / Slide up
| * Palm mute

************************************
Tunning: Standard (E A D G B e)
Jarabe de Palo
La Flaca

tabbed and full credits to
Jose Luis Nieto

translated and posted here by
kikin


5h7 hammer on
7p5 pull off
5b7 bend up
7r5 liberar
(77) palm muted


Intro:
Am E
e:---------|-----------------------------------|
B:---------|-----------------------------------|
G:---------|------------------------------7-6--|
D:---------|-(7-7)7-7(7-7)7-7-(6-6-6-6)6--6-5--|
A:--2-2-2--|-(7-7)7-7(7-7)7-7-(7-7-7-7)7--7-6--|
E:--0-3-0--|--5-5-5-5-5-5-5-5--0-0-0-0-0-------|

D
|--------------------------------|
|--------------------------------|
|--5-(5-5-5-5-5)5---5-4----------|
|--4-(4-4-4-4-4)4---3-2----------|
|--5--5-5-5-5-5-5-0-—0--0-2-2-2--|
|-------------------------0-3-0--|

Am E
--------------------------------------|-10b12-10b12-|
--------------------------------------|-------------|
------------------------------7b8r7-5-|-------------|
-(7-7)7-7(7-7)7-7--6-6-6-6-6--7b8r7-5-|-------------|
-(7-7)7-7(7-7)7-7--7-7-7-7-7----------|-------------|
--5-5-5-5-5-5-5-5--0-0-0-0-0----------|-------------|


Verse 1:
Am E E D# D
En la vida conoci mujer igual a la flaca
C Ddim riff 1 Am
Coral negro de La Habana, tremendísima mulata
Riff 1:
|--------------|
|-8b10r8-6-5-5-|
|--------------|
|--------------|
|--------------|
|--------------|


E E D# D
Cien libras de piel y hueso 40 kilos de salsa
F7 E7 F riff2 F F# G
y en la cara dos soles que sin palabras Hablan,
Riff 3
que sin palabras hablan.

Riff 2:
|---------|
|-9b11~~~-|
|---------|
|---------|
|---------|
|---------|

Riff 3:

Gtr 2
|-------------------------------------------------|
|--6p5--------------------------------------------|
|------5-2~~-------------------------5----7----5\2|
|-------------------------------5-----------------|
|-------------------------------------------------|
|-------------------------------------------------|
|
|---------|---------------------------------------|
|---------|---------------------------------------|
|---------|------------------------------7b8r7-5--|
|---------|-(7-7)7-7(7-7)7-7--6-6-6-6-6--7b8r7-5--|
|--2-2-2--|-(7-7)7-7(7-7)7-7--7-7-7-7-7-----------|
|--0-3-0--|--5-5-5-5-5-5-5-5--0-0-0-0-0-----------|
Gtr 1




Verse 2:
Am E E D# D
La flaca duerme de dia dice que así el hambre engaña
C Ddim Am Riff 4
y cuando cae la noche baja a bailar a la tasca
Riff 4:
|-------------|
|-9b11-9b11~~-|
|-------------|
|-------------|
|-------------|
|-------------|


E E D# D
Bailar y bailar y tomar y tomar una cerveza tras otra
F7 E7 F Riff 5 G Am D
pero ella nunca engorda, pero ella nunca engorda.

Riff 5:
|-----9b11~-11r9------8-8----------------22b24~~~-|
|8-10-------------10------10----------------------|
|---------------------------10p8------------------|
|---------------------------------11--------------|
|-------------------------------------------------|
|-------------------------------------------------|
Chorus:
F G Am
Por un beso de la flaca daria lo que fuera
D F
por un beso de ella aunque sólo uno fuera.


G Am
Por un beso de la flaca daria lo que fuera
D F F# G
por un beso de ella aunque solo uno fuera.
Riff 6
Aunque solo uno fuera.
Riff 6:

Gtr 2
|-------------------------------------------------|
|------------------------------------7b9r7b8~~----|
|------------------------------------7b9r7b8~~----|
|-------------------------------------------------|
|-------------------------------------------------|
|-------------------------------------------------|
| |
|---------|---------------------------------------|
|---------|---------------------------------------|
|---------|------------------------------7b8r7-5--|
|---------|-(7-7)7-7(7-7)7-7--6-6-6-6-6--7b8r7-5--|
|--2-2-2--|-(7-7)7-7(7-7)7-7--7-7-7-7-7-----------|
|--0-3-0--|--5-5-5-5-5-5-5-5--0-0-0-0-0-----------|
Gtr 1


Verse 3(same as 2):

Moje mis sabanas blancas como dice la canción
recordando las caricias que me brindo el primer dia

Enloquezco de ganas de dormir a su ladito
porque Dios que esta flaca a mi me tiene loquitoRiff7
Riff 7:
|-----------------------------|
|-8p6-------------------------|
|-----8—-10p8-----8-----------|
|-------------10----10--10-8~-|
|-----------------------------|
|-----------------------------|

A mi me tiene loquito. Riff 8
Riff 8:
|---7-----8----8/10--8—5~-|
|-5----5-----5------------|
|-------------------------|
|-------------------------|
|-------------------------|
|-------------------------|

Chorus (again and then this):

Am Ebdim E7(2nd) F G
Aunque sólo uno fuera. Aunque sólo uno fuera.
Am Ebdim
Aunque sólo uno fuera.
E7(2nd) F G Am Ebdim
Aunque sólo uno fuera.
E7(2nd) F G Am Ebdim
Aunque sólo uno fuera.
E7(2nd) F G Am Ebdim
Aunque sólo uno fuera.
E7(2nd) F G Am Ebdim
Aunque sólo uno fuera.
E7(2nd) F G Am Ebdim
Aunque sólo uno fuera.
E7(2nd) F G Am Ebdim
Aunque sólo uno fuera.
E7(2nd)
Aunque sólo uno fuera.


Ends with: Am Am9 Am Ebdim E7/9- (fading)


xxxxxxxxxxxxxxxxxxxxxxxxxxxxxxxxxxxxxxxxxxxxxxxxxx
Am 577555
E x7645x ó x7677x
D# x6534x ó x6566x
D x5423x ó x5455x
D x5777x
C x3555x
Ddim x5646x
F 133211
F# 244322
G 355433
F7 x3324x
E7 x2213x
E7(2nd) x767xx
Am9 575557
Ebdim x6757x
E7/9- x7676x
Tunning: Standard (E A D G B e)
Jarabe de Palo - La flaca
Tablatura por Aldo Alain

|--------------------------------------------------------------------------|
|-----------------------------5------5\4-3------3--------3-----------------|
|-----------------------------7------7\6-5------5--------5-----5---4-------|
|-----------------------------6------6\5-4------4--------4-----3---2-------|
|------------7--------7---7-7-7--7-7-7\6-5--5-5-5--5-5-5-5-----------------|
|-0-3-0--5-5-5--5-5-5-5-0----------------------------------0-5---4---4-----|

|--------------------------------------------5----5-5----------------------|
|---------------------------5-5-5-5----------5-x--5-5-x-5--x--5--5-4-3--3--|
|---------------------------7-7-7-7--7br-5---5-x--5-5-x-7--x--7--7-6-5--5--|
|---------------------------6-6-6-6--7br-5---7-x------x-6--x--6--6-5-4--4--|
|------------7--------7---7-7-7-7-7----------7----------7--------7-6-5-----|
|-0-3-0--5-5-5--5-5-5-5-0------------------5-------------------------------|

|-------------------------0----5-x-7-5-------------------------------------|
|-x-3-3--x-5--5--x-6--6-6-0----5-x-5-5-x-5--x--5--5-4-3--3--x-3-3----------|
|-x-5-5--x-5--5--x-7--7-7-0----5-x-5-5-x-7--x--7--7-6-5--5--x-5-5--x-x-----|
|-x-4-4--x-5--5--x-6--6-6------7-------x-6--x--6--6-5-4--4--x-4-4--x-x-----|
|---5-5------------7----7------7---------7--------7-6-5-------5-5--x-x-----|
|----------------------------5---------------------------------------------|

|--------------------------------------------------------------------------|
|--------------------------------------------------------------5-5-5-5-----|
|--8--8-x-7--7-7--x-2-2-2-2-2-5-5-6\---------------------------7-7-7-7-7br5|
|-10-10-x-9--9-9--x-3-3-3-3-3-4-4-5\---------------------------6-6-6-6-7br5|
|--8--8-x-7--7-7--x-3-3-3-3-3-4-4-5\-----------7----------7-7--7-7-7-7-----|
|-------------------1-1-1-1-1-2-2-3\-0-3-0-5-5-5--5-5-5-5-5-5--------------|

|---5----5-5----------------------------------------------0----------------|
|---5-x--5-5-x-5--x--5--5-4-3--3--x-3-3--x-5--5--x-6--6-6-0----------------|
|---5-x--5-5-x-7--x--7--7-6-5--5--x-5-5--x-5--5--x-7--7-7-0----------------|
|---7-x------x-6--x--6--6-5-4--4--x-4-4--x-5--5--x-6--6-6------------------|
|---7----------7--------7-6-5-------5-5------------7----7------------------|
|-5------------------------------------------------------------------------|

|---5-x-7-5----------------------------------------------------------------|
|---5-x-5-5-x-5--x--5--5-4-3--3--x-3-3-------------------------------------|
|---5-x-5-5-x-7--x--7--7-6-5--5--x-5-5--x-x--8--8-x-7--7-7-x---------------|
|---7-------x-6--x--6--6-5-4--4--x-4-4--x-x-10-10-x-9--9-9-x---------------|
|---7---------7--------7-6-5-------5-5--x-x--8--8-x-7--7-7-x---------------|
|-5------------------------------------------------------------------------|

|--------------------------------------------------------------------------|
|---1-----1-----3-----3------5-x-5-5-x-7--7-x--7--7-7----------------------|
|---2-----2-x---4-----4-x-5--5-x-5-5-x-7--7-x--7--7-7-x--------------------|
|---3-----3-x---5-----5-x-7--7-x-7-7-x-7--7-x--7--7-7-x--------------------|
|---3-----3-x---5-----5-x-7--7---7-7---5--5----5--5-5-x--------------------|
|-1---0-1-----3---0-3-----5------------------------------------------------|

|--------------------------------------------------------------------------|
|---1-----1-----3-----3-------5-x-5-5-x-7--7-x--7--7-7---------------------|
|---2-----2-x---4-----4-x-----5-x-5-5-x-7--7-x--7--7-7-x-------------------|
|---3-----3-x---5-----5-x-----7-x-7-7-x-7--7-x--7--7-7-x-------------------|
|---3-----3-x---5-----5-x-----7---7-7---5--5----5--5-5-x-------------------|
|-1---0-1-----3---0-3-----3/5----------------------------------------------|

|--------------------------------------------------------------------------|
|---1-----1-----3-----3-------5-x-5-5-x-7--7-x--7--7-7----1--3--5\---------|
|---2-----2-x---4-----4-x-----5-x-5-5-x-7--7-x--7--7-7-x--2--4--6\---------|
|---3-----3-x---5-----5-x-----7-x-7-7-x-7--7-x--7--7-7-x--3--5--7\---------|
|---3-----3-x---5-----5-x-----7---7-7---5--5----5--5-5-x--3--5--7\---------|
|-1---0-1-----3---0-3-----3/5-----------------------------1--3--5\---------|

|--------------------------------------------------------------------------|
|---------------------------5-5-5-5----------------------------------------|
|---------------------------7-7-7-7--7br-5---------------------------------|
|---------------------------6-6-6-6--7br-5---------------------------------|
|------------7--------7---7-7-7-7-7----------------------------------------|
|-0-3-0--5-5-5--5-5-5-5-0--------------------------------------------------|

|---5----5-5----------------------------------------------0----------------|
|---5-x--5-5-x-5--x--5--5-4-3--3--x-3-3--x-5--5--x-6--6-6-0----------------|
|---5-x--5-5-x-7--x--7--7-6-5--5--x-5-5--x-5--5--x-7--7-7-0----------------|
|---7-x------x-6--x--6--6-5-4--4--x-4-4--x-5--5--x-6--6-6------------------|
|---7----------7--------7-6-5-------5-5------------7----7------------------|
|-5------------------------------------------------------------------------|

|---5-x-7-5----------------------------------------------------------------|
|---5-x-5-5-x-5--x--5--5-4-3--3--x-3-3-------------------------------------|
|---5-x-5-5-x-7--x--7--7-6-5--5--x-5-5--x-x--8--8-x-7--7-7-x---------------|
|---7-------x-6--x--6--6-5-4--4--x-4-4--x-x-10-10-x-9--9-9-x---------------|
|---7---------7--------7-6-5-------5-5--x-x--8--8-x-7--7-7-x---------------|
|-5------------------------------------------------------------------------|

|--------------------------------------------------------------------------|
|---1-----1-----3-----3------5-x-5-5-x-7--7-x--7--7-7----------------------|
|---2-----2-x---4-----4-x-5--5-x-5-5-x-7--7-x--7--7-7-x--------------------|
|---3-----3-x---5-----5-x-7--7-x-7-7-x-7--7-x--7--7-7-x--------------------|
|---3-----3-x---5-----5-x-7--7---7-7---5--5----5--5-5-x--------------------|
|-1---0-1-----3---0-3-----5------------------------------------------------|

|--------------------------------------------------------------------------|
|---1-----1-----3-----3-------5-x-5-5-x-7--7-x--7--7-7---------------------|
|---2-----2-x---4-----4-x-----5-x-5-5-x-7--7-x--7--7-7-x-------------------|
|---3-----3-x---5-----5-x-----7-x-7-7-x-7--7-x--7--7-7-x-------------------|
|---3-----3-x---5-----5-x-----7---7-7---5--5----5--5-5-x-------------------|
|-1---0-1-----3---0-3-----3/5----------------------------------------------|

|--------------------------------------------------------------------------|
|---1-----1-----3-----3-------5-x-5-5-x-7--7-x--7--7-7---------------------|
|---2-----2-x---4-----4-x-----5-x-5-5-x-7--7-x--7--7-7-x-------------------|
|---3-----3-x---5-----5-x-----7-x-7-7-x-7--7-x--7--7-7-x-------------------|
|---3-----3-x---5-----5-x-----7---7-7---5--5----5--5-5-x-------------------|
|-1---0-1-----3---0-3-----3/5----------------------------------------------|

x5 (Esto es durante el solo)
|-----------------------------------------------------0--------------------|
|---1-----1-----3-----3-------5-x-5-5-x-7--7-x-6--6-6-0--------------------|
|---2-----2-x---4-----4-x-----5-x-5-5-x-8--8-x-7--7-7-0--------------------|
|---3-----3-x---5-----5-x-----7-x-7-7-x-7--7-x-6--6-6----------------------|
|---3-----3-x---5-----5-x-----7---7-7---8--8---7--7------------------------|
|-1---0-1-----3---0-3-----3/5----------------------------------------------|

x10 (hasta finalizar)
|---5-x-7-5-----7-----7---0---5-x-7-5---7-----6---0------------------------|
|---5-x-5-5-x-7-7---9-9-x-0---5-x-5-5-7-7-x-6-6-x-0------------------------|
|---5-x-5-5-x-8-8-x-9-9-x-0---5-x-5-5-8-8-x-7-7-x-0------------------------|
|---7-------x-7-7-x-9---x-----7-------7-7-x-6-6-x--------------------------|
|---7---------8---x-7---------7-------8-----7------------------------------|
|-5-------------------------5----------------------------------------------|


(El solo que comienza en el minuto 2:30)
|-----------------8b-8--5----5h8p5------------------------8b-8-------------|
|-8p5----------------------8-----------5-8-----------5\-------------5------|
|-----7p5-7b-7r-5--------------------7-----7b-7p5----5\-----------7---7-5--|
|-------------------------------------------------7~-----------7-----------|
|--------------------------------------------------------------------------|
|--------------------------------------------------------------------------|

|------------------------------------------8--------5----5----5----5----5--|
|-8-5-----------------------------------10---10--8b---8b---8b---8b---8b---5|
|-----7p5---5----5-7b-7p5---5-7b-7~----------------------------------------|
|---------7---7-----------7------------------------------------------------|
|------------------------------------x\------------------------------------|
|------------------------------------x\------------------------------------|

|------------------------------------------4~----5-----5-----5-----5----5--|
|---------------------------------------5-------5-----5-----5-----5----5---|
|-8-8p7p5---7--5-7-7brp5---5----7p5---7--------5-----5-----5-----5----5----|
|---------7--------------7---7------7---------7-----7-----7-----7----7-----|
|--------------------------------------------------7-----7-----7----7------|
|--------------------------------------------------------------------------|

|-----5-----5----5----5----5-----5-x-x-5-x----x-x-x--5h7-x-8-5-/10/12------|
|----5-----5----5----5----5-----5--x-x-5-x-x--x-x-x--x---x-----------------|
|---5-----5----5----5----5-----5---x-x---x-x--x-x-x------------------------|
|--7-----7----7----7----7-----7------------7-------------------------------|
|-7-----7----7----7----7-----7---------------------------------------------|
|--------------------------------------------------------------------------|

|--------------------------------------------------------------------------|
|-10-12-10-13-10--/10-10-5--5-----------------------------8----------------|
|-----------------------------8-7p5---7---5-7b-7b~-7rp5-----7b-7brp5-----5-|
|-----------------------------------7---7---------------7-------------7---7|
|--------------------------------------------------------------------------|
|--------------------------------------------------------------------------|

|----------------17\--10-12-10-------------------------------17----19\-----|
|---------15br13---------------13-15p13-15b~--------------17----17---------|
|---------------------------------------------------14-17------------------|
|--------------------------------------------------------------------------|
|-x\-x-x-------------------------------------------------------------------|
|-x\-x-x-------------------------------------------------------------------|

|----------------------------17--------------------------------------------|
|----17-16h17p16-15-17-15-17-------17----13------12~-----------------------|
|-17---------------------------------------------------5-7-7b-7rp5---------|
|-------------------------------15----12----12-9-------------------7-------|
|--------------------------------------------------------------------------|
|--------------------------------------------------------------------------|

|----------------5-8-7-5-----5---------5-----------------------------------|
|---8----------5---------x-5---8b~---8-5-6-6p5----------------6p5----------|
|-5---7b-7rp5------------------------------5---7~-------4-5-7-----7-5------|
|---------------------------------------------------6-7----------------6/7-|
|--------------------------------------------------7-----------------------|
|--------------------------------------------------------------------------|

|--------------------------------------------------------------------------|
|------------------------------------------10-13b-13rp10--12/13-10-10~-----|
|-7p5--7p5-8p7p5---7p5----7p5--------7/11----------------------------------|
|----------------7-----7------x-6/7----------------------------------------|
|--------------------------------------------------------------------------|
|--------------------------------------------------------------------------|

|---------------------/12\-------------------------------------------------|
|-20b~~~~-------------------8p5---5----------------------------------------|
|------------7b~~~r-------------7---5----8p7p5----7-7brp5----7-7p5----7p5--|
|-------------------------------------7--------7----------7--------7------7|
|--------------------------------------------------------------------------|
|--------------------------------------------------------------------------|

|--------------------------------------------------------------------------|
|----------------8-7-6-5--6p5---------------------------------------8------|
|-----5/12--------------------7----5------5-6/7p5---7brp5---7-5-------7b---|
|-7-----------------------------7----7--7-----------------7------6---------|
|--------------------------------------------------------------------------|
|--------------------------------------------------------------------------|

|--------------------------------------------------------------------------|
|--5----8----5----x-x-/10~~------------------------------------------------|
|----7b---7b---7b----------------------------------------------------------|
|--------------------------------------------------------------------------|
|--------------------------------------------------------------------------|
|--------------------------------------------------------------------------|
Song info
La Flaca
Jarabe de Palo
2001
  • Latin
  • Rock
  • Instrumental
  • Pop Rock
Alternative tracks
Similar songs
Penetration - The Ventures
Venus - Shocking Blue
Allumer Le Feu - Johnny Hallyday

Hi! Hope you enjoy backing track experience.
If you want to help us in the development of the project, feel free to donate!