Fire - Jimi Hendrix
00:00 / 00:00
Tabs and lyrics
Tunning: Standard (E A D G B e)
FIRE – Jimi Hendrix

Tabbed by: Evan Carmouche
Email: voodoochild1717@hotmail.com

This is a very simplified version of Hendrix’s fire
for beginners/intermediates who know good music. :P

[Intro/Verse]
e|--------X--------------------------I-----------------------12^----------|
B|--------X--------------------------I-----------------------12^----------|
G|--13-12-X-10-12--------------------I-----------------------12^----------|
D|--X--X--X-X--X--12-12—(repeat 2x)--I------10-12-12-(6x)-----------------|
A|--11-10-X-8--10--X--X--------------I---12-------12----------------------|
E|--------X-------10-10--------------I------------10----------------------|

[Chorus]
(You can drop the bottom note if its too hard to finger)
e|---10-10-12-10-8----------------------------|
B|---10-10-10-10-8—(6x)-----------------------|
G|---11-11-11-11-9---------(repeat this 4x)---|
D|---12-12-12-12-10---------------------------|
A|--------------------------------------------|
E|--------------------------------------------|

[Bridge/Solo]
e|--------------------10^----10^----12^----10^--------------|
B|------------------------8------8------10-----8------------|
G|----------------------------------------------------------|
D|--12--10--7--10-------------------------------------------|
A|--12--10--7--10-------------------------------------------|
E|--10--8---5--8--------------------------------------------|

[ORDER]
[Intro/Verse]
[Chorus]
[Verse]
[Chorus]
[Bridge]
[Solo]
[Intro]
[Verse]
[Chorus]
[Chorus] (Play 2 Frets higher)
[Chorus]
[Intro]
[Verse] x1
Tunning: Standard (E A D G B e)
FIRE
Words and Music by Jimi Hendrix

Fast rock, tempo = 168
Intro
N.C.
e---------------------------------------------------------------------------
B---------------------------------------------------------------------------
G--13-12\-10s12---------13-12s19--10s12-------------------------------------
D---------------12-12\------------------12-12\-----10-12----12--------------
A--11-10\--8s10---------11-10/-----8s10---------12--------------------------
E---------------10-10\------------------10-10\------------------------------

1st verse You don't care for me, I don't care about that
e---------------------------------------------------------------------------
B---------------------------------------------------------------------------
G---------------------------------------------------------------------------
D---------------------------------------------------------------------------
A-------3--5--5---------3--5--5---------------------------------------------
E----5---------------5------------------------------------------------------

Ya' got a new fool, I like it like that I have only one
e---------------------------------------------------------------------------
B---------------------------------------------------------------------------
G---------------------------------------------------------------------------
D---------------------------------------------------------------------------
A-------3--5--5--------------------------------------3--5--5----------------
E----5--------------------------------------------5-------------------------

a burnin' desire Let me stand next to your pyre!
e---------------------------------------------------------------------------
B---------------------------------------------------------------10v---------
G-----------------------------------------------------------12bh-------(12)-
D---------------------------------------------------------------------------
A-----------------------3--5--5---------------------------------------------
E--------------------5------------------------------------------------------

Chorus Let me stand next to your fire! etc.--> see lyrics at end file
D(add9) C(add9) D C(add9)/A
e-----10--12--10--10--10\----------------------10--10--10--10--10-----------
B-----10--10--10---8---8\----------------------10--10--10---8---8-8---12-12-
G-----11--11--11---9---9\----10-12s10----------11--11--11---9---9-9---12-12s
D-----12------12--10------------------12----12-----12------10------/12------
A------------------------/12------------------------------------------------
E-10-------------------------------------10---------------------------------
T T

D C(add9)/A D(add9) C(add9)/A
e-------------10-10-10-10-10---10------10----------10----12----10-----------
B-------------10-10-10-10--8---8---/12-------------10-10-10-10--8-8\--------
Gs10----------11-------11--9-9----9-------12-------11-11-11-11--9-9\--------
D----12-------12----------10--------------------------12----12--------------
A--------------------------------------------------------------------10s12--
E-------10-10--------------------------------10-10--------------------------
T T
2nd Verse
D N.C.
e--------------10-----------------------------------------------------------
B--------------10-----------------------------------------------------------
G--10-12s10----11-----------------------------------------------------------
D--10-12s10-12-12--------10-12-10s12-------10-12--10s12------10-12-12-------
A-----------12-12----/12----------------12----------------12----------------
E--------------10-----------------------------------------------------------


e-------------------------------------------10v-----------------------------
B---------------------------------------12b---------------------------------
G---------------------------------------------------------------------------
D-----10-12-10s12-------10-12-12--------------------------------------------
A--12----------------12-----------------------------------------------------
E---------------------------------------------------------------------------

Chorus
D C(add9) C(add9)
e---10-10----10-10-10--------------------------------------10---------------
B---10-10----10--8--8-8-8--------------------10----10-------8--8\-----10-12-
G---11----11-11--9----9------10-12s10--------11-11-11--11---9--9\-----10-12s
D---12----12----10--------------------12-----12-12-12--12--10-10\--/12------
A------------------------/12------------------------------------------------
E-10------------------------------------10-10-------------------------------
T T

D C(add9) D C(add9)
e-------------10----------10---10-----10-12s10-----10-------------10--------
B-------------10-10-10-10--8---8---/12-------------10-10-10-10-----8--------
Gs10----------11----11-11--9------9-----------12---11-11-11-11-11--9--------
D----12-------12----12----10-----------------------12-12-12-12-12-10--------
A---------------------------------------------------------------------------
E--------10-------------------------------------10--------------------------
T T
Bridge
C D C(add9) A A5 C5
e-----------------------------10-------------------5------------------------
B-----------10-----------------8--------5----------5--5---------------------
G---9s11----11-----------------9--------6----------6--6---------------------
D--10s12----12--------(12)\10-10--------7-------------7---------------------
A---------------------------------------7-------------7------7s10-----------
E------------------------------8--------5--------------------5s8-------8\---
(fuzz on) T Let ring

Guitar Solo:
N.C. (E)
e-----12v-----12---------------------------12v-----12-----------------------
B--15b----15hb--(15cb)-(15)------------15b-----15b----15--12-------12--15bv-
G---------------------------12-(12v)---------------------------14b----------
D---------------------------------------------------------------------------
A---------------------------------------------------------------------------
E---------------------------------------------------------------------------

e------12-----12-----15------15-------------12-----12-----------------------
B--15b----15hb--15cb----15cb----15hb(15)-15b---15hb--(15)s12-----12---------
G------------------------------------------------------------14b---12v-(12)\
D---------------------------------------------------------------------------
A---------------------------------------------------------------------------
E---------------------------------------------------------------------------

N.C. That's what I'm talking about!
e---------------------------------------------------------------------------
B---------------------------------------------------------------------------
G--13-12\---10s12-------------------13----------12\----10s12----------------
D------------------12-12--------------------------------------12-12\------10
A--11-10\----8s10-------------------11----------10\-----8s10-----------12---
E------------------10-10--------------------------------------10-10\--------
(fuzz off)


e---------------------------------------------------------------------------
B---------------------------------------------------------------------------
G-------------------------------------------------------------------12------
D---12-10s12--------10-12-10s12-----10-12-10s12------10-12-12----10-12-10s12
A----------------12---------------12--------------12-----------12-----------
E---------------(12)--------------------------------------------------------

(w/bar -2.5)
e---------------------------------------------------------------------------
B------------------------------0--------------------------------------------
G------------------------------0--------------------------------------------
D------10-12-12----------------0--------------------------------------------
A---12----------------------------------------------------------------------
E---------------------------------------------------------------------------
(fuzz on)

Chorus
D C(add9) D C(add9) C
e-10--10----------10--10--------------------10-----12--10--10---------------
B-10--10--10--10---8---8--------------------10-10--10--10---8---8\----12-12s
G-11--11--11--11---9---9---------------0----11-11--11-------9---9\----12-12s
D-12--12--12--12--10-----10------12----0----12-----------------10\-/12------
A--------------------------10s14---14\--------------------------------------
E-10-------------------------------------10---------------------------------
T T

D C D C(add9)
e-----------------------------------10----------------------10--------------
Bs10------10-10-10-10--8--8-8-10s12---12s10--------10-10-10--8--8\----------
Gs10------11-11-11-11--9--9------------------------11-11-11--9--9\------10--
D----12---12----12----10-10-----------------12-----12-12----10-10\--/12-----
A---------------------------------------------------------------------------
E------10---------------------------------------10--------------------------
T T

Guitar Solo
E(add9) N.C.
e---------------------------14-12--------12v---------12-------12-----12-\---
B----------12---------12-12-12-12----15b-------------12---15b----15b----\0--
G-12s10-10-12---------13----13-13--0-----------12v---14b--------------------
D-------10------------14----------------------------------------------------
A---------------------------------------------------------------------------
E---------------12-12-------------------------------------------------------
T

e-----------------10-10-----------------------------------------10----10v---
B--------------13v-----13s10---10-13s10-----------------13qb-13b--13b-------
G--/11v-(11)s10-------------12b---------12hb(12)10---10---------------------
D-------------------------------------------------12------------------------
A---------------------------------------------------------------------------
E---------------------------------------------------------------------------

(E)
e-----12-12----12-12----12----12v----12---12----12--------------------------
B--15b---15-15b---15-15b---15b----15b--15b--15hb--(15)---12----12--12v------
G-----------------------------------------------------14b---14b----12v------
D---------------------------------------------------------------------------
A---------------------------------------------------------------------------
E---------------------------------------------------------------------------


e---------10---------10---------------------------------------------10-10-10
B-----13hb----(13cb)----(13)s10------10------------------------10---10-10-10
G--0----------------------------12hb----(12)--10v--------------10-----------
D-------------------------------------------------12s10----10v----12--------
A-------------------------------------------------------12------------------
E---------------------------------------------------------------------------


e-10--10------10------------------------------------------------------------
B-10--10--13b----13s10-----13s10-----------------------13------13---13v-----
G----------------------12b-------12hb(12)-10----10-12b----12wb---12b--------
D--------------------------------------------12-----------------------------
A---------------------------------------------------------------------------
E---------------------------------------------------------------------------

Outro
e---------------------------------------------------------------------------
B-13s12--12\----------------------------------------------------------------
G-13s12--12\----10-12-------------13---12s19--10s12------------13--12\------
D----------------------12-12------------------------12-12-------------------
A----------------8-10----------X--11---10------8s10---------X--11--10\------
E----------------------10-10\-----------------------10-10\------------------

Dsus4 D7
e-----------------------------------------------10--------------------------
B---------------------------------------------10----------------------------
G-10s12---------13--12\---10------12---11b--12-------12-10qb----------------
D--------12-12--------------------12---10--------------------12--10---------
A--8s10---------11--10\----8--10-------------------------------------12--11-
E--------10-10----------------10--10---10-----------------------------------


e---------------------------------------------------------------------------
B---------------------------------------------------------------------------
G---------------------------------------------------------------------------
D---------------------------------------------------------------------------
A--10--8v-------------------------------------------------------------------
E---------------------------------------------------------------------------

Explanation of the musical symbols :
7s9 slide from 7th fret to 9th
7\ slide from 7th fret down
7/ slide from 7th fret up
7bh bend 7th and hold till ghost note or cb
T with thumb (E-string)
7b bend 7th 1 full step
10v vibrato 10th
15bv full bend and vibrato
15cb compound bend and release (every note picked) (full)
3qb bend 1/4step
3wb half bend

Lyrics

Announcer : The Jimi Hendrix Experience sounding off again now with one of
Jimi's own called Fire!)

1st verse :
You don't care for me, I don't care about that.
Ya' got a new fool, I like it like that.
I have only one a burnin' desire.
Let me stand next to your pyre!

Chorus : (Background vox sing : Let me stand next to your fire!)
Let me stand baby.
Oh let me stand.
Ya' got to let me stand.
Aw shucks!
Yeah!

2nd verse :
Ya' say your mom ain't home, ya can't let me in.
Well I had you before, I don't need you again.
I have only one a burnin' desire.
Let me stand next to your fire!

1x Chorus

Bridge :
Move over Rover
And let Jimi take over.
You know what I'm talking about!
That's what I'm talking about!

Guitar solo

3rd verse :
Ya try to give me your money, you better save it babe.
Save it for a rainy day.
I have only one a burnin' desire,
Let me stand next to your fire!

1x Chorus
Guitar solo
Outro.

Tunning: Standard (E A D G B e)
ARTIST:JIMI HENDRIX
AULBUM:ARE YOU EXPERIENCED?
SONG:FIRE
JIMI HENDRIX:ROCK


intro(CLEAN)
e/--------------------------------------------------------------
B/--------------------------------------------------------------
G/-13-12--10/12--------13-12-10/12------------------------------
D/--------------12-12--------------12-12------------------------
A/-11-10--8/10---------11-10-8/10-------------------------------
E/--------------10-10--------------10-10------------------------


veres(CLEAN)
e/--------------------------------------------------------------
B/--------------------------------------------------------------
G/--------------------------------------------------------------
D/----10-12-12----------10-12-12--------------------------------
A/-12----------------12-----------------------------------------
E/--------------------------------------------------------------

chorus(CLEAN)
e/---------10----12---12----10-----10-10-12--10--10-------------
B/---------10----10---10----8------10-10-10--10--8--------------
G/---------11---------------9------11----11--11--9--------------
D/-12------12---------------10-----12------------10-------------
A/--------------------------------------------------------------
E/-10------10---------------------------------------------------
LET ME STAND_NEXT TO YOUR

BRIDGE(DIST.)
e/-10-------------------------10-----------------------5------------
B/-10-------------------------8------------------------5------------
G/-11-------------------------9------------------------6-------9----
D/-12-------------------------10-----------------------7-------10---
A/-----------------------------------------------------X-------10---
E/-10-------------------------8------------------------5-------8----
(USE THUMB) AH MOVE OVER ROVER AND LET JIMI TAKE OVER...

SOLO(DIST.) ~~~~~~~~~~~~~~~
e/---------------------------------------------------------------
B/-15b(FULL)-15b(FULL)-15b(FULL)---------------------------------
G/-------------------------------12------------------------------
D/---------------------------------------------------------------
A/---------------------------------------------------------------
E/---------------------------------------------------------------
~~~~~~~~~~~~~~~~~~~~
e/---------------------------------------------------------------
B/-15b(FULL)-15b(FULL)-15-12-------------------------------------
G/---------------------------14b(FULL)---------------------------
D/---------------------------------------------------------------
A/---------------------------------------------------------------
E/---------------------------------------------------------------
~~~~~~~~
e/-------------------------------------------------------------15b(FULL)
B/-15b(FULL)-15b(FULL)-15------------15b(FULL)-15b(FULL)-15-12--------
G/------------------------12------------------------------------------
D/--------------------------------------------------------------------
A/--------------------------------------------------------------------
E/--------------------------------------------------------------------

OUTRO(DIST.)(ALL BENDS ARE FULL) ~~~~~~ ~~~~~~
e/----12-12--14-12--------------------------------------------15b---
B/----12-12--12-12--15b-15b-15b-15b-15b-------15b-15b-15b-15b-------
G/----13-13--13-13--------------------------------------------------
D/----14-14---------------------------------------------------------
A/------------------------------------------------------------------
E/-12---------------------------------------------------------------
Tunning: Standard (E A D G B e)
As recorded by The Jimi Hendrix Experience
(From the 1967 Album ARE YOU EXPERIENCED ?)
Transcribed by www.mikesguitarsite.co.uk
Q=156
4/4
Gtr I

[Intro]

e|-----|----------------|----------------|
B|-----|----------------|----------------|
G|-13--|-12\------10s12-|------------13--|
D|-----|----------------|-12-12\---------|
A|-11--|-10\-------8s10-|------------11--|
E|-----|----------------|-10-10\---------|

e|----------------|--------------------||------------|----------------||
B|----------------|--------------------||o-----------|---------------o||
G|-12\------10s12-|--------------------||------------|----------------||
D|----------------|-12-12\-------10-12-||--12--------|---------10-12--||
A|-10\-------8s10-|-----------12-------||o-----------|------12-------o||
E|----------------|-10-10\-------------||------------|----------------||


[Verse]


e||------------|---------------|-----------|----------------|
B||o-----------|---------------|-----------|----------------|
G||------------|---------------|-----------|----------------|
D||--12--------|---------10-12-|-12--------|---------10-12--|
A||o-----------|------12-------|-----------|------12--------|
E||------------|---------------|-----------|----------------|

e|-----------|---------------|-----------|-------------------------------------||
B|-----------|---------------|-----------|-13-----(13)-(13)--------------------||
G|-----------|---------------|-----------|-12b14==(12)-(12)r-------------------||
D|-12--------|---------10-12-|-12--------|------------------------12-14p12-----||
A|-----------|------12-------|-----------|--------------------/14----------14--||
E|-----------|---------------|-----------|-------------------------------------||


[Chorus]

e|-----10--12-10--10-|-(10)----------------|-----10--12-10--10-|
B|-----10--10-10---8-|--(8)----------------|-----10--10-10---8-|
G|-----11--11-11---9-|--(9)----------------|-----11--11-11---9-|
D|-----12---------10-|-(10)--------10-12---|-----12---------10-|
A|-------------------|---------/12---------|-------------------|
E|-10----------------|-------------------8s|=10----------------|

e|-(10)----------------|-----10--12-10--10-|-(10)--------------------|
B|--(8)----------------|-----10--10-10---8-|--(8)--------------------|
G|--(9)----------------|-----11--11-11---9-|--(9)----------10--------|
D|-(10)--------10-12---|-----12---------10-|-(10)----10h12-----------|
A|---------/12---------|-------------------|------------------10-11--|
E|-------------------8s|=10----------------|-------------------------|

e|-----10--12-10--10-|-(10)-----------------|-----------|
B|-----10--10-10---8-|--(8)-----------------|-----------|
G|-----11--11-11---9-|--(9)-----------------|-----------|
D|-----12---------10-|-(10)--------10-12-12-|-12--------|
A|-12----------------|---------/12----------|-----------|
E|-------------------|----------------------|-10--------|


e|---------------|-----------|----------------||
B|---------------|-----------|---------------o||
G|---------------|-----------|----------------||
D|---------10-12-|-12--------|---------10-12--||
A|------12-------|-----------|------12-------o||
E|---------------|-----------|----------------||


[Bridge]

e|-(10)--10-------8--||-----------|---------|
B|--(8)---8-----8----||-----------|---------|
G|--(9)---9---9------||-----------|---------|
D|-(10)--10--10------||-----------|---------|
A|-------------------||-12--------|-(12)----|
E|-------------------||-10--------|-(10)----|

e|-----------|------------------|----------|
B|-----------|------------------|----------|
G|-----------|------------------|-6--------|
D|-----------|------------------|-7--------|
A|-10--------|-(10)----(10)---7-|-7--------|
E|--8--------|--(8)-----(8)---5-|-5--------|

e|----------------|-----------|-----------------||
B|----------------|-----------|-----------------||
G|-(6)----(6)-----|-----------|-----------------||
D|-(7)----(7)-----|-10--------|-(10)------------||
A|-(7)----(7)-----|-10--------|-(10)------/14---||
E|-(5)----(5)---0-|--8--------|--(8)------------||


[Guitar Solo]
~~
e|-------------------------------------------------|-----------|
B|-15b17==(15)-(15)r--15b17-(15)-15b17==(15)r=(15)-|-----------|
G|-------------------------------------------------|-12--------|
D|-------------------------------------------------|-----------|
A|-------------------------------------------------|-----------|
E|-------------------------------------------------|-----------|

~~~~ ~~~~~~~~~~
e|----------------------------------------------|-----------------------|
B|-15b17-(15)----15b17==(15)-15--12-------------|-----------------------|
G|----------------------------------14b16==(14)-|-(14)------(14)r(14)---|
D|----------------------------------------------|-----------------------|
A|----------------------------------------------|-----------------------|
E|----------------------------------------------|-----------------------|

~~~~~~~~~ ~~~~~~~~~~~
e|-----------------------------------------------|------------------|
B|-15b17==(15)-(15)r--15b17-(15)-15--------------|------------------|
G|-----------------------------------14b16==(14)-|-(14)r=====(14)\--|
D|-----------------------------------------------|------------------|
A|-----------------------------------------------|------------------|
E|-----------------------------------------------|------------------|

~~~~~~~~ ~~
e|-----------------------------------------------------|-------------||
B|-15b17==(15)-(15)--15pb17r(15)-----------------------|-------------||
G|-------------------------------14b16-(14)-14b16-(14)-|-12----------||
D|-----------------------------------------------------|-------------||
A|-----------------------------------------------------|-------------||
E|-----------------------------------------------------|-------------||

e|----------------|----------------|----------------|---------------------|
B|----------------|----------------|----------------|---------------------|
G|-12\------10s12-|------------13--|-12\------10s12-|---------------------|
D|----------------|-12-12\---------|----------------|-12-12\-------10-12--|
A|-10\-------8s10-|------------11--|-10\-------8s10-|-----------12--------|
E|----------------|-10-10\---------|----------------|-10-10\--------------|

e|-----------|---------------|-----------|---------------||
B|-----------|---------------|-----------|---------------||
G|-----------|---------------|-----------|---------------||
D|-12--------|---------10-12-|-12--------|---------10-12-||
A|-----------|------12-------|-----------|------12-------||
E|-----------|---------------|-----------|---------------||


[Outro - Solo]

e|-(10)--10-10-------------------||-----12--13-12---|
B|--(8)---8--8-------------------||-----12--12-12---|
G|--(9)--------------------------||-----13--13-13---|
D|-(10)--------------12h14-12----||-----14----------|
A|-------------12h14----------14-||-----------------|
E|-------------------------------||-12--------------|

e|---------------------------------------------------------|
B|--15b17-(15)-15b17-(15)-15b17-(15)-15b17-(15)-15b17-(15)-|
G|---------------------------------------------------------|
D|---------------------------------------------------------|
A|---------------------------------------------------------|
E|---------------------------------------------------------|

~~~~~
e|---------------------|
B|-15b17==(15)r--------|
G|---------------------|
D|---------------------|
A|---------------------|
E|---------------------|

~~~~
e|----------------------------------------------------------|---------|
B|--15b17-(15)-15b17-(15)-15b17-(15)-15b17-(15)-15b17==(15)r|=(15)----|
G|----------------------------------------------------------|---------|
D|----------------------------------------------------------|---------|
A|----------------------------------------------------------|---------|
E|----------------------------------------------------------|---------|

~~~~
e|-----------------------|-------------|
B|--15-15-15-15b17==(15)r|=(15)--------|
G|-----------------------|-------------|
D|-----------------------|-------------|
A|-----------------------|-------------|
E|-----------------------|-------------|

e|--------------------------------------------|
B|--15b17==(15)-15-15b17==(15)-15-15b17==(15)-|
G|--------------------------------------------|
D|--------------------------------------------|
A|--------------------------------------------|
E|--------------------------------------------|

~~~~ ~~
e|--------------------|----------------------------------------------|-------|
B|-15b17==(15)--------|--15b17==(15)-15-15b17==(15)-15b17==(15)r(15)-|-------|
G|--------------------|----------------------------------------------|-12----|
D|--------------------|----------------------------------------------|-------|
A|--------------------|----------------------------------------------|-------|
E|--------------------|----------------------------------------------|-------|

e|--------------------------------------------------------------|
B|--15b17==(15)-15b17==(15)-15b17==(15)-15b17==(15)-15b17==(15)r|
G|--------------------------------------------------------------|
D|--------------------------------------------------------------|
A|--------------------------------------------------------------|
E|--------------------------------------------------------------|

~~~~
e|-------------|--------------------------------------|
B|-(15)--------|--15b17==(15)-15-15b17==(15)-15-15-13-|
G|-------------|--------------------------------------|
D|-------------|--------------------------------------|
A|-------------|--------------------------------------|
E|-------------|--------------------------------------|

~~
e|----------------|-----------------------------------------------------|
B|----------------|--15b17==(15)-15b17==(15)-15b17==(15)-15b17==(15)-15-|
G|-10------(10)\--|-----------------------------------------------------|
D|----------------|-----------------------------------------------------|
A|----------------|-----------------------------------------------------|
E|----------------|-----------------------------------------------------|

~~~~
e|----------------*|
B|-15b17==(15)----*|
G|----------------*|
D|----------------*|
A|----------------*|
E|----------------*|



************************************

| (n) Ghost note
| h Hammer-on
| p Pull-off
| b Bend
| pb Pre-bend
| / Slide up
| \ Slide down
| s Slide

************************************
Song info
Fire
Jimi Hendrix
2001
  • Rock
  • Psychedelic Rock
Alternative tracks
Similar songs
You Got Me Floatin - Jimi Hendrix
Bold As Love - Jimi Hendrix
Strange Brew - Cream
Touch Me - The Doors
Drivin South - Jimi Hendrix

Hi! Hope you enjoy backing track experience.
If you want to help us in the development of the project, feel free to donate!