Little Wing - Jimi Hendrix
00:00 / 00:00
Tabs and lyrics
Tunning: Standard (E A D G B e)
Tuned down 1/2 step

[Intro]

(Guitar 1)

e|-------x-12\-|------------------------|------3h5p3-3---------------------|
B|-------x-12\-|----x-x--------------5\-|------3-----3---3-(3)-3-3---------|
G|-------x--x--|----x-x------0-----5-5\-|----0---------0-4h=5--5-4-5-4-----|
D|---------12--|----x-x--------5---5-7\-|------------------------------5---|
A|----------x--|----x-x--0h2---5h7------|----------------------------------|
E|---------12\-|-0----------------------|-/3-----------------------------3-|

e|------------------------------------|----------------------------------|
B|------------5---5-------------------|-----8h10p8-----------------------|
G|--------5---5h7-5-------------------|-----7------7--------7-7---7--7-7-|
D|------------------5h7-5---5---------|--------------9----7-7-7h9-7--7-7-|
A|----5-7---7-----------5h7-----------|---7----------7-7-10---------10-7-|
E|-5--------------------------5h7-(7)-|-0--------------------------------|

e|-----9-10-9----7-7-------------|--------------------------|
B|-----7-10-7-7h10-7-7-----------|--------------------------|
G|---7----7-7--------7-------7---|---5-5-5-5-----5-5-5------|
D|---9---------------9-------8s7-|---7-9-7-5-5-5-5-7-5------|
A|-------------------------8-----|-----------8-7------------|
E|-7-------------------7-6-------|-5-------------------5h7\-|

2/4 4/4
e|-----5s7-5---5s1-------------|-------------------|---------------------------|
B|-----3s5-3---3-3-1---1-------|---------1-3p1---0-|-------------7---7-7-------|
G|---0---------0-0-0---0---0---|-----2-2---2-------|-----------7-7---7-7--7-7--|
D|---5-5s7-5---5s3-----3---3---|-----2-2-----------|---7---7---7-7h9-7-7--7-7--|
A|---------------------3---3---|-0h3-----------3---|-5---5---5-----------10-7--|
E|-3---------0-------1---1---1-|-------------------|---------------------------|

[Verse]

e|---------12\-||------------------------------------------|
B|----------x--||----0-------------------------------------|
G|-7--------x--||----x-------------------------------------|
D|-7--------x--||----2p0h2p0-(0)-----2---2-0h2p0-----------|;
A|-9--------x--||----------------2------------------0h2p0--|
E|---------12\-||-0----------------0---0-------------------|

e|------------------------|-------------------------------|
B|--------3---3-3-2---3---|-------------------------------|
G|--------2---2h4-3---2---|----------5-5-5--------5-------|
D|----------5-------5-5---|----------9-7-5--5---5h7p5h7p5-|
A|------------------------|-----------------5h7-----------|
E|-3-3--3---------------3-|-5-----------------------------|

e|---------------------------|----7-9-7----------------------------|
B|----10p8----------8--------|----------10-7-7---------------6-----|
G|-----7---------------------|---------------7-9p7-----------8p7---|
D|---------9----------9------|---------------------9-8-(8)-8-----8-|
A|-----------7--(7)-----10-7-|-------------------------------------|
E|-0-------------------------|-7-----------------------------------|

e|-------------------------|----3------3-3-------------|
B|-------------------------|----3------1-1-------------|
G|---5---5-5---5-----------|----4h5--------0-----------|
D|-7-7-9-7-5-5-5-5-5-5---5-|------4-5\-------3-(3)-3-3-|
A|-----------8---8-7-8-7h8-|---------------------------|
E|-------------------------|-3------3\-------------1-1-|

2/4 4/4
e|--------|--------------------|
B|------1-|---3-3---3----------|
G|------x-|---2---2-----2---2--|
D|---2--2-|-0---------0---0-0--|
A|-0h3----|--------------------|
E|---3----|--------------------|

[Verse]

e|-2-------x-x-||-------0-----0--------------------|------------------------|
B|-3-------x-x-||------12h14-12-----0--0-----------|----3s5s3s5-3s5s3-3-----|
G|-2-------x-x-||---------------14-12--0-----------|----2s4s2s4-2s4s2-2-----|
D|-0-------x-x-||---------------------14-12----12\-|------------------------|
A|---------x-x-||---------------------------12h14\-|------------------------|
E|---------x-x-||-0--------------------------------|-3------------------3-5-|

e|---------------------|---------------------------------|
B|---------------------|----8h10p8-----------------------|
G|---------------------|-------7-------------------------|
D|------------5-5------|-------9---9-9-----9-(9)-7-7h9-9-|
A|----------5-7-5------|---------------7-7---------------|
E|-5----5-8-5-----5h7\-|-0-------------------------------|

e|-----9-10-9-7---------------|-5--------------------------------------|
B|-----7--7---7-------------6-|-5h7p5---------5------------------------|
G|--------------7-----------7-|-------7-(7)-5-5-5-5-----5-(5)-5--------|
D|--------------------------8-|-------------7---7-5-5---5-(5)-5-5-5----|
A|----------------9-------8---|---------------------5h7-------8-7-5h7\-|
E|-7----------------6-(6)-----|----------------------------------------|

2/4
e|----------5s7-5s3-(3)---------|-------------------|
B|---0------3s5-3s1-(1)---------|-------------------|
G|---0h2--------0-0-(0)---------|-------------------|
D|--------3-5s7-5s3-(3)---------|-5-(5)-5-------5-5-|
A|------------------------------|-3-(3)---3-(3)---3-|
E|-3------5-------------1-1h3s5-|-------------------|

4/4
e|-------------------------------------|
B|-------------------------------------|
G|-7-(7)-(7)-7-7-7-(7)-7-7-7-(7)-7-7---|
D|-7-(7)-(7)-7-7-7-(7)-7-7-7-(7)-7-7---|
A|-5-(5)-(5)-5-5-5-(5)-5-5-5-(5)-5-5---|
E|-------------------------------------|

(Guitar 1)

e|--------------------------------------------||
B|--------------------------------------------||
G|--------------------------------------------||
D|--------------------------------------------||
A|--------------------------------------------||
E|--------------------------------------------||

(Guitar 2)
\0.5______\1_____\1.5
e|--<12>-(<12>)----(<12>)-(<12>)--(<12>)------||
B|--<12>-(<12>)----(<12>)-(<12>)--(<12>)------||
G|--<12>-(<12>)----(<12>)-(<12>)--(<12>)------||
D|--<12>-(<12>)----(<12>)-(<12>)--(<12>)------||
A|--------------------------------------------||
E|---------------------------------------15s0-||


[Outro]

e|-----------------------------------------|------------------------3-----------------|
B|--0----0-0-0-0---------------------------|------3-------------3---3----3------------|
G|--0----0-0-0-0-----------------0----0----|--0-0-0---------3---5p4-5p4--4------------|
D|--2----2-2-2-2--2----2---2--2--2----0----|--0-0-0----------------------5------------|
A|--2----2-2-2-2--2----2---2--2----2--0----|----------------5--------------------0----|
E|--0----0-0-0-0--0----0---0--0----0--0h=3-|--3-3-3---------3------------------3------|
|
| ~~~~~
e|-----------------------------------------|------------------------------------------|
B|-15b17---------15b17r==(15)---12---12h15-|-12-----15b17r(15)----------------15------|
G|-----------------------------------------|-------------------12-------14b16---------|
D|-----------------------------------------|------------------------------------------|
A|-----------------------------------------|------------------------------------------|
E|-----------------------------------------|------------------------------------------|


e|-------------7---5---------------------------------------|
B|-------------5---5--5-------7---5------------------------|
G|-------------5------5-------7---5---5----5-5-5-----------|
D|--------------------7---------------7----5-7-5------5----|
A|-------7-7---------------------------------------5h=7----|
E|--5----5-5-----------------------------------------------|
|
e|---------------------------------------------------------|
B|---------------------------------------------------------|
G|-14b16r====(14)----12-14b16r==(14)-14b16r======(14)---12-|
D|----------------14---------------------------------------|
A|---------------------------------------------------------|
E|---------------------------------------------------------|


e|--7-7--7-------7--7--7-----7--7--------------|
B|--8-8--8-------8--8--8-----8--8--------------|
G|--7-7--7-------7--7--7-----7--7--7--7-9-7----|
D|--9-9--9-------9--9--9-----9--9--9--9-----9--|
A|--7-7--7-------7--7--7-----7--7--------------|
E|--0-0--0-------0--0--0-----0--0--------------|
|
| ~~
e|---------------------------------------------|
B|---------------------------------------------|
G|------12-14b16---12-14----12-14-12s14--------|
D|-14--------------------14--------------------|
A|---------------------------------------------|
E|---------------------------------------------|


e|----------7--9-10-9--7---------------------|
B|-------7--7--7--7-7--7----7----------------|
G|-------7--7----------7------------7------7-|
D|-------7------------------9-------8------8-|
A|-------9--------------------------8------8-|
E|--7-------------------------------6------6-|
|
| ~~ ~~ ~~
e|-------------------------------------------|
B|-------------------------------------------|
G|-12s14---14s16------14s12---14b16r==(14)---|
D|-------------------------------------------|
A|-------------------------------------------|
E|-------------------------------------------|


e|-------------------------------------------------|
B|--5-----------5--5--5--5----1----1-0---3--3--3-3-|
G|--5--------5--5--5--5--5-0--0----0-----2--2--2-2-|
D|--7--------7--7--7--7--7-0--2----2-----0--0--0-0-|
A|--7-----------7--7--7--7----3----3-----0--0--0-0-|
E|--5-----------5--5--5--5----3----3---------------|
|
| ~~~~~~
e|-------------------------------------------------|
B|-12h13p12-13p12-13p12------15b17r====(15)---12---|
G|----------------------12-------------------------|
D|-------------------------------------------------|
A|-------------------------------------------------|
E|-------------------------------------------------|


e|----------------------------------------------------|
B|--0-----0--0--------3s=1--------1-1--1--------0---1-|
G|--0-----0--0--0-----0-----------0-0--0----0---0-----|
D|--0-----0--0--0-----5s=3--------3-3-------3---------|
A|--------------5-----------3-----3-3-----------------|
E|--3-----3--3--3-----------1-----1-1-----------------|
|
e|-------15-15-------15----13-------------------------|
B|----------------------------13------10-----------13-|
G|-14b16-------14b16----12-------12---12b14r==(12)-12-|
D|----------------------------------------------------|
A|----------------------------------------------------|
E|----------------------------------------------------|


2/4 4/4
e|-------------------|------------------------------------------------|
B|-1------1-1------1-|--7-7-----7-----7--------7-------7-7---7--7--7--|
G|-0------0-0------0-|--7-7-----7-----7--------7-------7-7---7--7--7--|
D|-2------2-2------2-|--7-7-----7-----7--------7-------7-7---7--7--7--|
A|-3------3-3------3-|--5-5-----5-----5--------5-------5-5---5--5--5--|
E|-3------3-3------3-|--5-5-----5-----5--------5-------5-5---5--5--5--|
|
e|-------------------|------------------------------------------------|
B|-8--------8--------|---------10----10-------10------10---(10)-------|
G|-7h9p7----7h9p7----|----------9----11h12p11-11p9-----9----(9)-------|
D|-------10-------10-|-12---12----12---------------12-------------12--|
A|-------------------|------------------------------------------------|
E|-------------------|------------------------------------------------|


e|-------------------|----------------------------------------------------|
B|--7----------------|--0------0------8---------8------8------------------|
G|--7----------------|--0------0------7h===9p7--7h9p7--7h===9p7--7--------|
D|--7----------------|--2------2---------------------------------7h9p===7-|
A|--5----------------|--2------2------------------------------------------|
E|--5----------------|--0------0------------------------------------------|
|
| \2/
e|----12-------(12)--|----------------------------------------------------|
B|----12-------(12)--|-15b17--15b17--15b17-----15-------------------------|
G|----12-------(12)--|--------------------------------14b16-----14p==12---|
D|-12-12-------(12)--|----------------------------------------------------|
A|-------------------|----------------------------------------------------|
E|-------------------|----------------------------------------------------|


e|--------x--3-3-3--3--x--------------------------------|
B|--------3--3-3-3--3--3--------------------------------|
G|--------4--5-5-5--5--5p====4--4-----------------------|
D|--------5---------------------5-----------------------|
A|--x---------------------------------------------------|
E|--3------------------------------------3--------4-----|
|
e|-------15-15-----15-------15-------15-------15--------|
B|------------------------------------------------------|
G|-12b14--------------14b16----14b16----14b16----14b16--|
D|------------------------------------------------------|
A|------------------------------------------------------|
E|------------------------------------------------------|


e|----------------7p=5---------------------------------------------|
B|----------------5-----5--5---------5-----------------------------|
G|---------5---5--5-----5--5--7----5-5-----------------------------|
D|---------5---5--------7------------7-5-7-5-----------------------|
A|--7------7---7-------------------------------7--5----------------|
E|--5--------------------------------------------------7--6-5----3-|
|
| ~~~~~~~~~~~~~~~~~~~~
e|-----------------------------------------------------------------|
B|-----------------------------------------------------------------|
G|-14b16r(14)-12-14----12----14b16r==========(14)---12h==14p==12---|
D|------------------14----14---------------------------------------|
A|-----------------------------------------------------------------|
E|-----------------------------------------------------------------|


e|--------------------------------------7----------7---7------7---7------7-----------*|
B|----8--8-10p8---------(8)--8----------8----------8---8------8---8------8-----------*|
G|----7--7--7----------------7----------7----------7---7------7---7------7-----------*|
D|----9--9--9----------------9----------9----------9---9------9---9------9-----------*|
A|--------------------------------------7----------7---7------7---7------7-----------*|
E|--0-----------------------------------0----------0---0------0---0------0-----------*|
|
e|-----------------------------------------------------------------------------------*|
B|-----------------------------------------------------------------------------------*|
G|--------------------------12-(12)-12---------12-12-(12)-12---------12--------------*|
D|-14---12------------------12-(12)-12-14-(14)-12-12-(12)-12---------12-14-(14)-14---*|
A|---------14---(14)-14--------------------------------------14-(14)-----------------*|
E|-----------------------------------------------------------------------------------*|


***********************************
| h - hammer-on
| p - pull-off
| b - bend
| pb - pre-bend
| r - bend release
| / - Slide up
| s - legato slide
| S - shift slide
| + - natural harmonic
|[n] - artificial harmonic
| n(n)- tapped harmonic
| ~ - vibrato
| tr - trill
| T - tap
| TP - trem. picking
| PM - palm muting
|\n/ - tremolo bar dip; n = amount to dip
| \n - tremolo bar down
| n/ - tremolo bar up
|/n\ - tremolo bar inverted dip
| = - hold bend; also acts as connecting device for hammers/pulls
| <> - volume swell (louder/softer)
| x - on rhythm slash represents muted slash
| o - on rhythm slash represents single note slash
***********************************
Tunning: Standard (E A D G B e)
[Intro]

e|---12\-------------------------------3h5-3-----------------------------|
B|---12\----------------------5--------3h3-3-------3--3------------------|
G|x--12\----x---------0-----5-5------0-----------4-5--5-4-5--4-----------|
D|x---------x--x--------5---5-7\--------------5----------------5---------|
A|x--12\----x--x--0-2---5-7------------------------------------------5--7|
E|-------0-----x-----------------2\3-----------------------------5-------|


e|------------------------------------------------------------------9-10-|
B|----------5-5-------------------8-10-8----------------------------7-10-|
G|--5-----5-7-5-7-----------------7------7--------7-7-7----7-----------7-|
D|--5-----------7--5-7--5------------------9---7--7-9-7-7--7-----9-------|
A|-----7-----------5-7--5------------------7-7-10-------10-7-------------|
E|------------------------5-7\-0-----------------------------7-----------|


e|-9--------7--------------------------------------------------------5/7-|
B|-7--7-10--7--------------------------------------------------------3/5-|
G|-7----------7------6---------5--5-5--5--------5-5--5------------0--0---|
D|------------9------8\7-----5-7--9-7--5--5--5--5-7--5------------5--5/7-|
A|------------------x---------------------8--7---------------------------|
E|--------------7-6-------5-----------------------------5\7--2/3---------|


e|-5--5\3-----------------------------------------------------------------|
B|-3--5\1--1---1---1--------1-----1--3\1--------------------7-------------|
G|-0--0----0---0---0--------0---0----2-------------------7--7-----7--7----|
D|----5\3----3-3-3-3--3-----------------------7----7-----7--9-----7--7--7-|
A|----------------------0-3---3----------3/5--5-5--5--5-----------------10|
E|------------------------------------------------------------------------|


e|--------|--Drums--|
B|--------|---------|
G|----7---|---------|
D|--7-7---|---------|
A|--7-----|---------|
E|--------|---------|


[Verse]

e|--12\------------------------------------------------------------------|
B|--12\------------------------------------------------------------------|
G|--12\----------------0h2p0--------------------------------------------7|
D|---------------------2-------2-------------------------------5--7--5--7|
A|---------------------2--------------------5h7--------------------------|
E|-------0-----------------------0-0-0-0---------5h7--3------------------|
Well she's walkin through the clouds




e|------------------------------------------------------------------------|
B|-------------------------------------------------------------8h-10p-8--8|
G|--7--7--7----------------------------------------------------7----------|
D|--9--7--7-----------------------9--7--7------7---7----------------------|
A|--------10----------------------7--7--10--7--10--7----------------------|
E|------------7---------------------------------------0-------------------|
with a circus mind that's running wild



e|------------------------7--9--7----------------------------------------|
B|----8-------------------7--------10--7--7------------------------------|
G|------7---------------------------------7--7h9p7----------7h-9p-7------|
D|--------9----------------------------------------9--8--8--8--------7---|
A|-----------------------------------------------------------------------|
E|------------7----------------------------------------------------------|
butterflies and zebras and moonbeams



e|------------------------------------3----3-3---------------------------|
B|----------------------------------1-0----3-3---------------------------|
G|5--5--5-----------------------------0-0--------5-4---------------------|
D|9--7--5-----5-5-5-5-5-5\---------------------------5-------------------|
A|------------8-7-8-7-8-8\-----------------------------------------------|
E|-------------------------3---------------------------3-----------------|
and, uh fairy tales that's all she ever think's about



e|---------------------------------------------|
B|---------------------------------------------|
G|-----------------------------------------7---|
D|---------(10)----------------------------7---|
A|---------------------12---9------------------|
E|------/8------/10---(10)-(10)-10--10-10------|
riding with the wind


e|--------------0--------0-----------------------------------------------|
B|--------------0h2p0----12h14p12--------0-------------------------------|
G|--------------------------------14-12--9-------------------------------|
D|----------2-------------------------------12-9-------------------------|
A|----------2------------------------------------------------------------|
E|---/12\---0--------------------------------------------------------3---|
When I'm sad She comes to me


. . . .
e|-----------------------------------------------------------------------|
B|-----------------------------------------------------------------------|
G|-7/9\7/9\7/9\7---------------------------------------------------------|
D|-7/9\7/9\7/9\7---------------------------------------------------------|
A|-------------------------------------------------------5--7--5---------|
E|------------------12\--5-----------------------5-5--7-----------3--5--0|
With a thousand smiles She gives to me




e|-------------------------------------------------------------------9--10|
B|------------8h-10p-8-----------------------------------------------7--10|
G|------------7------------------------------------------------------7--7-|
D|------------------------------------------------------------------------|
A|---------------------------------12--12h-14--14-------------------------|
E|----------------------12--12--0-------------------7---------------------|
free It's alright, she



e|---9--7------------------------------------------------------------------|
B|---7--7--------------------5h-7p-5--5------------------------------------|
G|---7--7--------------------4---------------------------------------------|
D|------------9---------9--------------------7--9--7--7-------5-5-5-5-5-5-8|
A|--------------9----9-----------------------7--7--7--10------7-8-7-8-7-8-7|
E|----------------7--------------------------------------------------------|
says it's alright Take anything



e|--------------------5/7--5\3--3---------------------------------------|
B|--------------------3/5--5\1--1---------------------------------------|
G|------------2/4-----0----0----0---------------------------------------|
D|--------------------5/7--5\3--3------------------------------12-12-12-|
A|---------------------------------------------10--10----------12-12-12-|
E|-------3---------3----------------------3/8----------8--/10--10-10-10-|
you want from me anything anything


Whammy Bar
e|---------------------------12\------------|
B|---------------------------12\------------|
G|---------------------------12\------------|
D|12-12--12--12-12--12-12-------------------|
A|12-12--12--12-12--12-10-------------------|
E|10-10--10--10-10--10-10-------------------|


[Solo]

e|------------------------------------------------------------------------|
B|-----15b(17)--15b(17)--15--12--12--15--12-----b(17)\15------------------|
G|--------------------------------------------------------12-------14b(16)|
D|------------------------------------------------------------------------|
A|------------------------------------------------------------------------|
E|13\---------------------------------------------------------------------|
Fly on little wing


e|--------------------------------------------------------------------|
B|---14---------------------------------------------------------------|
G|-b(16)--14b(16)-14---14b(16)\14--12--14--14b(16)\14b(16)---b(16)\14p|
D|--------------------------------------------------------------------|
A|--------------------------------------------------------------------|
E|--------------------------------------------------------------------|



e|-----------------------------------------------------------------------|
B|-------------------------------------------------10/12-----------------|
G|12------12-14b(16)-12-14-----12-14-12/14--12/14--------10/12--14b(16)--|
D|---14---------------------14-------------------------------------------|
A|-----------------------------------------------------------------------|
E|-----------------------------------------------------------------------|




e|--------------------------------------------------------15--15----------|
B|12h13p12-13-12-13-12-----15b(17)--b(17)\15--12----------15--15----------|
G|---------------------12-------------------------14b(16)---------14b(16)-|
D|------------------------------------------------------------------------|
A|------------------------------------------------------------------------|
E|------------------------------------------------------------------------|



e|-15------13----------13------------------------------------------------|
B|-15----------13------13----13------------------------------------------|
G|-----12----------12----------------------------------------------------|
D|-------------------------------12h14p12--------12h14p12----------------|
A|-------------------------------12--------15----12--------15--15/17-----|
E|-----------------------------------------------------------------------|


Whammy bar
e|---------------------------------------12\-----------------12-----------|
B|---------------------------------------12\---------15b(17)------15b(17)-|
G|---------------------------------------12\------------------------------|
D|12--14h-16p-14--12--14--14--12--12--------------------------------------|
A|12--12--12--12--12--12--12--12--12--------------------------------------|
E|------------------------------------------------------------------------|
(with reverb or wah wah or something) Yeah,


e|------------------------------15---15----------15----------15----------|
B|15----------------------------15---15----------15----------15----------|
G|----14b(16)--14--12---14b(16)----------14b(16)-----14b(16)-----14b(16)-|
D|-----------------------------------------------------------------------|
A|-----------------------------------------------------------------------|
E|-----------------------------------------------------------------------|
yeah, yeah, yeah ... little wing wing



e|15-------------------------------------------------------|
B|15-------------------------------------------------------|
G|----b(16)\14--12--14------12--14--14b(16)--12--14--12----|
D|----------------------14-------------------------------14|
A|---------------------------------------------------------|
E|---------------------------------------------------------|



************************************

| x Dead note
| (n) Ghost note
| h Hammer-on
| p Pull-off
| b Bend
| / Slide up
| \ Slide down

************************************
Tunning: Standard (E A D G B e)
Artist: Jimi Hendrix
Song: Little Wing Live
Album: BBC Sessions

Gtr I (Eb Ab Db Gb Bb Eb) - 'Jimi Hendrix - Lead / Rhythm clean electric'

Tab Legend:
| h hammer-on
| p pull-off
| ~ vibrato
| + harmonic
| x Mute note
| s Slide

Intro
Q=67
4/4
Gtr I
S E. q E S S S S S a S +S S a E
|---12\-||------------------------------------------|
|-x-12\-||----x-------------------------------------|
|-x-----||----x----0--------12----12-(12)-12--------|
|-x-----||----x---(0)----------12h14-(14)-12--------|
|-x-----||-2----------12h14------------------12h14\-|
|---12\-||-0----------12----------------------------|


E. S a S S S S S S S S T T S S S
|----------------5p3-5p3-5p3---------|
|--------3-----------3---3---3-------|
|------4h5p4-----------------4-------|
|------------5-----------------5-----|
|----5-------------------------------|
|-3------------3---------------3-(0)-|


|3|
E S S S a S S S S S S S S a S S a S s Q T T s S S S S S T T S T T S S
|------------------------------------|--------------------------------------|
|------------------------------------|----8h10p8----------------------------|
|---5---5h7p5--------5-----5---------|-----------7-------7-7----------------|
|---5-7-7----7-7---5-5---5h7-7-------|-------------7---7-9-7h9p7------------|
|----------------5-7---7-------5h7-7-|---------------7-----------7h10p7-7---|
|-5--------------------------------0-|-0------------------------------------|


|3| |3| |3| |3|
E E a S E S S S S S S S S S S E E a E S E S S S S a S S a S E S
|--------7---------7-------------|------------------------------------|
|-----7h10p7-7---7---7-------6---|-------7-------------5h6------------|
|------------7-------7-------7-7-|---5---7-7-5-------5-----5-----(5)--|
|--------------------------8---8-|---7-7h9-7-5-----5-------5-----(7)--|
|--------------------------------|-------------0-3-----------5h7--7s5-|
|-7-7----------7-------0-6-------|-5----------------------------------|


2/4
E S S S S S S T S. a S S S S S a S E E S S S S
|--------5s==7--5---5s3------------------|---------------|
|--------3s==5--5---3s1----1-------1-----|-----(5)-------|
|-------(4)s(6)-4--------2---------2-----|---5--5--5-----|
|-------------------5s3--------3---3-----|---5-----5-5-5-|
|----------------------------------------|-3---------3---|
|-3-3-3-----------3----------1---1---3s5-|---------------|


Verse 1
4/4
|3| |3|
E. S S S S S a E E E E a S E E Q H E S S T T S E S E E E E
|---------------------------|-----------------||--------------------------x-|
|------------------7--------|-----------------||---------8h10p8-----------x-|
|----7-7-(7)-------7-7--7---|-----------------||--------------------------x-|
|-7--7-7-(7)-7-5-7h9-7--7-7-|-----------------||----------------9-9-9-9-----|
|-5----------5-5-------10-7-|-7h9p7-----------||--------------------7-7-----|
|---------------------------|-----------------||-0-(0)-0----------------0---|


|-3-| |-3-| |3|
E E S S S S S S S S +S S a S E S S E E a T S. S S T T S S S S S S S
|-------------------------------------|-------------------------------------|
|-----3-----------------------3-------|-------5h8p5--------------x----------|
|-----2h4p2-----5p4p2-(2)---2h4p2-----|---(5)--------5-5-5h7p5---x-------x--|
|-----------5-5-----------5-------5-x-|---(7)--------7-7-------7---5h7---x--|
|-----------------------------------x-|----------------------------5h7-7----|
|-3-(3)-------------------------------|-3-----------------------------------|


E S S T T S S S S S S a S S S S S E E T T S S S E S S S S S S
|--------------------------------------|-----7-------------------------|
|-------8h10p8-------------------------|---x-7h10p7---------------6----|
|--------------7--------7---7-7--------|---x--------7-7---7-----7-7-7--|
|-------9--------7-7----7-7h9-7--------|---x--------9-9---9-9---8---8--|
|------------------7-10---------10-7-0-|-------------------------------|
|-0-0-0--------------------------------|-7--------------7-----6--------|


2/4
|3| |-3-| |3-| |3|
E S S E s S E S S E S E E S S S S S S S S S S S S E a S E E S E E S
|------------------------|-------5s7-5---5s3-3-------------|----------------|
|----5-------------------|-------3s5-3---3s1-1---1---------|----------------|
|--5-5-5-(5)-----5-5-----|---x-0-----------------0---------|----------------|
|---7--7-(5)---5---5-----|---5-5-5s7-----5s3-3-----3-------|---5-(5)---5-5--|
|------------3-------3h5-|---------------------------------|-3-3-(3)-3-3-3--|
|-5----------------------|-3-----------3-3s1-1-1-----1-3s5-|----------------|


Verse 2
4/4
|3|
E E E E S E S S S S S S e E Q H E S S a T S. S S E E E E
|-------------------------0-|-------------||-----------------------------|
|---(3)-3-3-3-3-3-3-3-3-3-3-|-3-----------||-------8h10-8----------------|
|----2--2-2---2-2-2-2-2-2-2-|-2-----------||----------7----7-7---(7)-7-x-|
|-0--0----0---0-0-0-0-0-0---|-0-----------||---------------9-9---(9)-9-x-|
|---------0-----------------|-------------||-------------------7--7------|
|---------------------------|-------------||-0-0-0-----------------------|


|3| |--3--|
E S S S S S S S a S S S S S E E E T T S S S S S e E S E +S
|-----------3s5-3-----------------|-----------------------------------|
|-------2s5-3s5-3-3s5s3---------3-|-----5-----------------------------|
|-------2s4-------2s4s2--0----4---|---5-5h7p5-------------------------|
|-----------------------------5---|---7-------7-7-7---5-----5---------|
|---------------------------------|---------------5h7-------5b6==(5)r-|
|-3-3-3-----------------(3)-3-----|-5-------------------5-7-----------|


|3-| |3| |3| |3| |3| |3|
E. S a T S. S S S S S a S E S E S E E a E E S E E S E S E S
|---------------------------------------|------------------------------|
|------8h10p8--8------------------------|-------10p7-------------------|
|----7---------7-----(7)-7---7----------|------------7-7---7-------6---|
|----9-----------9-7--7--7-7h9-7----7---|------------9-9---9-9---8-----|
|------------------7-10----------10-7---|-9-(9)------------------------|
|-0-----------------------------------0-|-7--------------7-----6-----0-|


|3| |3| |3|
E S S a T S. S T T E E S E S E S E S S S S S S T S. S S E S S
|------------------------------------|-------5s8-5---5s3--3-----3-----|
|-------5h8p5------------------------|-------3s6-3---3s1--1-----1-----|
|-----5--------5---------5-5---5---5-|--------------------0-----0-0---|
|-----7--------7---------5-5-5-5-5---|-------5s8-5---5s3--3-----3-3---|
|----------------------3-3---3-------|----------------------(3)-------|
|-5-5------------5p(0)---------------|-3-3-3-------3-3s1-----1------1-|


2/4 4/4
|3| |3| |3| |3| |3|
E E E S S E E S E E S E E S E S E S
|-----0-0-0-|---------2-2---2-2-2-------|
|-----1-1-1-|-3-3-----3-3---3-3-3-3-3-3-|
|---0-0-0-0-|-2-2---2-2-2-2-2-2-2-2-2-2-|
|---2-2-2-2-|-0-0-0-0-0-0-0-0-0-0-0-0-0-|
|-3---3-3-3-|-----0---0-0-0-0-0---------|
|-----------|---------------------------|


Guitar Solo
\1.5_____________/
~~~~~
|3| |3-|
E S Q. +E +E +E +E H E E E S E
|-----0-------(0)-(0)-(0)-(0)-||----------------------------|
|-3-x-0-------(0)-(0)-(0)-(0)-||-15b17----15b17-15-12-12h15-|
|-2-x-0-------(0)-(0)-(0)-(0)-||----------------------------|
|-0-x-------------------------||----------------------------|
|-----------------------------||----------------------------|
|-----------------------------||----------------------------|


~~~
|--3--| |--3--| |--3--|
Q. S S S E S a S S S E a T T S
|---------------------------------------------------------------|
|-12------------------------------------------------------------|
|-------------12-14b16-14b16-14pb16r14p12----14b16==14r14p12----|
|-------12-14-----------------------------14-----------------14-|
|---------------------------------------------------------------|
|---------------------------------------------------------------|


~~ ~~~~~~~~~
a Q +S a E. Q E E
|-------------------------------|
|-------------------------------|
|-12s14--(14)-14s16--16--14-12--|
|-------------------------------|
|-------------------------------|
|-------------------------------|


~~~~~~~ ~~
|-3-| |--3--|
a E S S +E S T T T T S S T S T E S S S
|------------------------------------------------------------|
|------------------------------------------------------------|
|-12h14------------------------------------------------------|
|-------14-14-(14)-------12-------12----------12h14-14p12-14-|
|------------------12-14----12h14----12----------------------|
|---------------------------------------15-12----------------|


~~ ~~~~~~
|3-| |3-|
a Q a Q Q a E S a E S
|--------------------------------------|
|--------------------------------------|
|-12s14--14s16--12--12h14-12-----------|
|----------------------------14p12-12--|
|--------------------------------------|
|--------------------------------------|


|3-| |3-|
a E S E S S S S S Q S +S e
|--------------------------------------------------|
|----13p12-13p12-13p12-------15b17--15pb17r(15)-12-|
|-12-------------------12-12-----------------------|
|--------------------------------------------------|
|--------------------------------------------------|
|--------------------------------------------------|


|--3--| |-3-|
S +S S S +S S E S a E S S +E S S S
|--------------15--------------15-------15--------------13-(13)-----------|
|-------------------------------------------------------------------------|
|-14b16==(14)r----14b16==(14)r----14b16----14pb16r14-14---------14-14S(x)-|
|-------------------------------------------------------------------------|
|-------------------------------------------------------------------------|
|-------------------------------------------------------------------------|


2/4 4/4
|-3--|
S S S S S T T S S S a E E T T S S T T a S S E +S S S S
|-8---------------------|---------------------------------------------------|
|-8h10p8----8------8----|---------10---------10------------10-(10)----10----|
|-----------9p7----7----|-------9--9h11-9-----9h12-12p9-----9--(9)-----9----|
|---------------10---10-|-10s12-----------12------------12---------12-------|
|-----------------------|-----------------------------------------------12--|
|-----(8)-8-------------|--8s10---------------------------------------------|


\1.5________/
a H. +E. +S
|----------------------||
|----------------------||
|---0----------(0)-(0)-||
|-0--------------------||
|----------------------||
|----------------------||


|--3--|
Q S a E +S S S +E E S S S
|--------15---------------------15-------------15-------------|
|-15b17-----15pb17r15b17==(15)r----15pb17r(15)-15b17-15p12----|
|----------------------------------------------------------14-|
|-------------------------------------------------------------|
|-------------------------------------------------------------|
|-------------------------------------------------------------|


~~~~~ ~~~~~ ~~~
|-----3-----|
E. S E. S S +S S +S T T E. S
|----------------------------------------------------|
|-------15-------15----------------------------------|
|-14b16----14b16----14pb16r(14)-12-(12)-------12-----|
|---------------------------------------12h14-----14-|
|----------------------------------------------------|
|----------------------------------------------------|


~~~~~~~ ~~~~~~
|3-| |3-| |3-| |3-| |--3---|
S E +E S E +E E E S E S E S
|----------------------------------------------------|
|-----------------------------------------15b17==15r-|
|-14-14-(14)-16-16-(16)-16b17s12-14----12------------|
|-----------------------------------14---------------|
|----------------------------------------------------|
|----------------------------------------------------|


|--3--| |--3--|
S E S S S S T T T T S T T T T T X X T a E S S
|-------------12------12-15-12----------------------------------------------|
|-15b17-15b17----12-15---------12h15p12-------------------------------------|
|---------------------------------------14-14-12----12----------------------|
|------------------------------------------------14----14p12----12h14-12----|
|------------------------------------------------------------14----------14-|
|---------------------------------------------------------------------------|


~~~ ~~~
S S S S a E S S a S a S S a S E. S
|---------------------------------------------------------|
|---------------------------------------------------------|
|-------(12)-(12)-12s14s12----12s14-14s12----12s14-12-----|
|--------12---14-----------14-------------14-----------14-|
|-12-14---------------------------------------------------|
|---------------------------------------------------------|


~~~~~~
|3-| |---3---| |--3--|
E S S S S S S S E S +S S E S S S
|-----------------------------------------------------------------|
|----------13p12----------15b17==15r(15)-12-15b17-15b17-15pb17\---|
|-------12-------12----12-----------------------------------------|
|-12-14-------------12--------------------------------------------|
|-----------------------------------------------------------------|
|---------------------------------------------------------------0-|


E S S S S S S S S S S E S S
|--------5p3-3-----------------|
|------3-3---3---1---1---1-1---|
|------4-4---4---2---2---2-2---|
|-/5-5-5-5---5---3-3-3---3-3---|
|----------------------3---3-3-|
|-/3-3-3-3---3-0-1---------1---|


2/4 4/4
E S S S S S a S S S S S +Q +Q +S S S S
|-----------------|--------------------------------||
|-----------------|-------8-(8)--(8)--(8)----------||
|-----7-7---------|-----8-8-(8)--(8)--(8)----12-14-||
|---9-9-9---------|---8---8-(8)--(8)--(8)-14-------||
|---7-7-7---2-2s4-|-6-----6-(6)--(6)--(6)----------||
|-0-0-----0-0-----|--------------------------------||


Free Time
S T T S S S S S S E. S S S S S
|-------------------------------------------------:
|-------------------------------------------------:
|-14b16-12h14p12----12----12-14-11tr12-9-11-6-7-9-:
|----------------14----14-------------------------:
|-------------------------------------------------:
|-------------------------------------------------:


~ ~~ ~ ~
|-3-| |3|
T T T S S S E a E a E. S E S E
|--------------------------------:
|--------------------------------:
|-7h9p7-5-4-2s5-5s7-7s2--2s9-9s2-:
|--------------------------------:
|--------------------------------:
|--------------------------------:


3/4 4/4
~~ ~ ~ ~~~~~~
|--3--| |-3--|
a Q S S S S S S E T T S E T T S E E +H H. Q
|---------------------------------------:------------:-^5-----------*|
|---------------------------------------:------------:-^3-----------*|
|-2s11--11h12p11s9-11p9s7-7h9p7s5-5h7p5-:-5s4-(4)----:-^4-----------*|
|---------------------------------------:------------:-^5-----------*|
|---------------------------------------:------------:--------------*|
|---------------------------------------:------------:-^3-----------*|
Tunning: Standard (E A D G B e)
--------------------------------------------------------------

JIMI HENDRIX - LITTLE WING. From AXIS: BOLD AS LOVE album.
Released in the UK on 1st December 1967.

--------------------------------------------------------------

Tabbed by:PJVillanueva


Well she’s walking through the clouds
With a circus mind that’s running round
Butterflies and zebras
And moonbeams and fairy tales
That’s all she ever thinks about
Riding with the wind.

When I’m sad, she comes to me
With a thousand smiles, she gives to me free
It’s allright she says it’s allright
Take anything you want from me, anything
Anything.

Fly on little wing,
Yeah yeah, yeah, little wing


Remember that you must tune your guitar a half step
down to match Jimi's recordings.


[Intro]

e|------------ ------------ ------------ x-12-\------|
B|---------------------------------------x-12-\------|
G|---------------------------------------x-12-\------|
D|---------------------------------------------------|
A|---------------------------------------------------|
E|---------------------------------------------------|


(12)
e|------------ ------------ ------------ ------------|
B|-------------x--x-------------------------5--5-\---|
G|-------------x--x---------------0---------5--5-\---|
D|-------------x--x------------------5------5--7-\---|
A|--------------------------0-H-2----5-H-7-----------|
E|0--------------------------------------------------|



e|------------ 3H5P3-3----- ------------ ------------|
B|-------------3-----3------3-----3------------------|
G|-------------4------------4H5---5--4---5--4--------|
D|----------------------5---5------------------5-----|
A|------5--------------------------------------------|
E/3-----------------------------------------------3--|



e|------------ ------------ ------------ ------------|
B|--------------------------5------------------------|
G|-------------------5------5H7---5-5----------------|
D|----------------------------------5H7--5--5--------|
A|-------------5--7-----7----------------5H7---5-----|
E|5--------------------------------------------5H7-\-|



e|------------ 3H5P3------- ------------ ------------|
B|-------------3------3------------------------------|
G|--------------------------------7--7---7-----7-----|
D|-----------------------------5--7--7H9-7-----7-----|
A|-----------------------7--7--------------10--7-----|
E|0--------------------------------------------------|



e|------------ 7H9------9-- ---7-------- ------------|
B|-------------7--------7--10--7---------------6-----|
G|-------------7-----7--7---7------------------7-----|
D|------7------------7------------9------------8-----|
A|---------------------------------------------------|
E|7--------------------------------------6-----------|



e|------------ ------------ ------------ ------------|
B|------5--------------------------------------------|
G|------5------5--5--5------5-----5--5---5-----------|
D|------7------9--7--5------5-----5--7---5-----------|
A|----------------------8---7------------------------|
E|5---------------------------------------- 5-H-7-\--|



e|------------ 5/7---5----- 5-\---3----- 3-----3-----|
B|-------------3/5---3------3-\---1------1-----1-----|
G|------0------0-----0------0-----0------0-----0-----|
D|------0------5/7---5------5-\---3------2-----2-----|
A|---------------------------------------2-----2---0-H
E|3----------------------------------1---1--1--1-----|
T


e|------------ ------------ ------------ ------------|
B|------1---------1----------------------------------|
G|------2--2---2--2H4P2-----------7--7---7--7--7--7--|
D|------2-------------------------7--7---7--7--7--7--|
A|3---------------------x--/5------------------------|
E|---------------------------------------------------|

x x x x X x x X x x X x x

e|------------ ------------ ------------ ------------|
B|7--------------------------------------------------|
G|7-----7--7----------------7------------------------|
D|7H9---7--7---7-----7------7------------------------|
A|------------10-----7------9------------------------|
E|---------------------------------------------------|



x X X X X

e|------------ ------12-\--|
B|-------------------12-\--|
G|-------------------12-\--|
D|-------------------------|
A|-------------------------|
E|-------------------------|
Well she's


0:35

e|------------ 0----------- ------------ ------------|
B|-------------0-------------------------------------|
G|-------------0H2P0---------------------------------|
D|-------------0-------------------------------------|
A|--------------------------7--7-----7---5H7P5-------|
E|0---------------------7----------------------5H7-\-|
walking through
the clouds


e|------------ ------------ ------------ ------------|
B|--------------------------3--3--3------3-----------|
G|-------------------2--0---2--4--2--0---2-----------|
D|---------------------------------------------------|
A|---------------------------------------------------|
E|3--------------------------------------------------|
With a circus



e|------------ ------------ ------------ ------------|
B|---------------------------------------------------|
G|--------------------------5--5--5-----------5H7P5H7|
D|--------------------------9--7--5-----------5H7P5H7|
A|---------------------------------------5--7--------|
E|5--------------------------------------------------|
mind that’s running



e|------------ 3H5P3------- ------------ ------------|
B|-------------3-------------------------8-----------|
G|--------------------4---------------------7--------|
D|---------------------------------------------7-----|
A|------------------------------------------------7--|
E|0--------------------------------------------------|
round



e|------------ 7--9--7----- ------------ ------------|
B|---------------------10---7-----7-----------6------|
G|-----------------------------7--7H9P7-------6H8P6--|
D|-------------------------------------9----8------8-|
A|---------------------------------------------------|
E|7--------------------------------------------------|
Buterflies and zebras and moonbeams



e|------------ ------------ ------------ ------------|
B|---------------------------------------------------|
G|5-----5--5---5--5--5-------------------------------|
D|7-----7--7---9--7--5------5--5--5--5---5-----5-----|
A|----------------------7---8--8--8--7---8-----7H8-\-|
E|---------------------------------------------------|
and fairy tales



e|------------ 3---3------- 3-----3----- 3-----------|
B|-------------3---3--------1-----1------1-----------|
G|-------------4H5-4--------0-----0--0---0-----------|
D|--------------------5-----3-----3------3--3--3-----|
A|------------------------------------------3--3-----|
E|3--------------------------------------------------|
That's all
she ever thinks about


e|------------ ------------|
B|-------------1-----------|
G|0------------------------|
D|2------------------------|
A|3------------------------|
E|3------------------------|
riding with the

x

e|------------ ------------ ------------ ------------|
B|3--------3---3--3------------------3------3--3-----|
G|2--------2---2--2---------2--------2------2--2-----|
D|0--------0---0--0---------0--------0------0--0-----|
A|---------------------------------------------------|
E|---------------------------------------------------|
wind


X x xxxx X X xxxx X X X X X

e|2----------- ------------ ------------ ------------|
B|3------------------------------------------8-------|
G|2------------------------------------------7-------|
D|0------------------------------------------7-------|
A|-------------------------------------------7-------|
E|---------------------------------------------------|
When I'm


1:07
H
e|------------ ------------ 121412------ ------------|
B|--------------------------12--12-12-12-------------|
G|---------------------------------14-12-12-12-------|
D|--------------------------------------14-12-12-----|
A|---------------------------------------------12H14-\
E|0--------------------------------------------------|
sad she comes to me



e|------------ ------------ ------------ ------------|
B|-------------3/5---3/5--3/5--\--3------------------|
G|-------------3/4---2/4--2/4--\--2---------7\-------|
D|------------------------------------------7\-------|
A|---------------------------------------------------|
E|3--------------------------------------------3--4--|
with a thousand



e|------------ ------------ ------------ ------------|
B|---------------------------------------------------|
G|---------------------------------------------------|
D|--------------------------------5--5---5-----------|
A|--------------------------------5--7---5-----------|
E|5---------------------5---5--8------------5H7-\----|
smiles she gives to me



e|------------ 3H5P3------- ------------ ------------|
B|-------------3-----3-------------------------------|
G|-------------------4-------------------4--2--2H4-4-|
D|--------------------------2-----2------------------|
A|---------------------------------------------------|
E|0--------------------------------------------------|
free



e|------------ -------9---- 9--7-------- ------------|
B|--------------------7-----7--7--7------------------|
G|--------------------7--7--7--7---------------7-----|
D|---------------------------------------------------|
A|---------------------------------------------------|
E|7----------------------------------5---6-----------|
It's allright, she says, it's allright

1:24

e|5----------- ------------ ------------ ------------|
B|5--7P5---------------------------------------------|
G|-------------5------------------5------------------|
D|---------7---5--7--5------5-----5--5---5--5--5--5--|
A|---------7------7--7------5--7-----8---7--8--7--5--|
E|---------------------------------------------------|
take anything you want



e|------------ ------5/7--- 5--\--3----- 3-----------|
B|--------------------------3--\--1------1-----------|
G|-----0H2-----------5/7----0--\--0------0-----------|
D|-------------0H2----------5--\--3------3-----------|
A|---------------------------------------------------|
E|3------------------------------------------- 3--3/5|
from me,



e|------------ ------------|
B|-------------------------|
G|-------------------------|
D|--------5---------5------|
A|3---------------------3--|
E|-------------------------|


x

e|--------2--- ------------ 2----------- ------------|
B|3-------3----------3------3-------3----------------|
G|2-------2----------2------2-------2----------------|
D|0-------0----------0------0-------0----------------|
A|---------------------------------------------------|
E|---------------------------------------------------|
anything

1:36
x x x X x x x X x x x x X
+
e|---12------- ------------ ------------ ------------|
B|---12----(tremolo-bar-dive)------------------------|
G|---12----------------------------------------------|
D|---------------------------------------------------|
A|---------------------------------------------------|
E|---------------------------------------------------|





e|0-----0----- 0-----0--0-- 0--0--0--0-- 0-----0-----|
B|0-----0------0-----0--0---0--0--0--0---0-----0-----|
G|0-----0------0-----0--0---0--0--0--0---0-----0-----|
D|2-----2------2-----2--2---2--2--2--2---2-----2-----|
A|2-----2------2-----2--2---2--2--2--2---2-----2-----|
E|0-----0------0-----0--0---0--0--0--0---0-----0-----|

e|------------ ------------ ------------ ------------|
B|15B17--~------------------15B17-15-----12----12H15-|
G|---------------------------------------------------|
D|---------------------------------------------------|
A|---------------------------------------------------|
E|---------------------------------------------------|




e|3-----3----- 3--------3-- 3-----3----- 3-----3--3--|
B|3-----3------3--------0---1P0---1P0----1P0---0--0--|
G|0-----0------0--------0---0-----0------0-----0--0--|
D|0-----0------0--------0---0-----0------0-----0--0--|
A|2-----2------2-------------------------------------|
E|3-----3------3--------3---3-----3------3-----3--3--|

e|------------ ------12---- ------------ ------------|
B|12--------------------15---------------------15----|
G|--------------------------14B16-14-----14B16-------|
D|---------------------------------------------------|
A|---------------------------------------------------|
E|---------------------------------------------------|
Fly on, little wing



e|5------5--5- 5--5--5--5-- 5--5--5--5-- 5--5--5---5-|
B|5------5--5--5--5--5--5---5--5--5--5---5--5--5---5-|
G|5------5--5--7--5--5--5---7--5--5--5---5--5--5---5-|
D|7------7--7--5--7--7--7---5--5--7--5---7--5--5---5-|
A|7------7--7--7--7--7--7---7--7--7--7---7--7--5H7-5-|
E|5------5--5--5--5--5--5---5--5--5--5---5--5--5---5-|

e|------------ ------------ ------------ ------------|
B|---------------------------------------------------|
G|14B16-14--~--14B16-141214B16R14B16-----16R14----12-|
D|---------------------------------------------------|
A|---------------------------------------------------|
E|---------------------------------------------------|




e|------------ ------------ ------------ ------------|
B|---------------------------------------------------|
G|-------------12----12-12---------------12-12--12-12|
D|-----12-14---12----12-12-----12-12-----12-12--12-12|
A|-----12-14-------------------12-12H14--------------|
E|0-------------------------0------------------------|

e|------------ ------------ ------------ ------------|
B|---------------------------------------------------|
G|-------------12-14B16-12--14----12-14--12-14--~----|
D|14---------------------------14--------------------|
A|---------------------------------------------------|
E|---------------------------------------------------|




e|------------ 7--9-10--9-- 7----------- ------------|
B|------7--7---7--7--7--7---7-----7--7------6--6-----|
G|------7--7---7--7--7--7---7-----7--7------6--6-----|
D|------9--9----------------9-----9--9------8--8-----|
A|9-----9--9----------------9-----9--9------8--8-----|
E|7-----7--7----------------7-----7--7------6--6-----|

e|------------ ------------ ------------ ------------|
B|---------------------------------------------------|
G|12H14--~-----14B16--~-----14P12--------14B16-------|
D|---------------------------------------------------|
A|---------------------------------------------------|
E|---------------------------------------------------|




e|5-----5--5-- 5--5--5----- 0--------0-- 2--2--2--2--|
B|5-----5--5---5--5--5------1--------1---3--3--3--3--|
G|5-----5--5---5--5--5------0--------0---2--2--2--2--|
D|7-----7--7---7--7--7------2--------2---0--0--0--0--|
A|7-----7--7---7--7--7------3--------3---------------|
E|5-----5--5---5--5--5------3--------3---------------|

e|------------ ------------ ------------ ------------|
B12H13R12-1312-13--12-------15B17--~-----17-R-15--12-|
G|--------------------12-----------------------------|
D|---------------------------------------------------|
A|---------------------------------------------------|
E|---------------------------------------------------|




e|3-----3----- 3-----3--3-- 1-----1--1-- 1--1--1--1--|
B|3-----3------3-----3--3---1-----1--1---1--1--1--1--|
G|0-----0------0-----0--0---2-----2--2---2--2--2--2--|
D|0-----0------0-----0--0---3-----3--3---3--3--3--3--|
A|2-----2------2-----2--2---3-----3--3---3--3--3--3--|
E|3-----3------3-----3--3---1-----1--1---1--1--1--1--|

e|------15-15- -----15----- 13-13------- ------------|
B|---------------------------------------13------13--|
G|14B16--------14B16--14R12-------12-----12------12--|
D|---------------------------------------------------|
A|---------------------------------------------------|
E|---------------------------------------------------|




e|0-----0----- 0--0--0--0--|
B|1-----1------1--1--1--1--|
G|0-----0------0--0--0--0--|
D|2-----2------2--2--2--2--|
A|3-----3------3--3--3--3--|
E|3-----3------3--3--3--3--|

e|------------ ------------|
B|8------------8-----------|
G|7------------7H9R7-------|
D|------10-----------10----|
A|-------------------------|
E|-------------------------|


x

e|2-----2----- 2--2--2----- 2-----2--2-- 2--2--2-----|
B|3-----3------3--3--3------3-----3--3---3--3--3-----|
G|2-----2------2--2--2------2-----2--2---2--2--2-----|
D|0-----0------0--0--0------0-----0--0---0--0--0-----|
A|---------------------------------------------------|
E|---------------------------------------------------|

e|------------ ------------ ------------ ------------|
B|-------------8------8--8--8------8-----------------|
G|-------------7-H-9--9--9--9P7----7-----------------|
D|10/12---12--------------------12-------------12----|
A|---------------------------------------------------|
E|---------------------------------------------------|


2:08
x x X x x X x x X x X x X X x
+
e|---12------- ------------ ------------ ------------|
B|---12--(Tremolo-bar-dive)--------------------------|
G|---12----------------------------------------------|
D|---------------------------------------------------|
A|---------------------------------------------------|
E|---------------------------------------------------|




e|0----------- 0----------- ------------ ------------|
B|0------------0------------8-----8------------------|
G|0------------0------------7H9---7------7-----7-----|
D|2------------2-------------------------7H9---7H9---|
A|2------------2-------------------------------------|
E|0------------0-------------------------------------|

e|------------ 12---------- ------------ ------------|
B|15B17--~------------------15B17--15----------------|
G|--------------------------------------14B16-14P12--|
D|-------------------------------------------------12|
A|---------------------------------------------------|
E|---------------------------------------------------|
Yeah, yeah, yeah, yeah



e|---------3-- 3--3--3--3-- ------------ ------------|
B|---------3---3--3--3--3---3--3--3------------------|
G|---------4---5--5--5--4---5--4--5------------------|
D|---------5---5--5--5--5---5--5--5------------------|
A|---------------------------------------------------|
E|3--------------------------------------3-----4-----|

e|------------ 15-------15- ----15----15 ---15-------|
B|---------------------------------------------------|
G|14B16--~------------------14B16-14B16-14B16-14B16--|
D|---------------------------------------------------|
A|---------------------------------------------------|
E|---------------------------------------------------|
...........Fade..........



e|------------ ------------ ------------ ------------|
B|---------------------------------------------------|
G|--------------------------7-5----------------------|
D|------7------------7------7-5-7-5-7-5--------------|
A|7-----7------------7-------------------7-5---------|
E|5------------------------------------------7-6-5-3-|

e|------------ ------------ ------------ ------------|
B|---------------------------------------------------|
G|16R14---12---14----12-14--14B16--~--R--14-12H14P12-|
D|----------------14---------------------------------|
A|---------------------------------------------------|
E|---------------------------------------------------|
...................................................



e|------------ ------------ ------------ ------------|
B|---------------------------------------------------|
G|---------12--14P12----12---------------------------|
D|------14-12--14P12-14-12---------------------------|
A|------14-----------14------------------------------|
E|0--------------------------------------------------|

e|------------ ------------ ------------ ------------|
B|---------------------------------------------------|
G|---------12--14P12----12---------------------------|
D|14-------12--14P12-14-12--12-----------------------|
A|-------------------14-----12-----------------------|
E|---------------------------------------------------|
...............................



B Bend
R Release
/ Slide up
\ Slide down
H Hammer-on
P Pull-off
~ Vibrato
+ Harmonic
x Mute note
. - Play note like a dot in standard notation
^ - Ties two notes together
(. Pause
Song info
Little Wing
Jimi Hendrix
1982
  • Pop
  • Rock
  • Classic Rock
  • Psychedelic Rock
Similar songs
You Wreck Me - Tom Petty
Crazy On You - Heart
Hurts So Good - John Mellencamp

Hi! Hope you enjoy backing track experience.
If you want to help us in the development of the project, feel free to donate!