Red House - Jimi Hendrix
00:00 / 00:00
Tabs and lyrics
Tunning: Standard (E A D G B e)
[Intro]
B7
Gtr I
D#|------------------------||-----11----11------------11----11----11-|
A#|------------------------||-/10-10----10----(10)----10----10----10-|
F#|------------------------||-/11----11----11------11----11----11----|
C#|------------------------||----------------------------------------|
G#|------------------------||----------------------------------------|
D#|--------------x-(x)-----||----------------------------------------|
|
| Gtr II
D#|------------------------||----------------------------------------|
A#|------------------------||----------------------------------------|
F#|--------------------(0)-||----------------------------------------|
C#|------------------------||----------------------------------------|
G#|------------------------||------------9-------------------9-------|
D#|--------------------(0)-||---7--------7----------7--------7-------|


Bdim7

D#|-------10----10---10----10----10---10---|
A#|-10s=9--9-----9-9--9-----9-----9-9--9---|
F#|-11s10----10---------10----10------10---|
C#|----------------------------------------|
G#|----------------------------------------|
D#|----------------------------------------|
|
|
D#|----------------------------------------|
A#|----------------------------------------|
F#|----------------------------------------|
C#|----------------------------------------|
G#|--------------9----------------9--------|
D#|-----7--------7-------7--------7--------|


B5 N.C.
~~~~~ ~~~~~ ~~~~~

D#|------------------------------------------------|
A#|------10b12==(10)r--10b12==(10)r--10b12==(10)r--|
F#|------------------------------------------------|
C#|------------------------------------------------|
G#|-9----------------------------------------------|
D#|-7----------------------------------------------|
|
|
D#|------------------------------------------------|
A#|------------------------------------------------|
F#|------------------------------------------------|
C#|------------------------------------------------|
G#|-9----------------------------------------------|
D#|-7----------------------------------------------|



D#|---------------------------7------9-7------------------|
A#|-10b12-10-10pb12-10------7---10-7-----10-7-------------|
F#|--------------------9b11-------------------9b11==(9)r--|
C#|-------------------------------------------------------|
G#|-------------------------------------------------------|
D#|-------------------------------------------------------|
|
|
D#|-------------------------------------------------------|
A#|-------------------------------------------------------|
F#|-------------------------------------------------------|
C#|-------------------------------------------------------|
G#|-------------------------------------------------------|
D#|-------------------------------------------------------|


E5 E6 E5 E7
~~~~~~~~~~~~~~~~~~~~~~~~~
D#|------------------------------------------|
A#|-------------------------------(7)-(7)----|
F#|-7-9b11==(9)r-7----(7)----(7)--(7)-(7)----|
C#|------------------------------------------|
G#|------------------------------------------|
D#|------------------------------------------|
|
|
D#|------------------------------------------|
A#|------------------------------------------|
F#|------------------------------------------|
C#|------------------------------------------|
G#|-2------------------2---4--2--------5---4-|
D#|-0---------------0--3---4--0----0---0-----|


E5 E6 E7
~~~~~~ ~~~
D#|--------------------------------7-------7---------------------|
A#|------------------------------7---10------<7>-----------------|
F#|-7h8-9b11==(9)r-7-(7)----9b11-------------<7>---9b11====(9)r--|
C#|--------------------------------------------------------------|
G#|--------------------------------------------------------------|
D#|--------------------------------------------------------------|
|
|
D#|--------------------------------------------------------------|
A#|--------------------------------------------------------------|
F#|--------------------------------------------------------------|
C#|--------------------------------------2-----------------------|
G#|-2-----------------2---4----------------5-------------5s=9----|
D#|-0--------------0--3---4-0------------------------------------|


B5 B6 B7 B6
|3|
D#|---7--7----------------------------------------|
A#|-7---10p7---7h=9-7-----------------------------|
F#|----------9---------9-7h=8---------------------|
C#|---------------------------9-7-----------------|
G#|-------------------------------9--8-7-5s=7-----|
D#|-----------------------------------------------|
|
|
D#|-----------------------------------------------|
A#|-----------------------------------------------|
F#|-----------------------------------------------|
C#|-----------------------------------------------|
G#|-9--------9---11---11---12-------12-----11--11-|
D#|-7-------------7---------7---------------7-----|


B5 B6 B5 B6
~~ ~~~~~~~
D#|---------------------------------------------------------------|
A#|-------------------------------12-(12)-14b16------14b16-14b16--|
F#|----------------------11h12s13---------------------------------|
C#|-----------9----11s13------------------------------------------|
G#|------9-11-----------------------------------------------------|
D#|-9s11----------------------------------------------------------|
|
|
D#|---------------------------------------------------------------|
A#|---------------------------------------------------------------|
F#|---------------------------------------------------------------|
C#|---------------------------------------------------------------|
G#|----9---------9----11-------11------9--------9-11--------7-----|
D#|----7---------------7---------------7-----------7--------------|


F#5 F#6 F#5 F#6
~~~~~ ~~~~~ ~~~
|--3--|
|----------14---------14--------------------------------------|
|-14b16-------14b16------14pb16==(14)r(14)-12h14p12h14-12-----|
|-------------------------------------------------------------|
|-------------------------------------------------------------|
|-------------------------------------------------------------|
|-------------------------------------------------------------|
|
|
D#|-------------------------------------------------------------|
A#|-------------------------------------------------------------|
F#|-------------------------------------------------------------|
C#|-------------------------------------------------------------|
G#|--4-----4--6-------6--4-----------------------4--------6---4-|
D#|--2-----2--2-------2--2--------------------------------2---2-|


E5 E6 E7
~~~~~ ~~~~~~~
D#|------------------------------------------------------------------------------14-|
A#|---15pb16==(15)r(15)b19====(15)-(15)r------15b19==(15)r(15)---12-(12)-14b16------|
F#|---------------------------------------------------------------------------------|
C#|---------------------------------------------------------------------------------|
G#|---------------------------------------------------------------------------------|
D#|---------------------------------------------------------------------------------|
|
|
D#|---------------------------------------------------------------------------------|
A#|---------------------------------------------------------------------------------|
F#|---------------------------------------------------------------------------------|
C#|---------------------------------------------------------------------------------|
G#|-2--------------------------------2----4-2-------------------------5--------7s=9-|
D#|-0-----------------------0--------3----4-0------------------2------0-------------|


B5 B6 B5 Bm6
~~
|3|
D#|------------------------7-------10p7--------9b11-7---------|
A#|-14-12-(12)\----------7---10--7---------------------7------|
F#|-----------------4s=8---------------------------------9b11-|
C#|-----------------------------------------------------------|
G#|-----------------------------------------------------------|
D#|-----------------------------------------------------------|
|
|
D#|-----------------------------------------------------------|
A#|-----------------------------------------------------------|
F#|-----------------------------------------------------------|
C#|-----------------------------------------12----------------|
G#|--9----------9-----11--------11----9---9-11--------11------|
D#|--7-----------------7---------7--------7-------------------|


B5 E7E#F#7 A#5
>
D#|--------------------------------||
A#|-7------------------------------||
F#|---7----------------------------||
C#|-----7--------------------------||
G#|----------9-(9)-----(9)---------||
D#|--------------------------------||
|
|
D#|--------------------------------||
A#|--------------------------------||
F#|----------------7-8--9----9-----||
C#|----------------6-7--8----8-----||
G#|-9------9-------7-8--9----9---8-||
D#|-7----------------------------6-||


[Verse]
B5 B6 B7 B6 B5 E5 E6 E5 E7
|-3-|
D#|--------------------------7--7-------|----------------------|
A#|----------7------------7h=9----7-----|----------------------|
F#|-------7h=8----------------------7---|----------------------|
C#|-----------------------------------9-|----------------------|
G#|-------------------------------------|----------------------|
D#|-------------------------------------|-0--------------------|
|
|
D#|-------------------------------------|----------------------|
A#|-------------------------------------|----------------------|
F#|-------------------------------------|----------------------|
C#|-------------------------------------|----------------------|
G#|-----9---11--9-12---12---11--------9-|-----2-2--4-2--2-5--4-|
D#|-7---7----7--7--7----7----7--------7-|-0---0-3--4-0----0----|


B5 Bm6 B5 B6
~~~~~~~~~~ ~~~~
D#|--------7-----------------------------------7-----------|
A#|------7---10----(10)-7--------------------7---10-7----7-|
F#|-9b11-----------------------9b11==(9)r--------------9---|
C#|--------------------------------------------------------|
G#|--------------------------------------------------------|
D#|--------------------------------------------------------|
|
|
D#|--------------------------------------------------------|
A#|--------------------------------------------------------|
F#|--------------------------------------------------------|
C#|--------------9--12-------------------------------------|
G#|-9------------9--11----11-9------------9-11--------11---|
D#|-7------------------------7---------------7-------------|


B5 B6 B7 B6 B5
~~~
D#|---------------------------7---------------------|
A#|-----------7-7----10-------7---------------------|
F#|-9-----7h9------------9b11---7-9----7h=9p7-------|
C#|----9----------------------------9---------9-7---|
G#|-------------------------------------------------|
D#|-------------------------------------------------|
|
|
D#|-------------------------------------------------|
A#|-------------------------------------------------|
F#|-------------------------------------------------|
C#|---------------------------------7---------------|
G#|-9--9-11-------11----12---------------11-----9---|
D#|-7-----7--------------7----------------7---------|


E5 E6E5 E7 E5 E6 E5 E7 A#5
D#|---------------------7--------|--------------------------|
A#|-------------------7h9--7-----|--------------------------|
F#|--------------------------7---|--------------------------|
C#|----------------------------9s|=2----------(2)----(2)----|
G#|------------------------------|--------------------------|
D#|-0----------------------------|--------------------------|
|
|
D#|------------------------------|--------------------------|
A#|------------------------------|--------------------------|
F#|------------------------------|--------------------------|
C#|-------------2----------------|--------------------------|
G#|-----2-----4-2---2---5------4-|-2-----2--4--2------5S=8--|
D#|-0-----3---4-0---0----------0-|-0---0-3--4--0---0--0--6--|


B5 B6 B5 B6 B5 B6 B5 B6
~~ ~~
D#|------------------------------|---------------------------------------|
A#|------------------------------|---------------------------------------|
F#|-2s4------------4s2-----------|---------2s4-(4)-2---------------------|
C#|------------------------------|---2-3-4-----------4--3-2-0----------0-|
G#|------------------------------|-5--------------------------2----x-x-0-|
D#|------------------------------|---------------------------------------|
|
|
D#|------------------------------|---------------------------------------|
A#|------------------------------|---------------------------------------|
F#|------------------------------|---------------------------------------|
C#|------------------------------|---------------------------------------|
G#|---9-----11--11---9-----9--11-|-9-------9---11------11---9-----11-----|
D#|---7---7--7-------7---7-7---7-|-7-------7----7-------7---7---7--7---0-|


F#5 F#6 F#5 F#6 F#5 E5 E6 E5 E7
D#|--------------------------------|---------------------------|
A#|--------------------------------|---------------------------|
F#|--------------------------------|---------------------------|
C#|------------------------------4-|---------------------------|
G#|-4------------------------4h6---|---------------------------|
D#|-2-----2-----(2)--(2)-4s6-------|-0----------(0)----(0)-----|
|
|
D#|--------------------------------|---------------------------|
A#|--------------------------------|---------------------------|
F#|--------------------------------|---------------------------|
C#|--------------------------------|---------------------------|
G#|-4---4-6---6--4----4----6-----4-|-2---2-2--4--2------5---4--|
D#|-2---2-4------4----4----2-----2-|-0---0-3--4--0---0--0------|


B5 B6 B5 B6
~~~~~~
D#|-------------2---4---2---------------------------------|
A#|-3b4==(3)---(3)-(3)-(3)-3r(3)----------------------7-4-|
F#|----------------------------------4h6---4-(4)-6b8------|
C#|------------------------------4s6-4h6------------------|
G#|-------------------------------------------------------|
D#|-------------------------------------------------------|
|
|
D#|-------------------------------------------------------|
A#|-------------------------------------------------------|
F#|-------------------------------------------------------|
C#|-------------------------------------------------------|
G#|-9--------9-11------------11--9-------9---11------11---|
D#|-7-----------7----------------7------------7-----------|


B5 B6 B5A5F#7 A#5
~~
D#|-4s7---------------------------||
A#|-4s7--------------7------------||
F#|--------------6s8--------------||
C#|-------------------------------||
G#|--------------------9----------||
D#|-------------------------------||
|
|
D#|-------------------------------||
A#|-------------------------------||
F#|--------------------9----9-9---||
C#|------------------7-8----8-8---||
G#|---9-----9-11---9-7-9----9-9-8-||
D#|---7-----7--7---7------------6-||


[Verse]

B5 B6 B7 B6 B5 E5 E6 E5 E7 E6
|3| |3|
D#|-------------7-------7--------------------------|-------------------------|
A#|-------------7h9-(9)---7------------------------|-------------------------|
F#|-------------------------7---------7h=9-7-------|-------------------------|
C#|----------------------------9-------------9p7h9-|-------------2-----------|
G#|------------------------------------------------|-------------------------|
D#|-7-----(7)-0------------------------------------|-0-----0-----------------|
|
|
D#|------------------------------------------------|-------------------------|
A#|------------------------------------------------|-------------------------|
F#|------------------------------------------------|-------------------------|
C#|------------------------------------------------|-------------------------|
G#|-9---9-11--------11--------12---12---11-------9-|-2---2-2---4-2-----5---4-|
D#|-7------7-------------------7----7----7-------7-|-0---0-3---4-0---0-0---0-|


B5 B6 B7 B6
~~~~~~~~~~~~~~
|--3---| |-3-| |-3--|
D#|--------7---------------------7----7---------------7------9--7------|
A#|------7---10b12====(10)r--------10---------------7---10p7------7h10-|
F#|-9b11---------------------------------------9b11--------------------|
C#|--------------------------------------------------------------------|
G#|--------------------------------------------------------------------|
D#|--------------------------------------------------------------------|
|
|
D#|--------------------------------------------------------------------|
A#|--------------------------------------------------------------------|
F#|--------------------------------------------------------------------|
C#|--------------------------------------------------------------------|
G#|-9---------------9--11----11-12---------12-11---------------11------|
D#|-7-------------------7-----7--7----------7--7----------------7------|


B5 B6 B7 B6 A5/E
~~
|-3--| |-3--| |--4:3--|
D#|-------------------7--------------7------10-12-10---------------------|
A#|-(10)b12==(10)r------10p7------7----10-7----------12-10---------------|
F#|--------------------------9b11--------------------------11-10-9-7p==0-|
C#|----------------------------------------------------------------------|
G#|----------------------------------------------------------------------|
G#|----------------------------------------------------------------------|
|
|
D#|----------------------------------------------------------------------|
A#|----------------------------------------------------------------------|
F#|----------------------------------------------------------------------|
C#|------------------------------------------------------------------7---|
G#|---9------------9-11-------------11---------12-------12----11-----7---|
D#|---7------------7--7--------------7----------7--------7-----7---------|


E5 E6 E5 E7 E5 E6 E5 E7 A5B5
D#|---------------------------|-----------------------------|
A#|-----------------------5s3-|-----------------------------|
F#|---------------------------|-----------------------------|
C#|-------------------4s6-----|-----------------------------|
G#|---------------------------|-----------------------------|
D#|-0-----0-----0-------------|-0----------0-----(0)--------|
|
|
D#|---------------------------|-----------------------------|
A#|---------------------------|-----------------------------|
F#|---------------------------|-----------------------------|
C#|---------------------------|-2---2----------2------------|
G#|-----2-2---4-----2---5-4-2-|-2-----4--4-2------5--4-7s9--|
D#|-0---0-3---4-0---0-------0-|-------3--4-0------0----5s7--|


B5 B6 B5 B6
~~~~
D#|-------7-------7-------7-----------7------(7)-------------------------|
A#|-7-----7-------7-7------------------------------------7---------------|
F#|-9b11-----9b11---9b11r(9)b11==(9)r(9)b11==(9)r--9b11----9b11r(9)p7----|
C#|--------------------------------------------------------------------9-|
G#|----------------------------------------------------------------------|
D#|----------------------------------------------------------------------|
|
|
D#|----------------------------------------------------------------------|
A#|----------------------------------------------------------------------|
F#|----------------------------------------------------------------------|
C#|----------------------------------------------------------------------|
G#|-9-----9-11-------------------11-----------9----9----11------------11-|
D#|-7-----7--7--------------------------------7----7-----7---------------|


B5 B6 B5 B6 B5
~~ ~~~~~~~~
|-3-|
D#|-----------------------------------|
A#|-----------------------------------|
F#|-7---------------------------------|
C#|--------9p7---7---(7)--------------|
G#|------------9----------------------|
D#|-----------------------x-----------|
|
|
D#|-----------------------------------|
A#|-----------------------------------|
F#|-----------------------------------|
C#|-----------------------------------|
G#|-9---9-11----------9-----11--9-6s4-|
D#|-7---7--7----------7---------7-----|


F#5 F#6 F#5 F#6 E5 E6 E5 E7 F#5
D#|------------------9s11s9s6s9s|=7-----(7)-------------------|
A#|-----------------------------|-----------------------------|
F#|------------------9s11s9s6s9s|=7-----(7)-------------------|
C#|-----------------------------|-----------------------------|
G#|-----------------------------|-----------------------------|
D#|-----------------------------|-----------------------------|
|
|
D#|-----------------------------|-----------------------------|
A#|-----------------------------|-----------------------------|
F#|-----------------------------|-----------------------------|
C#|-----------------------------|---------------2---2---------|
G#|-4---4-6--6-4---4----6-4-6---|-2------2----4-2---2-5-4-4/--|
D#|-2---2-2--2-2---2----2---2---|-0---0--3----4-0-----0---2/--|


B5 B6 B5 B6
~~~~~~~~~~~~~
D#|--------------------7-----------------------------------|
A#|-----------------7----10-7------7---7-------------------|
F#|----9b11====(9)r-----------9b11---7------7s9s7----------|
C#|--------------------------------------9---------9p7-----|
G#|----------------------------------------------------9p7-|
D#|--------------------------------------------------------|
|
|
D#|--------------------------------------------------------|
A#|--------------------------------------------------------|
F#|--------------------------------------------------------|
C#|--------------------------------------------------------|
G#|-9--------9-11-----11----9----------9---11-----11-------|
D#|-7--------7--7-----------7----------7----7--------------|


B5 B6 B5 F#7 A#5
~~
D#|-------------------------------||
A#|-------------------------12-12-||
F#|----------------------11-------||
C#|-------------------------------||
G#|-------------------------------||
D#|-------------------------------||
|
|
D#|-------------------------------||
A#|-------------------------------||
F#|-------------7-9-------9-------||
C#|-------------7-8----8--8-------||
G#|-9----9-11-9-7-9--7-9--9--7--8-||
D#|-7----7--7-7-----------------6-||


[Solo]

B5 B6 B7 E6
~~ ~~~~~~~
D#|-----10-12b14-----10-----------10b12==(10)r-------|
A#|-12------------------12-(12)----------------------|
F#|--------------------------------------------------|
C#|----------------------------------------------x---|
G#|--------------------------------------------------|
D#|--------------------------------------------------|
|
|
D#|--------------------------------------------------|
A#|--------------------------------------------------|
F#|--------------------------------------------------|
C#|-----------------------------7----------------0---|
G#|--9---9-11-----11-12-----------11-------------0---|
D#|--7---7--7------7--7------------7-----------------|


E5 E6 E5 E7 F#5
|--3--| |--3---|
D#|------------14b16----14-12-14-10-12-12b14-10h12p10----10h=12p10----|
A#|---------12----------------------------------------12-----------12-|
F#|---11s13-----------------------------------------------------------|
C#|-------------------------------------------------------------------|
G#|-------------------------------------------------------------------|
D#|-------------------------------------------------------------------|
|
|
D#|-------------------------------------------------------------------|
A#|-------------------------------------------------------------------|
F#|-------------------------------------------------------------------|
C#|----------2--------------------------------------------------------|
G#|-2--------2--2-----4--2--------2-----5-----4-----------4/----------|
D#|-0-----------3-----4--0--------------------------------2/----------|


B5 B6 B7 B6
|--3--| |--3--| |-3--|
D#|-10h12p10----10-12b14==(12)r-10h12p10-----------------7------------------------|
A#|----------12--------------------------12-10b12==(10)r-7-7h10p7-----------------|
F#|---------------------------------------------------------------9--7---7h8------|
C#|--------------------------------------------------------------------9----------|
G#|-------------------------------------------------------------------------------|
D#|-------------------------------------------------------------------------------|
|
|
D#|-------------------------------------------------------------------------------|
A#|-------------------------------------------------------------------------------|
F#|-------------------------------------------------------------------------------|
C#|--------------------------------------------------------7----------------------|
G#|--9--------------9------11-----------------------12--------------11----------7-|
D#|--7----------------------7-------------7----------7---------------7------------|


B5 B6 B7 B6
D#|---------------7-------9p7---10p7---10p7---10p7---10p7---10p7---10p7---|
A#|-------------7---10p7------7------7------7------7------7------7------7-|
F#|--------9b11-----------------------------------------------------------|
C#|-----------------------------------------------------------------------|
G#|-----------------------------------------------------------------------|
D#|-----------------------------------------------------------------------|
|
|
D#|-----------------------------------------------------------------------|
A#|-----------------------------------------------------------------------|
F#|-----------------------------------------------------------------------|
C#|-----------------------------------------------------------------0-----|
G#|-9---9-11-------------11-----12------------12-----11-------------0-----|
D#|-7------7---------------------7--------------------7-------------------|


E5 E6 E5 E7
D#|-10p7---10p7---10p7---10p7---10p7---10p7---10p7---10p7---10p7---10p7---10p7---10b12===|
A#|------7------7------7------7------7------7------7------7------7------7------7---------|
F#|--------------------------------------------------------------------------------------|
C#|--------------------------------------------------------------------------------------|
G#|--------------------------------------------------------------------------------------|
D#|--------------------------------------------------------------------------------------|
|
|
D#|--------------------------------------------------------------------------------------|
A#|--------------------------------------------------------------------------------------|
F#|--------------------------------------------------------------------------------------|
C#|--------------------------------------------------------------------------------------|
G#|--2-------------2------2-------------4------2-------------2------5------4------2------|
D#|--0--------------------3-------------4------0-------------0---------------------------|


E5 E6 E5 E7 B5
|-3-|
D#|-(10)r-10-7-9p7----7----------------7-------------7---------------------|
A#|----------------10---10b12====(10)r---10-7------7---10p7------7---------|
F#|-------------------------------------------9b11----------9b11-----9p7---|
C#|----------------------------------------------------------------------9-|
G#|------------------------------------------------------------------------|
D#|------------------------------------------------------------------------|
|
|
D#|------------------------------------------------------------------------|
A#|------------------------------------------------------------------------|
F#|------------------------------------------------------------------------|
C#|------------------------------------------------------------------------|
G#|---2-------------2----------4-------2-----------2----5---4------7s9-----|
D#|---0--------0----3----------4-------0----------------0----------5s7-----|


B6 B5 B6
~
|--3---| |--3--| |3|
D#|-----------------7----7--9p7---10b12-10-7------7-10b12-10--7---|
A#|-9-------------7---10-7------7------------7-10-7-------------7-|
F#|-9---7----9b11-------------------------------------------------|
C#|---9-----------------------------------------------------------|
G#|---------------------------------------------------------------|
D#|---------------------------------------------------------------|
|
|
D#|---------------------------------------------------------------|
A#|---------------------------------------------------------------|
F#|---------------------------------------------------------------|
C#|---------------------------------------------------------------|
G#|-9-----9-11-------------11------9-------9---11------------11---|
D#|-7-----7--7---------------------7------------7-------------7---|


B5 B6 B5 B6
|--3--| |3| |-3-|
D#|-10b12-10-7---10b12-10-7--------------------14-14-14-14----|
A#|------------7------------7-------15s17-(17)-------------14-|
F#|-----------------------------------------------------------|
C#|-----------------------------------------------------------|
G#|-----------------------------------------------------------|
D#|-----------------------------------------------------------|
|
|
D#|-----------------------------------------------------------|
A#|-----------------------------------------------------------|
F#|-----------------------------------------------------------|
C#|---------------------------------------------------------0-|
G#|--9------------9----11--------11---------9------9-11-----0-|
D#|--7------------7-----7---------7---------7------7----------|


F#5 F#6 F#5 F#6 F#5
D#|-17b19==(17)r(17)-14-14h17p14----17p14--------------------------------------------------|
A#|------------------------------17-------17b19==(17)r-17-15-17p15----15b16==(15)-(15)r\---|
F#|----------------------------------------------------------------16----------------------|
C#|----------------------------------------------------------------------------------------|
G#|----------------------------------------------------------------------------------------|
D#|----------------------------------------------------------------------------------------|
|
|
D#|----------------------------------------------------------------------------------------|
A#|----------------------------------------------------------------------------------------|
F#|----------------------------------------------------------------------------------------|
C#|----------4---------------------------------------------------------------------------0-|
G#|----------4--------4--------------6-------------4-------4--------6----------4---------0-|
D#|----------2--------2--2-----------2-------------2----------------4----------2-----------|


E5 E6 E5 E7 E6G#5
D#|---------7-------10------------14b17-14-14b17-14---14b17-|
A#|-------7---10s12----12p10---12-14b17---------------------|
F#|---6s8--------------------x------------------------------|
C#|---------------------------------------------------------|
G#|---------------------------------------------------------|
D#|---------------------------------------------------------|
|
|
D#|---------------------------------------------------------|
A#|---------------------------------------------------------|
F#|---------------------------------------------------------|
C#|-----------------------------------------2---------------|
G#|---------------2--2----------4--2--------2-----5-4--6----|
D#|-0-------------0--3----------4--0----------------0--4----|


B5 B6 B5 B6
~~ ~~
D#|-14-12-14------------------7-14s19----------------7-----7---|
A#|------------15b16--------7----------------------7---10--7---|
F#|---------------------6s8-------------7-----9b11-----------7-|
C#|------------------------------------------------------------|
G#|------------------------------------------------------------|
D#|------------------------------------------------------------|
|
|
D#|------------------------------------------------------------|
A#|------------------------------------------------------------|
F#|------------------------------------------------------------|
C#|------------------------------------------------------------|
G#|--9-------9-------11-------9-----9------9-11-----------11---|
D#|--7-------7--------7-------------7---------7----------------|


B5 B6 F#7 A#5
D#|----------------7------------------------||
A#|--------------7h9-7----------------------||
F#|--------------------7---------9-9---9-9--||
C#|-9--------------------9------------------||
G#|---9-(9)----------------9-(9)-----x------||
D#|-----------------------------------------||
|
|
D#|-----------------------------------------||
A#|-----------------------------------------||
F#|---------------------------9----9-9------||
C#|----------------------0----8----8-8------||
G#|-9-------9-11---9-----0----9----9-9-9-8--||
D#|-7-------7--7-------------------------6--||


[Verse]
BsusB5B6 B7 B6 B5 E5 E6 E5 E7 F#5
|---3---|
D#|-----------------------------------------|-7s9s7------------------------|
A#|---------------------x-(7)s(9)--9s==7----|------------------------------|
F#|---------------------x-------------------|-7s9s7-7-(7)----(7)-----------|
C#|---------------------x--7s==9--(9)s(7)---|------------------------------|
G#|-----------------------------------------|------------------------------|
D#|-----------------------------------------|------------------------------|
|
|
D#|-----------------------------------------|------------------------------|
A#|-----------------------------------------|------------------------------|
F#|-9---------------------------------------|------------------------------|
C#|---------------------------------------0-|------------------------------|
G#|-9---9-11--11-12--12---11-----------9--0-|-------2--2---4--2---2-5--4-4-|
D#|-7---7--7---7--7---7----7-----------7----|---0---0--3---4--0---0-0----2-|


B5 B6 B5 B6 B5
~~~~~~
|3|
D#|-7------------------------------------(0)-|
A#|-7h9-7------------------------------------|
F#|-------9-7h8------------------------------|
C#|--------------9-7-------------------------|
G#|------------------9-8--7-5-(5)------------|
D#|------------------------------------------|
|
|
D#|------------------------------------------|
A#|------------------------------------------|
F#|------------------------------------------|
C#|------------------------------------------|
G#|-9-------9---11-------11----9---9-11---9--|
D#|-7-------7----7--------7----7---7--7---7--|


B6 B5 B6 B5
~~~~~~~~~~
D#|--------7---------------------------------|
A#|------7---10p7----------------------------|
F#|-9b11----------7-(7)----------------------|
C#|---------------------9p7----7-----(7)-----|
G#|--------------------------9---------------|
D#|------------------------------------------|
|
|
D#|------------------------------------------|
A#|------------------------------------------|
F#|------------------------------------------|
C#|----------------------------------------0-|
G#|-9-------------9-11------11-9-----11--9-0-|
D#|-7-------------7--7-------7-7---7--7--7---|


E5 E6 E5 E7 E6 E5 E6 E5 E7 G#5
~~~~~~
D#|-------------------------------|----------------------0--|
A#|-------------------------------|-------------------------|
F#|-----------------9s7-(7)-------|-------------------------|
C#|-------------------------------|-------------------------|
G#|------------9s11-----------11\-|-------------------------|
D#|-------------------------------|-0-----------------------|
|
|
D#|-------------------------------|-------------------------|
A#|-------------------------------|-------------------------|
F#|-------------------------------|-------------------------|
C#|-2-----------------------------|----2-------2------------|
G#|-2---2-2--4----2---2--5--4--2--|-2--2-2---4-2---2-5-4-6/-|
D#|-----0-3--4----0---0--0--0-----|-0----3---4-----0-0---4/-|


B5 B6 B5 B6
TP TP TP TP
D#|----11---11------11------------|
A#|-10-10---10------10------------|
F#|-11-11---11------11------------|
C#|-------------------------------|
G#|-------------------------------|
D#|-------------------------------|
|
|
D#|-------------------------------|
A#|-------------------------------|
F#|-------------------------------|
C#|-------------------------------|
G#|--9----9-11---11--9---9-11--11-|
D#|--7----7--7----7--7---7--7---7-|


B5 B6 B5 B6 B5
TP
|-3-| |-3-|
D#|------11---11-------------------------------7-------------------|
A#|------10---10---------10---10\------------7---10p7--------------|
F#|-11p9-11---11-11s9s11-11s9-11\-9p7---7h=8----------9b11r(9)p7---|
C#|-----------------------------------9--------------------------9-|
G#|----------------------------------------------------------------|
D#|----------------------------------------------------------------|
|
|
D#|----------------------------------------------------------------|
A#|----------------------------------------------------------------|
F#|----------------------------------------------------------------|
C#|---------------------------------------------------------0------|
G#|--9------9-11---------11----9------9---11------9---------0------|
D#|--7------7--7----------7----7------7----7------7----------------|


F#5 F#6 F#5 F#6 F#5 E5
D#|-------------------------|--------------------|
A#|-------------------------|--------------------|
F#|-------------------9-9-9-|--------------------|
C#|-------------------8-8-8-|-9-(9)--------------|
G#|-9----------(9)----9-----|-7-(7)--------------|
D#|-------------------------|--------------------|
|
|
D#|-------------------------|--------------------|
A#|-------------------------|--------------------|
F#|-------------------------|--------------------|
C#|-------------------------|--------------------|
G#|-4---4-6--6--4---4-6---4-|-2------------------|
D#|-2---2-2-----2---2-2---2-|-0------------------|


B5 B/D# E E#dim7 B/F# C7 B13
D#|---------7-9-7----7-9b11-7h9p7-----7-|-9b12------------------7--7---------|
A#|-7-------------9---------------9-----|---------------------7h9----7-------|
F#|-9b11--------------------------------|----------9--8-(8)------------9-7h8-|
C#|-------------------------------------|----------8--7-(7)------------------|
G#|-------------------------------------|------------------------------------|
D#|-------------------------------------|--------0---------------------------|
|
|
D#|-------------------------------------|------------------------------------|
A#|-------------------------------------|------------------------------------|
F#|-------------------------------------|------------------------------------|
C#|-------------------------------------|-9----------------------------------|
G#|-9-------6---6-7----7----8-------8h9-|-9--------8--9-(9)------------------|
D#|-7-----7-----------------------------|----------6--7-(7)------------------|


~~~~~~~~~~~~~~
|-3-|
D#|-----------------------------|----------------x-----------|
A#|-----------------------------|------------------x---------|
F#|-(8)-------------------------|--------------------x-------|
C#|-----9p7---7-----------------|----------------------------|
G#|---------9---9p7s5--(5)------|-(5)-(5)--(5)---------------|
D#|-----------------------------|----------------------------|
|
|
D#|-----------------------------|----------------------------|
A#|-----------------------------|----------------------------|
F#|-----------------------------|----------------------------|
C#|-----------------------------|----------------------------|
G#|-(9)-------------------------|-(9)------------------------|
D#|-(7)-------------------------|-(7)------------------------|



************************************

| x Dead note
| (n) Ghost note
| h Hammer-on
| p Pull-off
| > Accented note
| b Bend
| pb Pre-bend
| / Slide up
| \ Slide down
| s Slide

************************************
Tunning: Standard (E A D G B e)
Red House - Jimi Hendrix:blues
From Jimi Hendrix :blues cd
tuning:standard

e|--11-11--11--11----11--11--10--10--10--10----10--------------------------|
B|-----------10-------------------------------9----b10b10b10-b1010---------|
G|/11---11-11--11-11---11--10--10--10--10-1010--------------------b9-------|
D|-----------------------------------------------x------------------987----|
A|-----------------------------------------------x---------------------9875|
E|-------------------------------------------------------------------------|
(. 3x .)
e|--------------7-------7-----------------------------7--------7107--------|
B|-------------7-10p7--7-10p7-----------------------7-b10--b10-----7-------|
G|-b97~7b97~-b9------b9------10797-97-7-----------b9-----------------------|
D|-----------------------------------9--97-7-------------------------------|
A|----------------------------------------9--------------------------------|
E|-------------------------------------------------------------------------|

e|-119-------------7--------b13--------------------------14----------------|
B|----119---------7-12-151412--1212-B16b1615121512--12B14--b14p12-1412-----|
G|-------11109/-----------------------------------14------------------1316\|
D|-------------------------------------------------------------------------|
A|-------------------------------------------------------------------------|
E|-------------------------------------------------------------------------|

theres.yonder thats.stay
e|-----57----------------------------44---------------7---7------7---------|
B|----7----------7/9------------------4----------------b10-107--7-10-------|
G|2/47--b74---6/8--------------------44~------------b9--------b9-----------|
D|---------4---------------------------------------------------------------|
A|-------------------------------------------------------------------------|
E|-------------------------------------------------------------------------|

ya. theres baby thats.stay
e|-----------------------------------44-----------------------------2/4\2--|
B|-------------------------------------4\----------------------------------|
G|-997-7-----------------------------444\---------------------2/4\2-2/4\2--|
D|----9--97-7--------------------------------------------------------------|
A|---------9--75-5--5-0----------------------------------------------------|
E|--------------7-57-7-----------------------------------------------------|

well.baby been.days bout.it
e|--7---7------------------------------7-------------7----97---------------|
B|------------------------------------7-b1010p7-----7-10p7--b107-----------|
G|-----------------------7---------b9------------b9-------------97-7-------|
D|---5/7/9\7------------7-----------------------------------------9-97-----|
A|---------------------9--7-------------------------------------------9----|
E|-------------------------------------------------------------------------|

wait.wrong the.door
e|---------------7-------------------------7-------------------------------|
B|-9\-------------b10-107-----------------7-b10~B10b10-B10b10-B10b10-B10b10|
G|-9\----------b9--------b997-B7--------b9---------------------------------|
D|-9\------------------------9--9------------------------------------------|
A|-------------------------------------------------------------------------|
E|-------------------------------------------------------------------------|

wait.baby (E) the.door ya
e|-----------7---97-------------------------------------------------------0|
B|B10b107---7-107--1097--7-p9-777---------x-x-x-------------------B4~030---|
G|-------~B9------------B9---B9~~b9p7-----x-x-x-----------b2~--b3~---------|
D|-----------------------------------9----x-x-x-------------4320-----------|
A|-------------------------------------------------------------------------|
E|-------------------------------------------------------------------------|

I.uh that.neither still.guitar
e|-------------------------7-----------------------------------------------|
B|------------------------7-107--------------------------------------------|
G|----------------------B9------b97----------------------------------------|
D|---------2-----------------------9p79p79p79p79p--------------------------|
A|-------23----------------------------------------------------------------|
E|----3/4---0--------------------------------------------------------------|

[solo]
e|-------------------10---b13---------------b131012B13~12~101210--B12------|
B|---12--12--12-12----12p10---12p1012h15/-----------------------12---1212--|
G|-11--11--11--------------------------------------------------------------|
D|-------------------------------------------------------------------------|
A|-------------------------------------------------------------------------|
E|-------------------------------------------------------------------------|

e|--b151414-b1514-b1514-b1514-B15~-B151412p1412\10-------------------------|
B|12-----------------------------------------------10H12-10H1210-B10-------|
G|--------------------------------------------------------------10---7b87--|
D|-------------------------------------------------------------------------|
A|-------------------------------------------------------------------------|
E|-------------------------------------------------------------------------|

( 2 x ) ( 4x )
e|--------------------7---7------------------------------7---------------7-|
B|-------------------7-b10-107-----710p7---77107--7107b10-107--7107-----7--|
G|b99797~97--------b9------------b9------b9-----b9-----------b9----B8--8---|
D|---------9\---------------------------------------------------------9----|
A|-------------------------------------------------------------------------|
E|-------------------------------------------------------------------------|

e|---7---b107------b11107---797-B12101210b12------b1717p1417b17-1417B1714--|
B|B10-107----------------710---7------------1212~--------------------------|
G|-------------------------------------------------------------------------|
D|-------------------------------------------------------------------------|
A|-------------------------------------------------------------------------|
E|-------------------------------------------------------------------------|

e|---14--141714--14--------------------------------------------------------|
B|b18-b18------b18-b1717--17--b16--------12710p7---12b7---------------9\7--|
G|----------------------19--19---16\----11---------11b7--------------------|
D|------------------------------------/9-----------10b797-------------9\7--|
A|----------------------------------------------------------B12B12---------|
E|-------------------------------------------------------------------------|

I,down goback,hill
e|-----------------------7--9--------------7---97--------------------------|
B|----------------------7b10-107----------7-107--1097--b87b8---------------|
G|--------------------b9--------1097-97--8------------------6h7p6-b6-4h6p4\|
D|----------------------------------9---9------------------------9---------|
A|-------------------------------------------------------------------------|
E|------xxx----------------------------------------------------------------|

I,yonder way,hills thats,from
e|--------------------------7--7----------------------------x7-------------|
B|-------------------------7B10-B107----------97-b7----7/9\7-797-----------|
G|---------B77-----------b9-------------------979b7----7/9\7-797-----------|
D|----------------------------------------------9------7/9\7-797-----------|
A|--------9----------------------------------------------------------------|
E|-------------------------------------------------------------------------|

cos,more I,will
e|---------0000------------7--7------------------------------7-------------|
B|---------5555------------b10-107-77-----x---4----------------------------|
G|-----------------------b9------b10-98-8-x--34----------------------------|
D|-------------------------------------9--x--34----------------------------|
A|-------------------------------------------5-----------------------------|
E|-------------------------------------------------------------------------|

**********************************************

| tune to open A string on 5th staff with cd
| B bend notes
| b bent notes
| / slide up
| \ slide down
| h hammer-on
| p pull-off
| ~ vibrato
| + harmonics
| x Mute notes

**********************************************
Tunning: Standard (E A D G B e)
Red House - Jimi Hendrix

Im just tabbing out the licks in between the lyrics in the verses(verses 1 &
2 starts off with a B chord). This is my own work so maybe you
shouldnt completely trust it! I took the intro nearly note for note with a
few changes from the first one posted by "sub g". The solo is different and
complete and the verses and ending are included.


[Verse]

e|-----11----11----------11----11----11-|-------10----10-----10-----10-----10-|
B|-/10-10----------10----10----10----10-|-10/9--9-----9---9--9------9---9--9--|
G|-/11----11----11----11----11----11----|-11/10----10-----------10---------10-|
D|--------------------------------------|-------------------------------------|
A|--------------------------------------|-------------------------------------|
E|--------------------------------------|-------------------------------------|

T.
e|-----------------------------------------------7--------9-7-----------------|
B|-7-----10B--10B--10B-----10B-10-10B-10-----7-----10-7--------10-7-----------|
G|-8--------------------------------------9B--------------------------9B~~----|
D|-9--------------------------------------------------------------------------|
A|----------------------------------------------------------------------------|
E|-7--------------------------------------------------------------------------|


e|----------------------------------7--------7---------7--7---------7----7----|
B|----- (7)-----------------------7----10~---7-------7----10p7------7h9--7----|
G|-7h9B--7~~~~-----8/9B--7~~---9B-----------------9B------------9-------------|
D|----------------------------------------------------------------------------|
A|----------------------------------------------------------------------------|
E|----------------------------------------------------------------------------|


e|----------------------------------------------------------------------------|
B|--------------------------------------------------------12~--14B------14B---|
G|-9--7/8----------------------------------------11h12/13---------------------|
D|--------9-7-------------------------9~---11/13------------------------------|
A|------------9-8-7-5/6~---------9h11-----------------------------------------|
E|--------------------------7/11----------------------------------------------|


e|-----------14-----14--------------------------------------------------------|
B|-14B--14B~~~~14B~~~~14BR----12h14p12--12~----15BR-15B--15BR---12------------|
G|-----------------------------------(13)-------------------------------------|
D|----------------------------------------------------------------------------|
A|----------------------------------------------------------------------------|
E|----------------------------------------------------------------------------|

(#)
e|---------14------------------7------10br7-----9b---7---------7--------------|
B|-12h14B~~~~14RB--12\-------7---10-7------------------7-----7----------------|
G|------------------------/8------------------------------9B------7-----------|
D|-------------------------------------------------------------------10-------|
A|-----------------------------------------------------------------------10---|
E|----------------------------------------------------------------------------|


[Verse 1]

...yonder (* )
e|---------7-----7-----------------|
B|---------7h9----7----------------|
G|-----------------x---------------|
D|------------------9~-------------|
A|---------------------------------|
E|------------------------0--------|

...stays
e|-------------7---------------------7-----------------|
B|-----------7----10B~~-7----------7----10p7------7----|
G|--------9B------------------9B---------------9-----9-|
D|-----------------------------------------------------|
A|-----------------------------------------------------|
E|-----------------------------------------------------|


e|--------------------------------------------|
B|----------7-7---9----7----------------------|
G|-----7-9----------9---7--9----7/9---7-------|
D|-/9------------------------9-----------9p7--|
A|--------------------------------------------|
E|--------------------------------------------|

...yonder (* )
e|---------7-----7--------------|
B|---------7h9----7-------------|
G|-----------------x------------|
D|------------------9~~~\2------|
A|------------------------------|
E|------------------------------|

...stays
e|----------------------------------------------------------------|
B|----------------------------------------------------------------|
G|----------------------------------------------------------------|
D|---------7/9~~----9\7------------7/9---7------------------------|
A|---------------------------7-8-9---------9-8-7------------xx--4-|
E|-----------------------10-----------------------10p7------xx--2-|

...baby
e|----------------------|
B|----------------------|
G|----------------------|
D|-----------------2----|
A|------------2h4-------|
E|-------2/4----------0-|

...days
e|------------------------------------------------/7--------------------------|
B|-----------7-9-7--------------------------7h9---/7------------7-------------|
G|-------/7B~~~~~~~7PBR----------4~~-----7B-----------------/8----------------|
D|-----------------------4/6-4h6----------------------------------------------|
A|-----------------------------------------------------------------9~---------|
E|----------------------------------------------------------------------------|


[Verse 2]

...wrong (* )
e|----------7----7------------------------|
B|----------7h9---7-----------------------|
G|-----------------x----7h9--7------------|
D|------------------9-----------9p7--9----|
A|----------------------------------------|
E|----------------------------------------|

...door
e|------------7-------7----7---------7------9-7----------7--------------------|
B|----------7---10B~~---10---------7---10-7-----7h10B~~-----10p7--------------|
G|-------9B---------------------9B--------------------------------------------|
D|----------------------------------------------------------------------------|
A|----------------------------------------------------------------------------|
E|----------------------------------------------------------------------------|


e|----7-------/12-10---------------------|
B|---7--10-7---------12-10---------------|
G|-9B----------------------11-10-9-7~----|
D|---------------------------------------|
A|---------------------------------------|
E|---------------------------------------|

...wrong baby
e|----------------------------------|
B|----------------------9\7---------|
G|----------------------------------|
D|----------------------------------|
A|---------------9/11---------------|
E|----------------------------------|

(fiddle around
..door with this)
e|---------7----------------------------------------|
B|------7--7----------------------------------------|
G|------9B-------------------9BRp7---7~-------------|
D|---------------------------------9-----9p7----7~~-|
A|--------------------------------------------9-----|
E|--------------------------------------------------|

...feelin
e|----------9/11\9~~-7/9\7---------|
B|----------x----------------------|
G|----------9/11\9~~-7/9\7---------|
D|---------------------------------|
A|---------------------------------|
E|---------------------------------|

..more
e|-------------7--------------------------------------|
B|-----------7----10p7-------7------------------------|
G|------9B---------------9B---7--9---7/9---7----------|
D|--------------------------------9----------9p7------|
A|-----------------------------------------------9----|
E|----------------------------------------------------|


[Solo]

e|---7-7-------10-12B--10----10-----------14B---14-12-14-10-12-12PB-----------|
B|-7------/12------------12------------12-------------------------------------|
G|---------------------------------/13----------------------------------------|
D|----------------------------------------------------------------------------|
A|----------------------------------------------------------------------------|
E|----------------------------------------------------------------------------|


e|--10h12p10-----10h12p10-----10h12p10------10-12B--10h12p10\7----------------|
B|-----------12-----------12-----------12----------------------10B------------|
G|----------------------------------------------------------------------------|
D|----------------------------------------------------------------------------|
A|----------------------------------------------------------------------------|
E|----------------------------------------------------------------------------|

(Keep repeating this..)
e|-7------------------------------------7------9p7------10p7---10p7-----------|
B|---10p7-7h10p7-----------------------7--10p7-----7---------7-----7----------|
G|---------------9-7h9p7---7--------9B----------------------------------------|
D|-----------------------9----------------------------------------------------|
A|----------------------------------------------------------------------------|
E|----------------------------------------------------------------------------|


e|-10B-10--7-9p7-----7------7----------7--------------------------------------|
B|----------------10--10B-----10p7----7--10p7-----7---------------------------|
G|----------------------------------9B---------9B---9p7----9---7--------------|
D|-------------------------------------------------------9---9----------------|
A|----------------------------------------------------------------------------|
E|----------------------------------------------------------------------------|


e|----7------10p7------10B-10--7---------7----10B-10-7-----10B-10-7-----------|
B|---7--10p7------7--------------7---10--7-------------7------------7---------|
G|-9B-------------------------------------------------------------------------|
D|----------------------------------------------------------------------------|
A|----------------------------------------------------------------------------|
E|----------------------------------------------------------------------------|


e|-10B-10-7------/12-14--13/14-14---17B-17-14h17p14---17-14-------------------|
B|----------7---------------------------------------17------17B--17-15h17p15--|
G|----------------------------------------------------------------------------|
D|----------------------------------------------------------------------------|
A|----------------------------------------------------------------------------|
E|----------------------------------------------------------------------------|


e|----------------7------10------------14B-14--14B-14--14B-14--12h14--10B-----|
B|----15~~\-----7----/12----12p10---12----------------------------------------|
G|-16--------/8---------------------------------------------------------------|
D|----------------------------------------------------------------------------|
A|----------------------------------------------------------------------------|
E|----------------------------------------------------------------------------|


e|------7--12/19----------7---------------------------------------------------|
B|----7-----------------7---10p7--------7h9--7--------------------------------|
G|-9B------------7~--9B----------7------8h9---7-------------------------------|
D|---------------------------------9-----------9------------------------------|
A|-----------------------------------9----------9--------8--9-----------------|
E|---------------------------------------------------0---6--7-----------------|


im skippin VERSE 3 coz im too lazy but they are practically the same licks as
the rest of the song.


[End]

e|------7-9-7---7h9p7---7--9B------------7---7--------------------------------|
B|-7--7-------9-------9--------9--8------7h9-7--------------------------------|
G|-9B--------------------------10-9------------9-7/8--------------------------|
D|-----------------------------9--8------------------9p7---7------------------|
A|-------------------------------------------------------9---9p7\5~~----------|
E|----------------------------------------------------------------------------|


************************************

/ - slide up
\ - slide down
B - full bend
b - half bend
R - release bend
P - pre bend
h - hammer on
p - pull off
(*) - where u see this rake the notes
(#) - where this is it is a quarter bend
T. - use your thumb on the low e string

************************************
Song info
Red House
Jimi Hendrix
2001
  • Rock
  • Psychedelic Rock
Alternative tracks
Similar songs
Look Over Yonder - Jimi Hendrix
Once I Had A Woman - Jimi Hendrix
Yellow Submarine - The Beatles
Purple Haze - Jimi Hendrix

Hi! Hope you enjoy backing track experience.
If you want to help us in the development of the project, feel free to donate!