00:00 / 00:00
Tabs and lyrics
Tunning: Standard (E A D G B e)
Band - Jimmy Eat World
Song - Pain


Intro/verse: (Guitar 1)
e|---------------------------------------------------------------------|
B|---------------------------------------------------------------------|
G|---------------------------------------------------------------------|
D|---------------------------------------------------------------------|
A|--3-3-3-3-3-3-3-3----------------------------------------------------|
D|-------------------3-3-3-3-3-3-3-3--1-1-1-1-1-1-1-1-1-1-1-1-0-0-0-0--|

e|---------------------------------------------------------------------|
B|---------------------------------------------------------------------|
G|---------------------------------------------------------------------|
D|---------------------------------------------------------------------|
A|--3-3-3-3-3-3-3-3----------------------------------------------------|
D|-------------------3-3-3-3-3-3-3-3--1-1-1-1-1-1-1-1-1-1-1-1-5-5-5-5--|

e|-------------------|
B|-------------------|
G|--3-3-3-3-7-7-7-7--|
D|--1-1-1-1-5-5-5-5--|
A|--1-1-1-1-5-5-5-5--|
D|--1-1-1-1-5-5-5-5--|

e|-----------------------------------------------------------------------|
B|-----------------------------------------------------------------------|
G|-----------------------------------------------------------------------|
D|-----------------------------------------------------------------------|
A|--3-3-3-3-3-3-3-3------------------------------------------------------|
D|-------------------3-3-3-3-3-3-3-3--1-1-1-1-1-1-1-1-1-1-1-1-1-1-1-1-1--|

e|---------------------------------------------------------------------|
B|---------------------------------------------------------------------|
G|---------------------------------------------------------------------|
D|---------------------------------------------------------------------|
A|--3-3-3-3-3-3-3-3----------------------------------------------------|
D|-------------------3-3-3-3-3-3-3-3--1-1-1-1-1-1-1-1-1-1-1-1-0-0-0-0--|

e|---------------------------------------------------------------------|
B|---------------------------------------------------------------------|
G|---------------------------------------------------------------------|
D|---------------------------------------------------------------------|
A|--3-3-3-3-3-3-3-3----------------------------------------------------|
D|-------------------3-3-3-3-3-3-3-3--1-1-1-1-1-1-1-1-1-1-1-1-5-5-5-5--|

e|-------------------|
B|-------------------|
G|--3-3-3-3-7-7-7-7--|
D|--1-1-1-1-5-5-5-5--|
A|--1-1-1-1-5-5-5-5--|
D|--1-1-1-1-5-5-5-5--|

(Guitar 2)
e|---------------------------------------------------------------------|
B|---------------------------------------------------------------------|
G|--5-5-----5-5-----5-5-----5-5-----5-5-----5-5-----5-5-----5-5--------|
D|------5-5-----5-5-----5-5-----5-5-----5-5-----5-5-----5-5-----4-4-5--|
A|---------------------------------------------------------------------|
D|---------------------------------------------------------------------|
pm . . . . . . . . . . . . . . . . . . . . . . . . . . . . . . . . .

e|---------------------------------------------------------------------|
B|---------------------------------------------------------------------|
G|----5-5-----5-5-----5-5-----5-5-----5-5-----5-5-----5-5-----5-5------|
D|--5-----5-5-----5-5-----5-5-----5-5-----5-5-----5-5-----5-5-----5-5--|
A|---------------------------------------------------------------------|
D|---------------------------------------------------------------------|
pm . . . . . . . . . . . . . . . . . . . . . . . . . . . . . . .

e|-----------------------------|
B|-----------------------------|
G|--5-5------8-8-8-8--7-7-7-7--|
D|------5-5--8-8-8-8--5-5-5-5--|
A|-----------6-6-6-6--5-5-5-5--|
D|-----------------------------|
pm . . . . .

Chorus:
(Guitar 1)
e|--------------|
B|--------------|
G|--5--5--3--7--|
D|--5--3--1--5--|
A|--3--3--1--5--|
D|-----3--1--5--|
| |
| (Guitar 2) |
e|--3-----------|
B|--4--6--4--3--|
G|--5--5--3-----|
D|-----------5--|
A|--------------|
D|--------------|


Bridge: (Guitar 1)
e|----------------------------------------------------------------|
B|----------------------------------------------------------------|
G|--8---5---8---5---5---7----8-----5---5---7---8---10--4---5------|
D|--6---3---6---3---5---5----6-----3---5---5---6---8---5---5------|
A|--6---3---6---3---3---5----6-----3---3---5---6---8---2---3------|
D|--6---3---6---3-------5----6-----3-------5---6---8--------------|
| |
| (Guitar 2) |
e|----------------------------------------------------------------|
B|----------------------------------------------------------------|
G|----------------------------------------------------------------|
D|--5-5-----5-5-----5-5------------5-5-----5-5------5-5-----------|
A|------5-5-----5-5-----5-5--3h5-5-----5-5-----5-5------5-5-3h5-5-|
D|----------------------------------------------------------------|

(Guitar 1)
e|---------------------|
B|---------------------|
G|--7---8---5---3---7--|
D|--5---6---3---1---5--|
A|--5---6---3---1---5--|
D|--5---6---3---1---5--|

(Guitar 2)
e|---------------------------------|
B|---------------------------------|
G|---------------------------------|
D|--5-5-----5-5-----5-5------------|
A|------5-5-----5-5-----5-5-3h5-5--|
D|---------------------------------|


e|--8-8-8--7b8r7--8b10r8-8-8--7b8r7-7-7--7b8r7-7---4-4-4-4-4-4-3-3-1-1------------8b10r8--|
B|----------------------------------------------------------------------4-4--1-1----------|
G|----------------------------------------------------------------------------------------|
D|----------------------------------------------------------------------------------------|
A|----------------------------------------------------------------------------------------|
D|----------------------------------------------------------------------------------------|

e|--8-8--7b8r7-7-7--7b8r7-7---8-8-8-8---11-11-11-11-10-10-10-10--8b10r8-8-8--7b8r7-7-7--|
B|--------------------------------------------------------------------------------------|
G|--------------------------------------------------------------------------------------|
D|--------------------------------------------------------------------------------------|
A|--------------------------------------------------------------------------------------|
D|--------------------------------------------------------------------------------------|

e|--7b8r7-7---3-3-3-3-3-3-3-3-3-3-3-3-2-2-2-2-2-2-2-2-2-2-3-3-3-3-1-1-1-1--|
B|-------------------------------------------------------------------------|
G|-------------------------------------------------------------------------|
D|-------------------------------------------------------------------------|
A|-------------------------------------------------------------------------|
D|-------------------------------------------------------------------------|

Chorus:
(Guitar 1)
e|-----------------------------|
B|-----------------------------|
G|--5--7--8--5--5--7--8--10-4--|
D|--5--5--6--3--5--5--6--8--5--|
A|--3--5--6--3--3--5--6--8--2--|
D|-----5--6--3-----5--6--8-----|
| |
| (Guitar 2) |
e|--3-----------3--------------|
B|--4--3--9--6--4--3--9--11-6--|
G|--5-----8--5--5-----8--10-4--|
D|-----5-----------5-----------|
A|-----------------------------|
D|-----------------------------|



(Guitar 1)
e|---------------------------------|
B|---------------------------------|
G|--5--7--8--5--5--7--8----5----5--|
D|--5--5--6--3--5--5--6----3----5--|
A|--3--5--6--3--3--5--6----3----3--|
D|-----5--6--3-----5--6----3-------|
| |
| (Guitar 2) |
e|--3-----------3---------------3--|
B|--4--3--9--6--4--3--9----6----4--|
G|--5-----8--5--5-----8----5----5--|
D|-----5-----------5---------------|
A|---------------------------------|
D|---------------------------------|
Tunning: Standard (E A D G B e)
Standard D (Drop D)

[Verse]
(Palm mute)
e|-----------------------|---------------------------|
B|-----------------------|---------------------------|
G|--5--------------------|--5------------------------|
D|--5----3----1-------0--|--5----3----1-------5------|
A|--3----3----1-------0--|--3----3----1-------5------|
E|-------3----1-------0--|-------3----1-------5------|

[Lead]
(Palm mute)
e|---------------------------------------------------|
B|---------------------------------------------------|
G|--------12-12-------12-12-------12-12-10-12-12-12--|
D|--10-10-------10-10-------10-10--------------------|
A|---------------------------------------------------|
E|---------------------------------------------------|

(Lead right before chorus breaks in)
e|---------------------------------------|
B|---------------------------------------|
G|--8--7---------------------------------|
D|--x--x---------------------------------|
A|--6--5---------------------------------|
E|---------------------------------------|

[Chorus]
e|---------------------------------------------|
B|---------------------------------------------|
G|--5-----------------------5------------------|
D|--5----3----1----5--------5----3----1----5---|
A|--3----3----1----5--------3----3----1----5---|
E|-------3----1----5-------------3----1----5---|

[Lead]
e|---------------------------------------------|
B|---------------------------------------------|
G|--8---10----8----7--10----8---10----8----7---|
D|--x----x----x----x---x----x----x----x----x---|
A|--6----8----6----5---8----6----8----6----5---|
E|---------------------------------------------|

[Verse]
(Palm mute)
e|-----------------------|---------------------------|
B|-----------------------|---------------------------|
G|--5--------------------|--5------------------------|
D|--5----3----1-------0--|--5----3----1-------5------|
A|--3----3----1-------0--|--3----3----1-------5------|
E|-------3----1-------0--|-------3----1-------5------|

(Lead -played though verse 2)
| Right before chorus breaks in
e|-----------------------------|----------------------|
B|-------11-11----11-11--------|----------------------|
G|-----8-----------------------|--8--7----------------|
D|--10---------10--------------|--x--x----------------|
A|-----------------------------|--6--5----------------|
E|-----------------------------|----------------------|
. . . . . . .

[Chorus]
e|---------------------------------------------|
B|---------------------------------------------|
G|--5-----------------------5------------------|
D|--5----3----1----5--------5----3----1----5---|
A|--3----3----1----5--------3----3----1----5---|
E|-------3----1----5-------------3----1----5---|

[Lead]
e|---------------------------------------------|
B|---------------------------------------------|
G|--8---10----8----7--10----8---10----8----7---|
D|--x----x----x----x---x----x----x----x----x---|
A|--6----8----6----5---8----6----8----6----5---|
E|---------------------------------------------|

[Bridge] (x2)
(Rhythm palm muted)
e|---------------------------------------------|
B|---------------------------------------------|
G|---------------------------------------------|
D|--6-----------------3------------------------|
A|--6-----------------3------------------------|
E|--6-----------------3------------------------|

[Lead]
e|---------------------------------------------|
B|---------------------------------------------|
G|--5-5-----5-5-----5-5------------------------|
D|------5-5-----5-5-----5-5-3/5----------------|
A|---------------------------------------------|
E|---------------------------------------------|

[Solo]
e|----------------------------------------------|
B|--13-13-13-12b13r12--13b15r13-13--12b13r12-12-|
G|----------------------------------------------|
D|----------------------------------------------|
A|----------------------------------------------|
E|----------------------------------------------|
| LFS |
e|-----------------------------------------------|
B|--12b13r12------------13b15r13-13--12b13r12-12-|
G|-----------13-12-10-5--------------------------|
D|------------x--x--x-x--------------------------|
A|-----------11-10--8-3--------------------------|
E|-----------------------------------------------|
| LFS |
e|----------------------------------------------|
B|--12b13r12-----------13b15r13-13--12b13r12-12-|
G|-----------17-20-19---------------------------|
D|------------x--x--x---------------------------|
A|-----------15-18-17---------------------------|
E|----------------------------------------------|
| LFS |
e|----------------------------------------------|
B|--12b13r12------------------------------------|
G|-----------13-12-10/9\10----------------------|
D|------------x--x--x-x--x----------------------|
A|-----------11-10--8/7\-8----------------------|
E|----------------------------------------------|

[Chorus/Outro]
e|--------------------|-------------------------|
B|--------------------|-------------------------|
G|--5-----------------|------------5~~----------|
D|--5----5----6----3--|--6----3----5~~----------|
A|--3----5----6----3--|--6----3----3~~----------|
E|-------5----6----3--|--6----3-----------------|
Tunning: Drop D (D A D G B E)
Jimmy Eat World - Pain
Tabber: Will Sharp
Tuning: Drop D (EBGDAD)
Email: chimaira_tool@hotmail.com

Ok, thought id tab this as no one has got it right so far, This is pretty much
right from what i could piece together from listening and the video. Solo is
absolutely correct, watch the video if you dont believe me, it is all octives.


Guitar 1: (Palm Mute these) plays this TWICE
1st time 2nd time
E|------------------------------------------------------------|---------|---------|
B|------------------------------------------------------------|---------|---------|
G|-5-5-5-5-5-5-5-5--------------------------------------------|---------|---------|
D|-5-5-5-5-5-5-5-5-3-3-3-3-3-3-3-3-1-1-1-1-1-1-1-1-1-1-1-1-1--|--0-0-0--|--5-5-5--|
A|-3-3-3-3-3-3-3-3-3-3-3-3-3-3-3-3-1-1-1-1-1-1-1-1-1-1-1-1-1--|--0-0-0--|--5-5-5--|
D|-----------------3-3-3-3-3-3-3-3-1-1-1-1-1-1-1-1-1-1-1-1-1--|--0-0-0--|--5-5-5--|

Guitar 2: (Palm Mute these) comes in after Guitar 1's 1st repeat
E|------------------------------------------------------------------------|
B|------------------------------------------------------------------------|
G|--5-5-0-0-5-5-0-0-5-5-0-0---0-0-0---------------------------------------|
D|--------------------------3---------------------------------------------|
A|------------------------------------------------------------------------|
D|------------------------------------------------------------------------|


Pre-Chrous:

Guitar 1: (guitar 1 will cut their "2nd time" repeat off to play this)
E|------------------------------------------------------------------------|
B|------------------------------------------------------------------------|
G|------------------------------------------------------------------------|
D|-3-3--5-5---------------------------------------------------------------|
A|-3-3--5-5---------------------------------------------------------------|
D|-3-3--5-5---------------------------------------------------------------|

Guitar 2:
E|------------------------------------------------------------------------|
B|------------------------------------------------------------------------|
G|-8-8-10-10--------------------------------------------------------------|
D|-x-x--x--x--------------------------------------------------------------|
A|-6-6--8--8--------------------------------------------------------------|
D|------------------------------------------------------------------------|


Chorus:

Guitar 1: x2
E|------------------------------------------------------------------------|
B|------------------------------------------------------------------------|
G|-5-5-5-5-5-5-5-5-5-5-5-5-5-5-5-5----------------------------------------|
D|-5-5-5-5-5-5-5-5-5-5-5-5-5-5-5-5-3-3-3-3-3-3-3-3-3-3-3-3-3-3-3-3-1-1-1-1|
A|-3-3-3-3-3-3-3-3-3-3-3-3-3-3-3-3-3-3-3-3-3-3-3-3-3-3-3-3-3-3-3-3-1-1-1-1|
D|---------------------------------3-3-3-3-3-3-3-3-3-3-3-3-3-3-3-3-1-1-1-1|

E|------------------------------------------------------------------------|
B|------------------------------------------------------------------------|
G|------------------------------------------------------------------------|
D|-1-1-1-1-1-1-1-1-1-1-1-1-1-5-5-5-5-5-5-5-5-5-5-5-5-5-5-5-5--------------|
A|-1-1-1-1-1-1-1-1-1-1-1-1-1-5-5-5-5-5-5-5-5-5-5-5-5-5-5-5-5--------------|
D|-1-1-1-1-1-1-1-1-1-1-1-1-1-5-5-5-5-5-5-5-5-5-5-5-5-5-5-5-5--------------|

Guitar 2:
E|------------------------------------------------------------------------|
B|------------------------------------------------------------------------|
G|-8-8-8-8-8-8-8-8-8-8-8-8-8-8-8-8--10-10-10-10-10-10-10-10-10-10-10-10-10|
D|-x-x-x-x-x-x-x-x-x-x-x-x-x-x-x-x---x--x--x--x--x--x--x--x--x--x--x--x--x|
A|-6-6-6-6-6-6-6-6-6-6-6-6-6-6-6-6---8--8--8--8--8--8--8--8--8--8--8--8--8|
D|------------------------------------------------------------------------|

E|------------------------------------------------------------------------|
B|------------------------------------------------------------------------|
G|-10-10-10--8-8-8-8-8-8-8-8-8-8-8-8-8-8-8-8--7-7-7-7-7-7-7-7-7-7-7-7-7-7-|
D|--x--x--x--x-x-x-x-x-x-x-x-x-x-x-x-x-x-x-x--x-x-x-x-x-x-x-x-x-x-x-x-x-x-|
A|--8--8--8--6-6-6-6-6-6-6-6-6-6-6-6-6-6-6-6--5-5-5-5-5-5-5-5-5-5-5-5-5-5-|
D|------------------------------------------------------------------------|

x2
E|------------------------------------------------------------------------|
B|------------------------------------------------------------------------|
G|-7-7/10-10-10-----------------------------------------------------------|
D|-x-x/-x--x--x-----------------------------------------------------------|
A|-5-5/-8--8--8-----------------------------------------------------------|
D|------------------------------------------------------------------------|


Verse:

Guitar 1: Delay and tremelo effect on
(basically, hammer on 5 twice and hold the note while vibrato it)

x18
E|---4h5p4h5-5V~----------------------------------------------------------|
B|-3----------------------------------------------------------------------|
G|------------------------------------------------------------------------|
D|------------------------------------------------------------------------|
A|------------------------------------------------------------------------|
D|------------------------------------------------------------------------|

Guitar 2: (Palm Mute These)

E|------------------------------------------------------------|---------|
B|------------------------------------------------------------|---------|
G|-5-5-5-5-5-5-5-5--------------------------------------------|---------|
D|-5-5-5-5-5-5-5-5-3-3-3-3-3-3-3-3-1-1-1-1-1-1-1-1-1-1-1-1-1--|--1-1-1--|
A|-3-3-3-3-3-3-3-3-3-3-3-3-3-3-3-3-1-1-1-1-1-1-1-1-1-1-1-1-1--|--1-1-1--|
D|-----------------3-3-3-3-3-3-3-3-1-1-1-1-1-1-1-1-1-1-1-1-1--|--1-1-1--|

1st time 2nd time
E|------------------------------------------------------------|---------|---------|
B|------------------------------------------------------------|---------|---------|
G|-5-5-5-5-5-5-5-5--------------------------------------------|---------|---------|
D|-5-5-5-5-5-5-5-5-3-3-3-3-3-3-3-3-1-1-1-1-1-1-1-1-1-1-1-1-1--|--0-0-0--|--5-5-5--|
A|-3-3-3-3-3-3-3-3-3-3-3-3-3-3-3-3-1-1-1-1-1-1-1-1-1-1-1-1-1--|--0-0-0--|--5-5-5--|
D|-----------------3-3-3-3-3-3-3-3-1-1-1-1-1-1-1-1-1-1-1-1-1--|--0-0-0--|--5-5-5--|

After Guitar 2 plays their above riff once through, both guitars go back to
playing their 1st verse parts again.

Repeat Chorus again.


Bridge:

Guitar 1: x2
E|------------------------------------------------------------------------|
B|------------------------------------------------------------------------|
G|------------------------------------------------------------------------|
D|-6-6-6-6-6-6-6-6-6-6-6-6-6-6-6-6--2-2-2-2-2-2-2-2-2-2-2-2-2-2-2-2-------|
A|-6-6-6-6-6-6-6-6-6-6-6-6-6-6-6-6--2-2-2-2-2-2-2-2-2-2-2-2-2-2-2-2-------|
D|-6-6-6-6-6-6-6-6-6-6-6-6-6-6-6-6--2-2-2-2-2-2-2-2-2-2-2-2-2-2-2-2-------|

Guitar 2: (1st 2 repeats are just Guitar 2, 2nd 2 repeats Guitar 1 joins in)
E|------------------------------------------------------------------------|
B|------------------------------------------------------------------------|
G|--5-5-0-0-5-5-0-0-5-5-0-0-----0-0---------------------------------------|
D|--------------------------3-3-------------------------------------------|
A|------------------------------------------------------------------------|
D|------------------------------------------------------------------------|


Solo:

Guitar 1: This has alot of bent octaves in it so bend them up to sound like
the next notes' pitches and then release them to the original pitch.
E|------------------------------------------------------------------------|
B|------------------------------------------------------------------------|
G|-17-17-16b17r16----17b18r17--16b17r16--16b17r16----13-13-13-13-13-13-13-|
D|--x--x--x--x--x-----x--x--x---x--x--x---x--x--x-----x--x--x--x--x--x--x-|
A|-15-15-14b15r14----15b16r15--14b15r14--14b15r14----11-11-11-11-11-11-11-|
D|------------------------------------------------------------------------|

E|------------------------------------------------------------------------|
B|------------------------------------------------------------------------|
G|-13-13-12-12-12-10\5~----17b18r17--16b17r16--16b17r16----17-17-17-17-17-|
D|--x--x--x--x--x--x\x~-----x--x--x---x--x--x---x--x--x-----x--x--x--x--x-|
A|-11-11-10-10-10--8\3~----15b16r15--14b15r14--14b15r14----15-15-15-15-15-|
D|------------------------------------------------------------------------|

E|------------------------------------------------------------------------|
B|------------------------------------------------------------------------|
G|-17-17-17-20-20-20-19-19-19----17b18r17--16b17r16--16b17r16----13-13-13-|
D|--x--x--x--x--x--x--x--x--x-----x--x--x---x--x--x---x--x--x-----x--x--x-|
A|-15-15-15-18-18-18-17-17-17----15b16r15--14b15r14--14b15r14----11-11-11-|
D|------------------------------------------------------------------------|

E|------------------------------------------------------------------------|
B|------------------------------------------------------------------------|
G|-13-13-13-13-13-13-13-13-13-13-13-13-13-12-12-12-12-12-12-12-12-10-10\--|
D|--x--x--x--x--x--x--x--x--x--x--x--x--x--x--x--x--x--x--x--x--x--x--x\--|
A|-11-11-11-11-11-11-11-11-11-11-11-11-11-10-10-10-10-10-10-10-10--8--8\--|
D|------------------------------------------------------------------------|

Guitar 2:
E|------------------------------------------------------------------------|
B|------------------------------------------------------------------------|
G|-5-5-5-5-5-5-5-5-5-------------------------------------------------5-5-5|
D|-5-5-5-5-5-5-5-5-5-5-5-5-5-5-5-5-5-6-6-6-6-6-6-6-6-3-3-3-3-3-3-3-3-5-5-5|
A|-3-3-3-3-3-3-3-3-3-5-5-5-5-5-5-5-5-6-6-6-6-6-6-6-6-3-3-3-3-3-3-3-3-3-3-3|
D|-------------------5-5-5-5-5-5-5-5-6-6-6-6-6-6-6-6-3-3-3-3-3-3-3-3------|

E|------------------------------------------------------------------------|
B|------------------------------------------------------------------------|
G|-5-5-5-5-5-----------------------------------------5-5-5-5-5-5-5-5------|
D|-5-5-5-5-5-5-5-5-5-5-5-5-5-6-6-6-6-6-6-6-6-8-8-8-8-5-5-5-5-5-5-5-5-5-5-5|
A|-3-3-3-3-3-5-5-5-5-5-5-5-5-6-6-6-6-6-6-6-6-8-8-8-8-3-3-3-3-3-3-3-3-5-5-5|
D|-----------5-5-5-5-5-5-5-5-6-6-6-6-6-6-6-6-8-8-8-8-----------------5-5-5|

E|------------------------------------------------------------------------|
B|------------------------------------------------------------------------|
G|------------------------------------------------------------------------|
D|-5-5-5-5-5-6-6-6-6-6-6-6-6-6-6-6-6-6-6-6-6-3-3-3-3-3-3-3-3-3-3-3-3-3-3-3|
A|-5-5-5-5-5-6-6-6-6-6-6-6-6-6-6-6-6-6-6-6-6-3-3-3-3-3-3-3-3-3-3-3-3-3-3-3|
D|-5-5-5-5-5-6-6-6-6-6-6-6-6-6-6-6-6-6-6-6-6-3-3-3-3-3-3-3-3-3-3-3-3-3-3-3|


Both Guitars: Note that the octaves are only played by one guitar
(there are also 2 other sections below where the same octaves are
repeated but i havent tabbed them as they are minor. If you want
to play them then they replace the 3rd and 4th power chord on 3rd
fret. The octaves are on 8th/10th frets like below.)
E|------------------------------------------------------------------------|
B|------------------------------------------------------------------------|
G|-5-5-5-5-5-5-5-5-5-------------------------------------------------5-5-5|
D|-5-5-5-5-5-5-5-5-5-5-5-5-5-5-5-5-5-6-6-6-6-6-6-6-6-3-3-3-3-3-3-3-3-5-5-5|
A|-3-3-3-3-3-3-3-3-3-5-5-5-5-5-5-5-5-6-6-6-6-6-6-6-6-3-3-3-3-3-3-3-3-3-3-3|
D|-------------------5-5-5-5-5-5-5-5-6-6-6-6-6-6-6-6-3-3-3-3-3-3-3-3------|

E|------------------------------------------------------------------------|
B|------------------------------------------------------------------------|
G|-5-5-5-5-5------------------------------------10-10--5-5-5-5-5-5-5-5----|
D|-5-5-5-5-5-5-5-5-5-5-5-5-5-6-6-6-6-6-6-6-6-8-8-x--x--5-5-5-5-5-5-5-5-5-5|
A|-3-3-3-3-3-5-5-5-5-5-5-5-5-6-6-6-6-6-6-6-6-8-8-8--8--3-3-3-3-3-3-3-3-5-5|
D|-----------5-5-5-5-5-5-5-5-6-6-6-6-6-6-6-6-8-8-----------------------5-5|

E|------------------------------------------------------------------------|
B|------------------------------------------------------------------------|
G|---------------------------------------------5-5-5-5-5-5-5-5------------|
D|-5-5-5-5-5-5-6-6-6-6-6-6-6-6-3-3-3-3-3-3-3-3-5-5-5-5-5-5-5-5-5-5-5-5-5-5|
A|-5-5-5-5-5-5-6-6-6-6-6-6-6-6-3-3-3-3-3-3-3-3-3-3-3-3-3-3-3-3-5-5-5-5-5-5|
D|-5-5-5-5-5-5-6-6-6-6-6-6-6-6-3-3-3-3-3-3-3-3-----------------5-5-5-5-5-5|

E|------------------------------------------------------------------------|
B|------------------------------------------------------------------------|
G|---------------------------------------------------------------------5~-|
D|-5-5-6-6-6-6-6-6-6-6-6-6-6-6-6-6-6-6-3-3-3-3-3-3-3-3-3-3-3-3-3-3-3-3-5~-|
A|-5-5-6-6-6-6-6-6-6-6-6-6-6-6-6-6-6-6-3-3-3-3-3-3-3-3-3-3-3-3-3-3-3-3-3~-|
D|-5-5-6-6-6-6-6-6-6-6-6-6-6-6-6-6-6-6-3-3-3-3-3-3-3-3-3-3-3-3-3-3-3-3----|


Guitar 1: Effects like before. This fades out and uses a PANNER EFFECT.

E|---4h5p4h5-5V~----------------------------------------------------------|
B|-3----------------------------------------------------------------------|
G|------------------------------------------------------------------------|
D|------------------------------------------------------------------------|
A|------------------------------------------------------------------------|
D|------------------------------------------------------------------------|

Thats it, questions, comments, anything - Email me.
Song info
Pain
Jimmy Eat World
2001
  • Rock
  • Alternative Rock
  • Emo
  • Punk
Alternative tracks
Similar songs
Blackbird - Alter Bridge
Paranoid Android - Radiohead
Battle Born - The Killers
The Song Hell - Sum 41

Hi! Hope you enjoy backing track experience.
If you want to help us in the development of the project, feel free to donate!