You Are So Beautiful - Joe Cocker
00:00 / 00:00
Tabs and lyrics
Tunning: Standard (E A D G B e)
capo 1st fret
Normal Tuning


E----3-------2-------1-----------------1-------------3---------------|
B------------3-------------------------1-----------------------------|
G------------4-------------------------1-2---------------------------|
D------------5-------------2-----------1-----------------------------|
A----2---------------2-----3-----------1-3-----------2---------------|
E----3---------------3-----------------1-------------3---------------|

You are so beau tiful to me


E---2-----1-----------------------1--------3---------2--------------|
B---3-----------------------------1------------------3--------------|
G---4-----------------------------1-2----------------4--------------|
D---5------------------2----------1------------------5--------------|
A---------2------------3----------1-3------2------------------------|
E---------3-----------------------1--------3------------------------|

You are so beautiful to me

E--1------1----------------------------2----------------------------|
B--3----------------------------------------------------------------|
G--2-----------------------------------2----------------------------|
D------------------------2-------------1----------------------------|
A---------2--------------3-------------2----------------------------|
E---------3---------------------------------------------------------|

Can't you see You're everything I've hoped for

E-------------------------------------3-----------------------------|
B--------------------2----------------------------------------------|
G-------------------------------------------------------------------|
D---2----------------2----------------------------------------------|
A---2-------2-------------------------2-----------------------------|
E-------------------------------------3-----------------------------|

You're everything I need You are so........


-Repeat what you just did. I know this doesn't look right but it's
only because I don't know how to write out a tab on the computer. I
promise this is how you play it on the guitar though
Tunning: Standard (E A D G B e)

Intro: (play 2x)
||-----------------|------------------|
||-----0---0---0---|-0----------------|
||=----0---0---0---|-020-------0---0--|
||=--0-----4---3---|-2--------2---4---|
||-----------------|-3---3---3---5----|
||-3-------3-------|------------------|

Verse:
||-----------------|-----------------|-----------------|
||-----0---0---0---|-0---0---0----00-|-0---0-----------|
||-----0---0---0---|-0---0---0-022---|-0---0---2---2---|
||---0-----4---3---|-2---2---2-------|-1---1---1---1---|
||-----------------|-3-----3---------|-----------------|
||-3-----3---3---3-|-----------------|-1-----1-------1-|
you are so beautiful to


-----------------|-----------------|-----------------|
-----0---0---0---|-0---0---0---0---|-0---0---0---0---|
-----0---0---0---|-0---0---0---0---|-0---0---0---0---|
---0-----4---4---|-3---3---3---3---|-2---2---2---2---|
-----------------|---------0---2---|-3-----3---------|
-3-----3---3---3-|-----3-----------|-----------------|
me you are so beautiful


-----------------|-----------------|-1---1---1---1---|
-0---0-----------|-0---0---0---0---|-1---1---0---0---|
-0---0---2---2---|-0---0---0---0---|-2---2---0---0---|
-1---1---1---1---|-0---0---0---0---|-0---0-----------|
-----------------|-----------------|-------------2---|
-1-----1-------1-|-3---3---3---3---|---------3-------|
to me can't u see


-0---0---0---0---|-0---0---2---2---|-3---3---3---3---|
-0---0---0---0---|-0---0---0---0---|-0---0---0---0---|
-0---0---0---0---|-2---2---2---2---|-0---0---0---0---|
-2---2---2---2---|-2---2---1---1---|-2---2---1---0---|
-3-----3-------3-|-2-----2-----2---|-----------------|
-----------------|-----------------|-----------------|
ur ev... Hope for Ev... I


-3---3---3-------|-----------------|-----------------||-3----|
-5---5---5-------|-----0---0---0---|-0---0---0---0---||-0----|
-4---4---4-------|---0-----0---0---|-0---0---0---2--=||-0----|
-5---5---5-------|-0-------4---3---|-2---2---1---1--=||-0----|
-4---4-4---------|---------0---2---|-3---3-----------||-2----|
-----------------|-3---------------|---------1---1---||-3----|
need... you are so Beautiful to me...
Song info
You Are So Beautiful
Joe Cocker
2001
  • Pop
  • Rock
  • Classic Rock
Similar songs
Soldier Of Fortune - Deep Purple
Carillon - Sky
Route 66 - The Rolling Stones
Molina - Creedence Clearwater Revival
I Need To Know - Tom Petty

Hi! Hope you enjoy backing track experience.
If you want to help us in the development of the project, feel free to donate!