Folsom Prison Blues - Johnny Cash
00:00 / 00:00
Tabs and lyrics
Tunning: Standard (E A D G B e)
Johnny Cash
"Folsom Prison Blues"


[Intro]
(pick close to the bridge)

e|---------------------|
B|---------------------|
G|---------------------|
D|-------1-1-----------|
A|-2-2-2------2--------|
E|--------------3b-0---|


[Verse 1]

E
I hear the train a comin', it's rolling round the bend

and I ain't seen the sunshine since I don't know when,
A E
I'm stuck in Folsom prison, and time keeps draggin' on
B7 E
but that train keeps a rollin' on down to San Anton..

When I was just a baby my mama told me. Son,

always be a good boy, don't ever play with guns.
A E
But I shot a man in Reno just to watch him die
B7 E
when I hear that whistle blowing I hang my head and cry..


[Solo]

e|----7-10-7-10-7-----7-10-7-10------7-10-7-10-7-----7-10-7-10--|
B|-8h9-------------8h9-----------8h9--------------8h9-----------|
G|--------------------------------------------------------------|
D|--------------------------------------------------------------|
A|--------------------------------------------------------------|
E|--------------------------------------------------------------|

e|-7---- -------5-5-
B|---8-6 -2-2---5-5-
G|------ -2-2---2-2-
D|------ -2-2---2-2-
A|------ -----------
E|------ ----------- x 4

(pick near bridge]

e|-------------------------------|
B|-------------------------------|
G|-------------------------------|
D|--------1---1------------------|
A|0-0-1-2---2---2-2-2------------|
E|------------------------3b-0---|


[Verse 2]

E
I bet there's rich folks eating in a fancy dining car
they're probably drinkin' coffee and smoking big cigars
A E
Well I know I had it coming, I know I can't be free
B7 E
but those people keep a movin'
and that's what tortures me...


[Solo]

e|----8-11-8-11-8-----8-11-8-11------8-11-8-11-8-----8-11-8-11--|
B|-8h9-------------8h9-----------8h9--------------8h9-----------|
G|--------------------------------------------------------------|
D|--------------------------------------------------------------|
A|--------------------------------------------------------------|
E|--------------------------------------------------------------|

e|-8-6-----6---6-----6---6----6--6--10----|
B|-----6---------6---------6------6--6----|
G|-------7---7-----7---7-----7-7-----7----|
D|----------------------------------------|
A|----------------------------------------|
E|----------------------------------------|

(pick near bridge]

e|-------------------------------|
B|-------------------------------|
G|-------------------------------|
D|-------------------------------|
A|0-1-2-3----3----3----3---------|
E|------------------------3b-1---|


[Verse 3]

E
Well if they'd free me from this prison,
if that railroad train was mine
A.
I bet I'd move just a little further down the line
E
far from Folsom prison, that's where I want to stay
B7
and I'd let that lonesome whistle blow my blues away...



Tabbed by Daniel
Re-tabbed by Peeks
Please rate!
Tunning: Standard (E A D G B e)
Folsom Prison Blues (Live)
Johnny Cash
Album: At Folsom Prison

Capo on 1st fret

[intro:]
e|------------------------|
B|--------0--0--0----0----|
G|------------------------|
D|-------1--1-------------|
A|-2-2-2-------2----------|
E|----------------2b3---0-|

E
I hear the train a comin'
E
It's rollin' 'round the bend,
E
And I ain't seen the sunshine,
E
Since, I don't know when,
A
I'm stuck in Folsom Prison,
E
And time keeps draggin' on,
B
But that train keeps a-rollin',
A E
On down to San Antone.

E
When I was just a baby,
E
My Mama told me, "Son,
E
Always be a good boy,
E
Don't ever play with guns,"
A
But I shot a man in Reno,
E
Just to watch him die,
B
When I hear that whistle blowin',
A E
I hang my head and cry.


[Solo:]
e|----0-------0--------7-10p7-10-p7--------7-10p7-10-----|
B|----0-0-----0----8h9-----------------8h9---------------|
G|---1---1---1-------------------------------------------|
D|-------------------------------------------------------|
A|-------------------------------------------------------|
E|-0-------0---------------------------------------------|

e|-----7-10p7-10-p7--------7-10p7-10p7-----|
B|-8h9-----------------8h9-------------9-8-|
G|-----------------------------------------|
D|-----------------------------------------|
A|-----------------------------------------|
E|-----------------------------------------|

e|------5-------5-------5-------9----|
B|-----5-5-----5-5-----5-5-----5-5---|
G|---6----6---6---6---6---6---6---6--|
D|-----------------------------------|
A|-0--------0-------0-------0--------|
E|-----------------------------------|

e|----0--------0--------0-------|
B|----0-0------0-0------0-0-----|
G|---1---1----1---1----1---1----|
D|------------------------------|
A|------------------------------|
E|-0--------0--------0--------0-|

e|--------2--------2--------2------------|
B|--------4-4------4-4------4-4----------|
G|-------4---4----4---4----4---4---------|
D|---------------------------------------|
A|-0-1-2--------2--------2-------1-------|
E|---------------------------------2b3-0-|

E
I bet there's rich folks eatin',
E
In a fancy dining car,
E
They're probably drinkin' coffee,
E
And smokin' big cigars,
E A
But I know I had it comin',
A E
I know I can't be free,
E B
But those people keep a-movin',
A E
And that's what tortures me.


[Solo:]
e|----0-------0--------7-10p7-10-p7--------7-10p7-10-----|
B|----0-0-----0----8h9-----------------8h9---------------|
G|---1---1---1-------------------------------------------|
D|-------------------------------------------------------|
A|-------------------------------------------------------|
E|-0-------0---------------------------------------------|

e|-----7-10p7-10-p7--------7-10p7-10p7-----|
B|-8h9-----------------8h9-------------9-8-|
G|-----------------------------------------|
D|-----------------------------------------|
A|-----------------------------------------|
E|-----------------------------------------|

e|------5-------5-------5-------9----|
B|-----5-5-----5-5-----5-5-----5-5---|
G|---6----6---6---6---6---6---6---6--|
D|-----------------------------------|
A|-0--------0-------0-------0--------|
E|-----------------------------------|

e|----0--------0--------0-------|
B|----0-0------0-0------0-0-----|
G|---1---1----1---1----1---1----|
D|------------------------------|
A|------------------------------|
E|-0--------0--------0--------0-|

e|--------2--------2--------2------------|
B|--------4-4------4-4------4-4----------|
G|-------4---4----4---4----4---4---------|
D|---------------------------------------|
A|-0-1-2--------2--------2-------1-------|
E|---------------------------------2b3-0-|

E
Well, if they freed me from this prison,
E
If that railroad train was mine,
E
I bet I'd move out over a little,
E
Farther down the line,
A
Far from Folsom Prison,
A E
That's where I want to stay,
E B
And I'd let that lonesome whistle,
A E
Blow my Blues away.


[Outro:]
e|-------------------------0------0--|
B|--------0--0--0----0-----0-0----0--|
G|------------------------1---1---1--|
D|-------1--1---------------------2--|
A|-2-2-2-------2------------------2--|
E|----------------2b3---0-------0----|



************************************

| h Hammer-on
| p Pull-off
| b Bend

************************************
Tunning: Nashville (E A D G B E)
Intro:
Guitar One:
E|-------|---------|-------|---0-----|---------|---|
B|-------|---0---0-|---0---|---0-----|---------|---|
G|-------|---2---2-|---2---|---1-----|---------|---|
D|-------|-1---1---|---1---|-------2-|---2---2-|---|
A|-2-2-2-|---------|-2-----|-----2---|-----2---|---|
E|-------|---------|-----2b|-0-------|-0-------|---|

Guitar Two (Johnny):

E|-|---------|-----------|---0-0-0-0-0-|-0-0-0-0-0-0-0-|---|
B|-|---0---0-|---0-0---0-|---0-0-0-0-0-|-0-0-0-0-0-0-0-|---|
G|-|---2---2-|---2-2---2-|---1-1-1-1-1-|-1-1-1-1-1-1-1-|---|
D|-|---1---1-|---1-1---1-|-2-2-2-2-2-2-|-2-2-2-2-2-2-2-|---|
A|-|-2---2---|-2-----2---|-2-2-2-2-2-2-|-2-2-2-2-2-2-2-|---|
E|-|---------|-----------|-0-----------|---------------|---|

Guitar Two just strums the chords throughout the whole song while Guitar One plays an
bass line (shown in measure five of the intro)


E
I hear the train a-comin' It's rollin' 'round the bend and I ain't seen the

E7 A
sunshine since I don't know when I'm stuck in Folsom Prison and time keeps

E B7 E
draggin' on But that train keeps a-rollin' on down to San Antone

Same 12-bar chord progression throughout the all of the verses:

Verse 2: When I was just a baby my mama told me "Son Always be a good boy Don't ever
with guns" But I shot a man in Reno just to watch him die When I heaer that whistle blowin'
hang my head and cry

Verse 3:I bet there's rich folks eatin' In a fancy dinin' car They're prob'ly drinkin'
and smokin' big cigars Well I know I had it comini' I know I can't be free But those
keep a-movin' and that's what tortures me

Verse 4: If they freed me from this prison If that railroad train was mine I bet I'd
it on a little farther down the line Far from Folsom Prison That's where I want tostay And
let that lonesome whistle blow my blues a-way


After verses 2 and 3 there is a solo:

E|-------|-----7--10--7--10--|--7----|-----7--10--7--10--|----|-----|
B|-----8/|--9----------------|-----8/|--9----------------|--8/|-----|
G|-------|-------------------|-------|-------------------|----|-----|
D|-------|-------------------|-------|-------------------|----|-----|
A|-------|-------------------|-------|-------------------|----|-----|
E|--0----|-------------------|-------|-------------------|----|-----|

E|-----7--10--7--10--|--7----|-----7--10--7--10--|--7--------|-----|
B|--9----------------|-----8/|--9----------------|-----9-----|-----|
G|-------------------|-------|-------------------|--------9--|-----|
D|-------------------|-------|-------------------|-----------|-----|
A|-------------------|-------|-------------------|-----------|-----|
E|-------------------|-------|-------------------|-----------|-----|

E|--------5--5--|--------5--0-----|--------5--0-----|---------9--0--------|
B|-----2--2--2--|-----2--2-----0--|-----5--------0--|-----10--------0-----|
G|-----2--------|-----2-----------|--6--------------|--9------------------|
D|-----2--------|-----------------|-----------------|---------------------|
A|--0-----------|--0--------------|-----------------|---------------------|
E|--------------|-----------------|-----------------|---------------------|

E|-----------0-----|-----------0-----|-----------0-----|-----|
B|-----0--0-----0--|-----0--0-----0--|-----0--0-----0--|-----|
G|-----1--1--------|-----1--1--------|-----1--1--------|-----|
D|-----2--2--------|-----2--2--------|-----2--2--------|-----|
A|-----2--2--------|-----2--2--------|-----2--2--------|-----|
E|--0--------------|--0--------------|--0--------------|-----|

E|--------0--0-----|--------2--2-----|--------2--2-----|--------------|-----|
B|-----0--0--0-----|--------0--0-----|--------0--0-----|-----0-----0--|-----|
G|-----1--1-----1--|-----2--2--2--2--|-----2--2--2--2--|-----2-----2--|-----|
D|-----2-----------|-----1-----------|-----1-----------|-----1-----1--|-----|
A|-----2-----------|--2--------------|--2--------------|--2-----2-----|-----|
E|--0--------------|-----------------|-----------------|--------------|-----|

E|----------|--------------0--0--|--------------0--0--|-----|
B|----------|--------0-----0-----|-----------0--0-----|-----|
G|-----0----|--------------------|--------------------|-----|
D|-----0----|-----2--------------|-----2--------------|-----|
A|--1-------|-----------2--------|--------2-----------|-----|
E|--------2b|--0-----------------|--0-----------------|-----|


The outro is basically the same as the intro and end on an E chord.


Tabbed by: Richard L. of CO
Tunning: Standard (E A D G B e)
Words and Music by Johnny Cash
Arranged by Volcom4137
Transcribed by Volcom4137

Gtr I (E A D G B E) - 'Capo 1'
Gtr II (E A D G B E) - 'Capo 1'

[Intro]
H E E E E Q Q Q Q
e|--------------|-------------|
B|--------------|-------------|
G|--------------|-------------|
D|--------------|-1--1--------|
A|--------2-2-2-|-------2-----|
E|--------------|----------3--|

E S S E S S E S S E S S E S S E S S E S S E S S E S S E S S E S S E S S
e|---0-0---0-0---0-0---0-0-|---0-0---0-0---0-0---0-0-||----0-0---0-0---0-0---0-0-|
B|---0-0---0-0---0-0---0-0-|---0-0---0-0---0-0---0-0-||o---0-0---0-0---0-0---0-0-|
G|---1-1---1-1---1-1---1-1-|---1-1---1-1---1-1---1-1-||----1-1---1-1---1-1---1-1-|
D|---2-2---2-2---2-2---2-2-|---2-2---2-2---2-2---2-2-||----2-2---2-2---2-2---2-2-|
A|---2-2-2-2-2---2-2-2-2-2-|---2-2-2-2-2---2-2-2-2-2-||o---2-2-2-2-2---2-2-2-2-2-|
E|-0-----------0-----------|-0-----------0-----------||--0-----------0-----------|

E S S E S S E S S E S S E S S E S S E S S E S S
e|---0-0---0-0---0-0---0-0-|---0-0---0-0---0-0---0-0--|
B|---0-0---0-0---0-0---0-0-|---0-0---0-0---0-0---0-0--|
G|---1-1---1-1---1-1---1-1-|---1-1---1-1---1-1---1-1--|
D|---2-2---2-2---2-2---2-2-|---2-2---2-2---2-2---2-2--|
A|---2-2-2-2-2---2-2-2-2-2-|---2-2-2-2-2---2-2-2-2-2--|
E|-0-----------0-----------|-0-----------0------------|

E S S E S S E S S E S S E S S E S S E S S E S S
e|---0-0---0-0---0-0---0-0-|---0-0---0-0---0-0---0-0-|
B|---2-2---2-2---2-2---2-2-|---2-2---2-2---2-2---2-2-|
G|---2-2---2-2---2-2---2-2-|---2-2---2-2---2-2---2-2-|
D|---2-2---2-2---2-2---2-2-|---2-2---2-2---2-2---2-2-|
A|-0-----------0-----------|-0-----------0-----------|
E|-------0-----------0-----|-------0-----------0-----|

E S S E S S E S S E S S E S S E S S E S S E S S
e|---0-0---0-0---0-0---0-0-|---0-0---0-0---0-0---0-0----|
B|---0-0---0-0---0-0---0-0-|---0-0---0-0---0-0---0-0----|
G|---1-1---1-1---1-1---1-1-|---1-1---1-1---1-1---1-1----|
D|---2-2---2-2---2-2---2-2-|---2-2---2-2---2-2---2-2----|
A|---2-2-2-2-2---2-2-2-2-2-|---2-2-2-2-2---2-2-2-2-2----|
E|-0-----------0-----------|-0-----------0--------------|

E S S E S S E S S E S S E S S E S S E S S E S S
e|---2-2---2-2---2-2---2-2-|---2-2---2-2---2-2---2-2-|
B|---0-0---0-0---0-0---0-0-|---0-0---0-0---0-0---0-0-|
G|---2-2---2-2---2-2---2-2-|---2-2---2-2---2-2---2-2-|
D|---1-1---1-1---1-1---1-1-|---1-1---1-1---1-1---1-1-|
A|-2-----------2-----------|-2-----------2-----------|
E|-------2-----------2-----|-------2-----------2-----|

1.
E S S E S S E S S E S S E S S E S S E S S E S S
e|---0-0---0-0---0-0---0-0-|---0-0---0-0---0-0---0-0-----||
B|---0-0---0-0---0-0---0-0-|---0-0---0-0---0-0---0-0----o||
G|---1-1---1-1---1-1---1-1-|---1-1---1-1---1-1---1-1-----||
D|---2-2---2-2---2-2---2-2-|---2-2---2-2---2-2---2-2-----||
A|---2-2-2-2-2---2-2-2-2-2-|---2-2-2-2-2---2-2-2-2-2----o||
E|-0-----------0-----------|-0-----------0---------------||

2.
E S S E S S E S S E S S E S S E S S E S S E S S
e|---0-0---0-0---0-0---0-0-|---0-0----0--0----0-0---0-0-|
B|---0-0---0-0---0-0---0-0-|---0-0----0--0----0-0---0-0-|
G|---1-1---1-1---1-1---1-1-|---1-1----1--1----1-1---1-1-|
D|---2-2---2-2---2-2---2-2-|---2-2----2--2----2-2---2-2-|
A|---2-2-2-2-2---2-2-2-2-2-|---2-2--2-2--2----2-2-2-2-2-|
E|-0-----------0-----------|-0--------------0-----------|
|
| Gtr II
| H Q E E E E E S E. Q E
e|-------------------------|---7---10-7-10----7---------|
B|---------------------8---|-9----------------------8---|
G|-------------------------|----------------------------|
D|-------------------------|----------------------------|
A|-------------------------|----------------------------|
E|-------------------------|----------------------------|

E S S E S S E S S E S S
e|---0-0----0--0--------0--0---0-0--|
B|---0-0----0--0--------0--0---0-0--|
G|---1-1----1--1--------1--1---1-1--|
D|---2-2----2--2--------2--2---2-2--|
A|---2-2--2-2--2--------2--2-2-2-2--|
E|-0---------------0----------------|
|
| E E E S S +E +Q E
e|---7---10-7-10-(10)-(10)----------|
B|-9---------------------------8----|
G|----------------------------------|
D|----------------------------------|
A|----------------------------------|
E|----------------------------------|

E S S E S S E S S E S S E S S E S S E S S E S S
e|---0-0----0--0----0-0---0-0-|---0-0----0--0------0-0---0-0-|
B|---0-0----0--0----0-0---0-0-|---0-0----0--0------0-0---0-0-|
G|---1-1----1--1----1-1---1-1-|---1-1----1--1------1-1---1-1-|
D|---2-2----2--2----2-2---2-2-|---2-2----2--2------2-2---2-2-|
A|---2-2--2-2--2----2-2-2-2-2-|---2-2--2-2--2------2-2-2-2-2-|
E|-0--------------0-----------|-0---------------0------------|
|
| E E E S E. Q E E E E S S +E E E E
e|---7---10-7-10----7---------|---7---10-7-10-(10)-7---------|
B|-9----------------------8---|-9----------------------9-----|
G|----------------------------|--------------------------9---|
D|----------------------------|------------------------------|
A|----------------------------|------------------------------|
E|----------------------------|------------------------------|

E S S E S S E S S E S S E S S E S S E S S E S S
e|---0-0-----0-0---0-0-----0-0-|---0-0-------0-0----0-0-----0-0-|
B|---2-2-----2-2---2-2-----2-2-|---2-2-------2-2----2-2-----2-2-|
G|---2-2-----2-2---2-2-----2-2-|---2-2-------2-2----2-2-----2-2-|
D|---2-2-----2-2---2-2-----2-2-|---2-2-------2-2----2-2-----2-2-|
A|-0-------------0-------------|-0---------------0--------------|
E|-------0-------------0-------|--------0---------------0-------|
|
| E S E S E E S E S E E S S +S S E E S E S E
e|-----5---5-5-------5---0-----|-----5-(5)-0----------9---0-----|
B|-----2---2-2-------2-----0---|---5---------0-----10-----------|
G|---2-------------2-----------|-6---------------9----------0---|
D|---2-------------2-----------|--------------------------------|
A|-0-------------0-------------|--------------------------------|
E|-----------------------------|--------------------------------|

E S S E S S E S S E S S E S S E S S E S S E S S
e|---0-0-----0-0---0-0-----0-0-|---0-0-----0-0---0-0-----0-0-|
B|---0-0-----0-0---0-0-----0-0-|---0-0-----0-0---0-0-----0-0-|
G|---1-1-----1-1---1-1-----1-1-|---1-1-----1-1---1-1-----1-1-|
D|---2-2-----2-2---2-2-----2-2-|---2-2-----2-2---2-2-----2-2-|
A|---2-2-2---2-2---2-2-2---2-2-|---2-2-2---2-2---2-2-2---2-2-|
E|-0-------------0-------------|-0-------------0-------------|
|
| E S E S E E S E S E E S E S E E S E S E
e|---------0-------------0-----|---------0---------0---0-----|
B|---0-0-----0-----0-0-----0---|---0-0-----0-----0-0---0-----|
G|---1-1-----------1-1---------|---1-1-----------1-1-----1---|
D|---2-2-----------2-2---------|---2-2-----------2-----------|
A|---2-2-----------2-2---------|---2-2-----------2-----------|
E|-0-------------0-------------|-0-------------0-------------|

E S S E S S E S S E S S E S S E S S E S S E S S
e|---2-2-----2-2---2-2-----2-2-|---2-2---2-2---2-2------2--2-|
B|---0-0-----0-0---0-0-----0-0-|---0-0---0-0---0-0------0--0-|
G|---2-2-----2-2---2-2-----2-2-|---2-2---2-2---2-2------2--2-|
D|---1-1-----1-1---1-1-----1-1-|---1-1---1-1---1-1------1--1-|
A|-2-------------2-------------|-2-----------2---------------|
E|-------2-------------2-------|-------2-----------2---------|
|
| E S E S E E S E S E E E E E E E E +E
e|-----2---2-2-------2---2-2---|-----------------------------|
B|---0-0---0-0-----0-0---0-0---|-----------------------------|
G|---2-2---2-2-----2-2---2-2---|---2-----2-------------------|
D|---1-------------1-----------|---1-----1-----0-------------|
A|-2-------------2-------------|-2-----2-----1---------------|
E|-----------------------------|-------------------2b3r(2)---|

E S S E S S E S S E S S E S S E S S E S S E S S
e|---0-0---0-0---0-0---0-0-|---0-0---0-0---0-0---0-0--|
B|---0-0---0-0---0-0---0-0-|---0-0---0-0---0-0---0-0--|
G|---1-1---1-1---1-1---1-1-|---1-1---1-1---1-1---1-1--|
D|---2-2---2-2---2-2---2-2-|---2-2---2-2---2-2---2-2--|
A|---2-2-2-2-2---2-2-2-2-2-|---2-2-2-2-2---2-2-2-2-2--|
E|-0-----------0-----------|-0-----------0------------|
|
| PM--------------------|
| E S S E S S E S S E S S W
e|-----------0-----------0-|--------------------------|
B|-----0---0-------0---0---|--------------------------|
G|-------------------------|--------------------------|
D|---2-----------2---------|--------------------------|
A|-------2-----------2-----|--------------------------|
E|-0-----------0-----------|--------------------------|

E S S E S S E S S E S S E S S E S S E S S E S S E S S E S S E S S E S S
e|---0-0---0-0---0-0---0-0-|---0-0---0-0---0-0---0-0-|---0-0---0-0---0-0---0-0--|
B|---0-0---0-0---0-0---0-0-|---0-0---0-0---0-0---0-0-|---0-0---0-0---0-0---0-0--|
G|---1-1---1-1---1-1---1-1-|---1-1---1-1---1-1---1-1-|---1-1---1-1---1-1---1-1--|
D|---2-2---2-2---2-2---2-2-|---2-2---2-2---2-2---2-2-|---2-2---2-2---2-2---2-2--|
A|---2-2-2-2-2---2-2-2-2-2-|---2-2-2-2-2---2-2-2-2-2-|---2-2-2-2-2---2-2-2-2-2--|
E|-0-----------0-----------|-0-----------0-----------|-0-----------0------------|

E S S E S S E S S E S S E S S E S S E S S E S S
e|---0-0---0-0---0-0---0-0-|---0-0---0-0---0-0---0-0-|
B|---2-2---2-2---2-2---2-2-|---2-2---2-2---2-2---2-2-|
G|---2-2---2-2---2-2---2-2-|---2-2---2-2---2-2---2-2-|
D|---2-2---2-2---2-2---2-2-|---2-2---2-2---2-2---2-2-|
A|-0-----------0-----------|-0-----------0-----------|
E|-------0-----------0-----|-------0-----------0-----|

E S S E S S E S S E S S E S S E S S E S S E S S
e|---0-0---0-0---0-0---0-0-|---0-0---0-0---0-0---0-0----|
B|---0-0---0-0---0-0---0-0-|---0-0---0-0---0-0---0-0----|
G|---1-1---1-1---1-1---1-1-|---1-1---1-1---1-1---1-1----|
D|---2-2---2-2---2-2---2-2-|---2-2---2-2---2-2---2-2----|
A|---2-2-2-2-2---2-2-2-2-2-|---2-2-2-2-2---2-2-2-2-2----|
E|-0-----------0-----------|-0-----------0--------------|

E S S E S S E S S E S S E S S E S S E S S E S S
e|---2-2---2-2---2-2---2-2-|---2-2---2-2---2-2---2-2-|
B|---0-0---0-0---0-0---0-0-|---0-0---0-0---0-0---0-0-|
G|---2-2---2-2---2-2---2-2-|---2-2---2-2---2-2---2-2-|
D|---1-1---1-1---1-1---1-1-|---1-1---1-1---1-1---1-1-|
A|-2-----------2-----------|-2-----------2-----------|
E|-------2-----------2-----|-------2-----------2-----|

E S S E S S E S S E S S E S S E S S E S S E S S
e|---0-0---0-0---0-0---0-0-|---0-0---0-0---0-0---0-0----*|
B|---0-0---0-0---0-0---0-0-|---0-0---0-0---0-0---0-0----*|
G|---1-1---1-1---1-1---1-1-|---1-1---1-1---1-1---1-1----*|
D|---2-2---2-2---2-2---2-2-|---2-2---2-2---2-2---2-2----*|
A|---2-2-2-2-2---2-2-2-2-2-|---2-2-2-2-2---2-2-2-2-2----*|
E|-0-----------0-----------|-0-----------0--------------*|


************************************

| (n) Ghost note
| b Bend
| PM Palm Mute

************************************
Song info
Folsom Prison Blues
Johnny Cash
2001
  • Folk, World, & Country
  • Country
Alternative tracks
Similar songs
Friends In Low Places - Garth Brooks
I Gotta Get Drunk - Willie Nelson
Shameless - Garth Brooks
I See A Darkness - Johnny Cash

Hi! Hope you enjoy backing track experience.
If you want to help us in the development of the project, feel free to donate!