Diamonds And Rust - Judas Priest
00:00 / 00:00
Tabs and lyrics
Tunning: Standard (E A D G B e)
JUDAS PRIEST - DIAMONDS AND RUST (LIVE)
From the Album UNLEASHED IN THE EAST
Copyright 1979 COLUMBIA RECORDS
Version 1.0 - (MAY - 2001)

Transcribed by: RENE

For Questions, Comments, Newest Version, or Corrections contact
(YOUR NAME): at PANZERKILL@YAHOO.DK


.. - palm mute / - slide up to
\ - slide down to ~ - vibrato
h - hammer on b - bend
p - pull off Suffixes for bend
ph - pinch harmonic
f - full bend h - half bend
* - see comment r - release t - tap bend
X - percussion mute ~ - vibrato bend
@ - slight palm mute () - ghost note, sustained note

Tune Gtr to E

Gtr 2 lets all the chords ring

INTRO
|------------------------------------------------------|
|------------------------------------------------------|
|--9--(9)-------------------9--------------------------|
|--9--(9)-------------9*----9------------9*---5*---7*--|
|--7--(7)-------------9*----7------------9*---5*---7*--|
|--0-------0000-0000--7*----0--0000-0000-7*---3*---5*--|
* IS DIGITAL DELAY

Riff A
|------------------------------|
|------------------------------|
|--------------7-6--7-6--4--4--|
|--9-----------5-4--5-4--4--4--|
|--7---------------------2--2--|
|----0000-0000-----------------|

Riff B
|----------------------------------------------------------|
|----------------------------------------------------------|
|----------------------------------------------------------|
|--9------------5------5----------------------7------------|
|--7-7777-7777--3-3333-3-3333--5-----------5--5-5555-5555--|
|--0-0000-0000-----------------3-3333-3333-3---------------|

Riff C
|------------------------|
|------------------------|
|------------------------|
|--9--12--9----9--12--9--|
|--7--10--7----7--10--7--|
|--0-----------0---------|

Riff D
|---------------------------------------|
|---------------------------------------|
|---------------------------------------|
|--5-----------7-----------9------------|
|--3-3333-3333-5-5555-5555-7-7777-7777--|
|----------------------------0000-0000--|

Riff E
|----------------------------------------------------------|
|----------------------------------------------------------|
|--4----4----2----2-----------5--5-------------------------|
|--4----4----2----2--2-times--5--5--5--5--2-4-5-5-5-5-5-9--|
|--2----2----0----0-----------3--3--5--5--2-2-3-3-3-3-5-7--|
|-----------------------------------3--3--0----------------|
Tunning: Standard (E A D G B e)
Band: Judas Priest
Album: Sin After Sin
Song: Diamonds And Rust

Copyright (c) (CBS) (1977)
Version 1.0 - (25/02/05)



. - palm mute / - slide up to
\ - slide down to ~ - vibrato
h - hammer on b - Bend
p - pull off Suffixes for bend
t - tap f - full bend h - half bend
ph - pinched harmonic q - quarter bend t - tap bend
* - see comment ^ - Hold bend r release bend
pb - pre bend
x - Stuccatto ~ - vibrato bend
, - slight palm mute () - ghost note, sustained note
" - tremolo note <> - Trill

Tunning E A D G B E

Intro

Guitar 1
E[------------------------------|
B[------------------------------|
G[------------------------------|
D[------------------------------|
A[-7-7-7-7777-77-7-7-7-7777-77--|
E[-0-0-0-0000-00-0-0-0-0000-00--|
[Guitar 2
E[------------------------------|
B[-------------------7----8-----|
G[-------------------7----7-----|
D[-------------------7----9-----|
A[------------------------------|
E[------------------------------|

Main Riff
Guitar 1
[------------------------PM----------------------------]
E[----------------------------------------------------------|
B[----------------------------------------------------------|
G[----------------------------------------------------------|
D[----------------------------------------------------------|
A[-7-7-7-7777-77-7-7-7-7777-77-9-9-9-9999-99-9-9-9-9999-99--|
E[-0-0-0-0000-00-0-0-0-0000-00-7-7-7-7777-77-7-7-7-7777-77--|
[Guitar 2
E[----------------------------------------------------------|
B[----------------------------------------------------------|
G[----------------------------------------------------------|
D[-9---------(9)---------------9--------------9-------------|
A[-7---------(7)---------------9--------------9-------------|
E[-0---------(0)---------------7--------------7-------------|
[Guitar 3
E[----------------------------------------------------------|
B[-8-------------8p7----8p7----7--------------7-------------|
G[-9-------------7-7----7-7----9--------------8-------------|
D[-9-------------9-9----9-9----9--------------9-------------|
A[----------------------------------------------------------|
E[----------------------------------------------------------|

Guitar 1
[------------------------PM----------------------------]
E[----------------------------------------------------------|
B[----------------------------------------------------------|
G[----------------------------------------------------------|
D[----------------------------------------------------------|
A[-7-7-7-7777-77-7-7-7-7777-77-9-9-9-9999-99-9-9-9-9999-99--|
E[-0-0-0-0000-00-0-0-0-0000-00-7-7-7-7777-77-7-7-7-7777-77--|
[Guitar 2
E[----------------------------------------------------------|
B[----------------------------------------------------------|
G[----------------------------------------------------------|
D[-9---------(9)---------------9--------------9-------------|
A[-7---------(7)---------------9--------------9-------------|
E[-0---------(0)---------------7--------------7-------------|
[Guitar 3
E[----------------------------------------------------------|
B[-8-------------8p7----8p7----7--------------7-------------|
G[-9-------------7-7----7-7----9--------------8-------------|
D[-9-------------9-9----9-9----9--------------9-------------|
A[----------------------------------------------------------|
E[----------------------------------------------------------|
[Guitar 4 ~~~~~~~~~~~~
E[----------------------------------------------------------|
B[----------------------------------------------------------|
G[--------------------------------------------12------------|
D[----------------------------------------------------------|
A[----------------------------------------------------------|
E[----------------------------------------------------------|

Verse

Guitar 1
[------------------------PM----------------------------]
E[----------------------------------------------------------|
B[----------------------------------------------------------|
G[----------------------------------------------------------|
D[-----------------------------5-5-5-5555-55-5-5-5-5555-55--|
A[-7-7-7-7777-77-7-7-7-7777-77-3-3-3-3333-33-3-3-3-3333-33--|
E[-0-0-0-0000-00-0-0-0-0000-00------------------------------|
[Guitar 2
E[----------------------------------------------------------|
B[-8-----------(8)------------------------------------------|
G[-9-----------(9)-------------5--------------(5)-----------|
D[-9-----------(9)-------------5--------------(5)-----------|
A[-7-----------(7)-------------3--------------(3)-----------|
E[-0-----------(0)------------------------------------------|

Guitar 1
[------------------------PM----------------------------]
E[----------------------------------------------------------|
B[----------------------------------------------------------|
G[----------------------------------------------------------|
D[-----------------------------7-7-7-7777-77-7-7-7-7777-77--|
A[-5-5-5-5555-55-5-5-5-5555-55-5-5-5-5555-55-5-5-5-5555-55--|
E[-3-3-3-3333-33-3-3-3-3333-33------------------------------|
[Guitar 2
E[----------------------------------------------------------|
B[----------------------------------------------------------|
G[-----------------------------7--------------(7)-----------|
D[-5-----------(5)-------------7--------------(7)-----------|
A[-5-----------(5)-------------5--------------(5)-----------|
E[-3-----------(3)------------------------------------------|

Guitar 1
[------------------------PM----------------------------]
E[----------------------------------------------------------|
B[----------------------------------------------------------|
G[----------------------------------------------------------|
D[----------------------------------------------------------|
A[-7-7-7-7777-77-7-7-7-7777-77-7-7-7-7777-77-7-7-7-7777-77--|
E[-0-0-0-0000-00-0-0-0-0000-00-0-0-0-0000-00-0-0-0-0000-00--|
[Guitar 2
E[----------------------------------------------------------|
B[------------------------7---------------------------8-----|
G[------------------------7---------------------------7-----|
D[-9---------(9)----------9----9--------(9)-----------9-----|
A[-7---------(7)---------------7--------(7)-----------------|
E[-0---------(0)---------------0--------(0)-----------------|


Chorus

Both guitars
E-----------------------------------------------------------|
B-----------------------------------------------------------|
G-5--------(5)-----------------7--------(7)-----------------|
D-5--------(5)-----------------7--------(7)-----------------|
A-3--------(3)---------0--3--5-5--------(5)-----------10-9--|
E--------------------------------------------------7--------|

Guitar 1
[------------------------PM----------------------------]
E[----------------------------------------------------------|
B[----------------------------------------------------------|
G[----------------------------------------------------------|
D[----------------------------------------------------------|
A[-7-7-7-7777-77-7-7-7-7777-77-7-7-7-7777-77-7-7-7-7777-77--|
E[-0-0-0-0000-00-0-0-0-0000-00-0-0-0-0000-00-0-0-0-0000-00--|
[Guitar 2
E[----------------------------------------------------------|
B[----------------------------------------------------------|
G[----------------------------------------------------------|
D[-9----------(9)--------------9----------(9)---------------|
A[-7----------(7)--------------7----------(7)---------------|
E[-0----------(0)--------------0----------(0)---------------|Rpt


Interlude

B A
E-------------------------------------------------------------------|
B-------------------------------------------------------------------|
G-------------------------------------------------------------------|
D-4------------(4)--------------------------------------------------|
A-2------------(2)--------------------------------------------------|
E-------------------------------------------------------------------|
B A ~~~~~~
E-------------------------------------------------------------------|
B-------------------------------------------------------------------|
G---------------------------------------2/4-5/4/7b\2/4\7\5\4--------|
D-------------------------------------------------------------------|
A-------------------------------------------------------------------|
E-------------------------------------------------------------------|

B A
E-------------------------------------------------------------------|
B----------------------------15fb----15b13--------------------------|
G------------------------------------------12\8-9-------------------|
D-------------------------------------------------10\---------------|
A-------------------------------------------------------------------|
E-------------------------------------------------------------------|
C G ~~
E------------------------------------------------15-13br13p12p10-12-|
B------------------------------------------8/-/15-------------------|
G------------------------------4-5-------7--/-----------------------|
D----------------------------3-----3-3/9----/-----------------------|
A-------------------------------------------------------------------|
E-------------------------------------------------------------------|
C B
~~~~~~~~~~~~~~~~~~ ~~~~~~~~~~~~~~ ~~~~
E[-(12)--------------12-14-15-17fb--------------------r15-14-10-----|
B[-------------------------------------------------------------12---|
G[------------------------------------------------------------------|
D[------------------------------------------------------------------|
A[------------------------------------------------------------------|
E[------------------------------------------------------------------|
[Guitar 2
E[------------------------------------------------------------------|
B[------------------------------------------------------------------|
G[------------------------------------------------------------------|
D[----------------------------4--------(4)--------4--------(4)------|
A[--------------------------2-2--------(2)--------2--------(2)------|
E[------------------------------------------------------------------|

Guitar 1 ~~~~~~~~~~~~~~~~~~~~~~~~~~~~
E[------------------------------------------------------------------|
B[------------------------------------------------------------------|
G[------0----------0------------------------------------------------|
D[--------2----------2-------/4------------------(4)----------------|
A[----------3----------3--------------------------------------------|
E[------------------------------------------------------------------|
[Guitar 2
E[------------------------------------------------------------------|
B[------------------------------------------------------------------|
G[------------------------------------------------------------------|
D[/5--------(5)--------------/7--------(5)--------------------------|
A[/3--------(3)-------------5/5--------(3)--------------------------|
E[------------------------------------------------------------------|

Fill during pause

E-------------|
B-------------|
G-------------|
D-/10-9-7-9---|
A-------------|
E-------------|

Rpt Main Riff with note below
~~~~~~~~~~~~~~~~~~~~~~~~~~~~~~~~~~~~~ to feed back
E------------------------------------------------------------|
B------------------------------------------------------------|
G-9-----------------------(9)--------------------------------|
D------------------------------------------------------------|
A------------------------------------------------------------|
E------------------------------------------------------------|

Rpt Verse
Additional verse lead
E C
~~~~~~~~~~~~ ~~~~~~~~~~~~~~~
E--------------------------------------------------------------|
B---------------10-12--16fb----------r16p12-15fb---------------|
G-------9-11-12------------------------------------------------|
D--------------------------------------------------------------|
A--------------------------------------------------------------|
E--------------------------------------------------------------|
G D
~~~~~~~~~ ~~~ ~~~~~~~~~~ ~~~ ~~~~~~~~~~~~~
E--------------------------------------------------------------|
B-------r15p13-15-12----------------10fbr10-12p10\8------------|
G----------------------12----------------------------11--9--\--|
D--------------------------------------------------------------|
A--------------------------------------------------------------|
E--------------------------------------------------------------|
E C
~~~~~~~~~~~~~~ ~~~~~~~~~~~~~~~~
E--------------------------------------------------------------|
B--------------10-12--15fb-----------15fbrp12-15fb-------------|
G------9-11-12-------------------------------------------------|
D--------------------------------------------------------------|
A--------------------------------------------------------------|
E--------------------------------------------------------------|
G D
~~~~~~~~~~ ~~~ ~~~~~~~~~~ ~~~~ ~~~~~~~~~~~~~~
E--------------------------------------------------------------|
B---------pb15r13-15-12---------------10fb10-12\8--------------|
G------------------------12------------------------11----------|
D--------------------------------------------------------------|
A--------------------------------------------------------------|
E--------------------------------------------------------------|
E
h~~~~~~~~~~~~~~~~~~~~~~~~~~~~~~~~~~~~
E--------------------------------------------------------------|
B--------------------------------------------------------------|
G-7-9--------------(9)-----------------------------------------|
D--------------------------------------------------------------|
A--------------------------------------------------------------|
E--------------------------------------------------------------|

Rpt Chorus 6 X

Last time

E-----------------------------------------------------------|
B-----------------------------------------------------------|
G-5----------------------------7----------------------------|
D-5----------------------------7----------------------------|
A-3--------------------0--3--5-5----------------------10-9--|
E--------------------------------------------------7--------|

E----------------------------------------------------|
B-----------------------------------------------8\---|
G-----------------------------------------------9\---|
D-----------------------------------------------9\---|
A-2-2-2-2-2-2-2-2-2-2-2-2-2--2------(2)---------7\---|
E-0-0-0-0-0-0-0-0-0-0-0-0-0--0------(0)--------------|




END
Tunning: Standard (E A D G B e)
Artist: Judas Priest
Song: "Diamonds And Rust" written by Joan Baez as performed live on the concert in
Academy, London 19.12.2001
From the album "Live In London" (2002)
Tabbed by Nailed Reaper (reap@front.ru)

I'm sorry for any errors and if you know how to play it right - please mail me.

Well, here's the one of the best rock-covers at all and I want to transcribe it.
Unfortunately, I haven't heard original slow version that has been released as bonus
on "Rocka Rolla".
That's why I'm basing on live version from "Live In London" with Ripper Owens on vocals.
Also I have live version of this song on "Angel Of Retribution" bonus DVD - it is from
tour with Rob Halford.
It's the same, but there are more verses and on the second verses section Glenn is
some lead part on the same chords.
Nevertheless, on the both version music is identical. Reunion version is just a bit longer.
Let's try!!!

~ - vibrato
h - hammer on
\ - slide down
. - palm mute

Tune down 1 whole step.

Part 1: Intro

Guitar 1 (KK Downing) - acoustic
d|----7-7-| |----0-0-| |----3-3-| |----0-0-| |----2-2-| |----7-7-|
A|----8---| |----1---| |----3---| |----1---| |----3---| |----8---|
F|----9---| x8 |----0---| x2 |----0---| x2 |----2---| x2 |----4---| x2 |----9---| x4
C|----9---| |----2---| |----0---| |--2-2---| |--4-4---| |----9---|
G|--7-7---| |--3-3---| |--2-2---| |-0--0---| |-2--2---| |--7-7---|
D|-0--0---| |-3--3---| |-3--3---| |--------| |--------| |-0--0---|
Guitar 2 (Glenn Tipton) - acoustic
d|----------------------------------------------------------------|
A|----------------------------------------------------------------|
F|--------------7h9~---7h9~-7-5-7-4------4h5~-4---4---------------|
C|-----4--5-7\9---------------------5~----------7---5-4~----------|
G|-5h7---------------------------------------------------5-\-7~---|
D|----------------------------------------------------------------|

Part 2: Verses ("I'll be damned, here comes your ghost again...")

Guitar 1 (KK Downing) - acoustic
d|----7-7-| |----0-0-| |----3-3-| |----2-2-| |----7-7-|
A|----8---| |----1---| |----3---| |----3---| |----8---|
F|----9---| x4 |----0---| x4 |----0---| x4 |--2-2---| x4 |----9---| x4
C|----9---| |----2---| |----0---| |-0--0---| |----9---|
G|--7-7---| |--3-3---| |--2-2---| |--------| |--7-7---|
D|-0--0---| |-3--3---| |-3--3---| |--------| |-0--0---|
Guitar 2 (Glenn Tipton) - acoustic
d|----7-7-| |----0-0-| |----3-3-| |----2-2-| |----7-7-|
A|----8---| |----5---| |----3---| |----3---| |----8---|
F|----9---| x4 |----5---| x4 |----4---| x4 |--2-2---| x4 |----9---| x4
C|----9---| |--5-5---| |----5---| |-0--0---| |----9---|
G|--7-7---| |-3--3---| |--5-5---| |--------| |--7-7---|
D|-0--0---| |--------| |-3--3---| |--------| |-0--0---|

Part 3: Chorus ("Well, we both know what memories can bring - they bring diamonds and rust...")

Guitar 1 (KK Downing) - acoustic
d|-0----0-0--2--2-2-3-2--0--0-0--0--0----0-0-|
A|-1----1-1--3----3-3-3--0----0-----0----0-0-|
F|-0----0-0--2----2-2-2--0----0-----0----0-0-|
C|-2--2-2-2--0----0-0-0--2----2-----2----2-2-|
G|-3--3-3-3--------------2----2---2-2--2-2-2-|
D|-3----3-3----------------------------------|
Guitar 2 (Glenn Tipton) - acoustic
d|-0--0-0-0--2--2-2-3-2--0--0-0--0--0----0-0-|
A|-1--1-1-1--3----3-3-3--0----0-----0----0-0-|
F|-0----0-0--2----2-2-2--0----0-----0----0-0-|
C|-2----2-2--0----0-0-0--2----2-----2----2-2-|
G|-3----3-3--------------2----2---2-2--2-2-2-|
D|-3----3-3----------------------------------|

Part 4: Bridge ("Well, I see you standing all around with snow in your hair...")

Guitar 1 (KK Downing) - acoustic
d|-2--2-2--2--2----2--0--0-0--0--0----0--| |-0--0-0--0--0----0--3--3-3--3--3----3--|-0--0-0--0--0----0--2--2--3--5--|
A|-3----3-----3----3--1----1-----1----1--| |-1----1-----1----1--3----3-----3----3--|-1----1-----1----1--4--4--5--7--|
F|-4----4-----4----4--2----2-----2----2--| x2 |-0----0-----0----0--0----0-----0----0--|-0----0-----0----0--4--4--5--7--|
C|-4----4-----4----4--2----2-----2----2--| |-2----2-----2----2--0----0-----0----0--|-2----2-----2----2--4--4--5--7--|
G|-2----2---2-2--2-2--0----0---0-0--0-0--| |-3----3-----3----3--2----2-----2----2--|-3----3-----3----3--2--2--3--5--|
D|---------------------------------------| |-3----3---3-3--3-3--3----3---3-3--3-3--|-3----3---3-3--3-3--------------|
Guitar 2 (Glenn Tipton) - acoustic
d|-2--2-2--2--2----2--0--0-0--0--0----0--| |-0--0-0--0--0----0--3--3-3--3--3----3--|-0--0-0--0--0----0--2--2--3--5--|
A|-3----3-----3----3--1----1-----1----1--| |-1----1-----1----1--3----3-----3----3--|-1----1-----1----1--4--4--5--7--|
F|-4----4-----4----4--2----2-----2----2--| x2 |-0----0-----0----0--0----0-----0----0--|-0----0-----0----0--4--4--5--7--|
C|-4----4-----4----4--2----2-----2----2--| |-2----2-----2----2--0----0-----0----0--|-2----2-----2----2--4--4--5--7--|
G|-2----2---2-2--2-2--0----0---0-0--0-0--| |-3----3-----3----3--2----2-----2----2--|-3----3-----3----3--2--2--3--5--|
D|---------------------------------------| |-3----3---3-3--3-3--3----3---3-3--3-3--|-3----3---3-3--3-3--------------|

Part 5: Heavy chorus ("Diamonds, diamonds and rust...")

Guitar 1 (KK Downing) - electric with heavy distortion
d|----------------| |---------------------------------------------------------|
A|----------------| |---------------------------------------------------------|
F|-5----7----9----| x4 |-5----7------------------------------------5----7--------|
C|-5----7----9----| |-5----7----9-9-9-9-9-9-9-9-9-9-9-9-9-9-9-9-5----7--------|
G|-3----5----7----| |-3----5----7-7-7-7-7-7-7-7-7-7-7-7-7-7-7-7-3----5--------|
D|-----------0----| |-----------0-0-0-0-0-0-0-0-0-0-0-0-0-0-0-0---------------|
. . . . . . . . . .
Guitar 2 (Glenn Tipton) - electric with heavy distortion
d|----------------| |---------------------------------------------------------|
A|----------------| |---------------------------------------------------------|
F|-5----7----9----| x4 |-5----7------------------------------------5----7--------|
C|-5----7----9----| |-5----7----9-9-9-9-9-9-9-9-9-9-9-9-9-9-9-9-5----7--------|
G|-3----5----7----| |-3----5----7-7-7-7-7-7-7-7-7-7-7-7-7-7-7-7-3----5--------|
D|-----------0----| |-----------0-0-0-0-0-0-0-0-0-0-0-0-0-0-0-0---------------|
. . . . . . . . . .

Part 6: Outro

Guitar 1 (KK Downing) - acoustic
d|----7-7-----7--7-------7--7-------7----|
A|----8-------8----------8---------8-----|
F|----9-------9----------9--------9------|
C|----9-------9----------9-------9-------|
G|--7-7-----7-7-------7--7------7--------|
D|-0--0---0---0----0-----0-----0---------|
Guitar 2 (Glenn Tipton) - acoustic
d|----7-7-----7--7-------7--7-------7----|
A|----8-------8----------8---------8-----|
F|----9-------9----------9--------9------|
C|----9-------9----------9-------9-------|
G|--7-7-----7-7-------7--7------7--------|
D|-0--0---0---0----0-----0-----0---------|

SONG STRUCTURE
Part 1
Part 2 (x2)
Part 3 (x2)
Part 4
Part 1
Part 5
Part 6

Well, that's it! It's bery nice song to sing along with guitar for your girl - she'll
her ground, I think.
I hope you'll get much more than just diamonds and rust! At least, I've got...
Tunning: Standard (E A D G B e)
Diamonds & Rust (Joan Baez) as performerd by Judas Priest (Sin After Sin, 1977)

Intro:
E |-----------------------------------------------------------------|
H |-----------------------------------------------------------------|
G |-----------------------------------------------------------------|
D |-9-9-9-9-9-9-9-9-9-9-9-9-9-9-9-9-4-4-4-4-4-4-4-4-4-4-4-4-4-4-4-4-|
A |-7-7-7-7-7-7-7-7-7-7-7-7-7-7-7-7-2-2-2-2-2-2-2-2-2-2-2-2-2-2-2-2-|
E |-0-0-0-0-0-0-0-0-0-0-0-0-0-0-0-0---------------------------------|

E |-----------------------------------------------------------------|
H |-----------------------------------------------------------------|
G |-----------------------------------------------------------------|
D |-9-9-9-9-9-9-9-9-9-9-9-9-9-9-9-9-4-4-4-4-4-4-4-4-4-4-4-4-4-4-4-4-|
A |-7-7-7-7-7-7-7-7-7-7-7-7-7-7-7-7-2-2-2-2-2-2-2-2-2-2-2-2-2-2-2-2-|
E |-0-0-0-0-0-0-0-0-0-0-0-0-0-0-0-0---------------------------------|


I'll be damned...

E |--------------------------------------------------|
H |-------------------------------7----------------8-|
G |-------------------------------7----------------7-|
D |-9---5-------7---9-9-9-9-9-9-9-7--9-9-9-9-9-9-9-7-|
A |-7---3---5---5---7-7-7-7-7-7-7----7-7-7-7-7-7-7---|
E |-0-------3-------0-0-0-0-0-0-0----0-0-0-0-0-0-0---|

So here I sit...
E |--------------------------------------------------|
H |-------------------------------7----------------8-|
G |-------------------------------7----------------7-|
D |-9---5-------7---9-9-9-9-9-9-9-7--9-9-9-9-9-9-9-7-|
A |-7---3---5---5---7-7-7-7-7-7-7----7-7-7-7-7-7-7---|
E |-0-------3-------0-0-0-0-0-0-0----0-0-0-0-0-0-0---|

Chorus (we both know...):
E |-----------------------------|----------------------------|
H |-----------------------------|----------------------------|
G |-----------------------------|----------------------------|
D |-5----------7----------9---9-|-5----------7----5-4--9---9-|
A |-3---0-3-5--5----10-9--7---7-|-3---0-3-5--5---0-----7---7-|
E |---------------7-------0---0-|----------------------0---0-|


Part C (Now I see you standing...)
E |------------------------------------------------------|
H |------------------------------------------------------|
G |------------------------------------------------------|
D |-------------5--------4-4-4-4-4-4-4-4-4-4-4-4-4-4-4-4-| ->
A |-9--7--9--7--3--5--3--2-2-2-2-2-2-2-2-2-2-2-2-2-2-2-2-| ->
E |-7--5--7--5-----3--1----------------------------------|

E |---------------------------------|
H |---------------------------------|
G |---------------------------------|
D |-5-5-5-5-5-5-5-5-7-7-7-7-7-7-7-7-|
A |-3-3-3-3-3-3-3-3-5-5-5-5-5-5-5-5-|
E |---------------------------------|

E |-----------------------------------------------------------------|
H |-----------------------------------------------------------------|
G |-----------------------------------------------------------------|
D |-9-9-9-9-9-9-9-9-9-9-9-9-9-9-9-9-4-4-4-4-4-4-4-4-4-4-4-4-4-4-4-4-|
A |-7-7-7-7-7-7-7-7-7-7-7-7-7-7-7-7-2-2-2-2-2-2-2-2-2-2-2-2-2-2-2-2-|
E |-0-0-0-0-0-0-0-0-0-0-0-0-0-0-0-0---------------------------------|

E |-----------------------------------------------------------------|
H |-----------------------------------------------------------------|
G |-----------------------------------------------------------------|
D |-9-9-9-9-9-9-9-9-9-9-9-9-9-9-9-9-4-4-4-4-4-4-4-4-4-4-4-4-4-4-4-4-|
A |-7-7-7-7-7-7-7-7-7-7-7-7-7-7-7-7-2-2-2-2-2-2-2-2-2-2-2-2-2-2-2-2-|
E |-0-0-0-0-0-0-0-0-0-0-0-0-0-0-0-0---------------------------------|


Now you're telling me..
E |--------------------------------------------------|
H |-------------------------------8----------------8-|
G |-------------------------------7----------------7-|
D |-9---5-------7---9-9-9-9-9-9-9-7--9-9-9-9-9-9-9-7-|
A |-7---3---5---5---7-7-7-7-7-7-7----7-7-7-7-7-7-7---|
E |-0-------3-------0-0-0-0-0-0-0----0-0-0-0-0-0-0---|

'Cos I need some of that vagueness...
E |--------------------------------------------------|
H |-------------------------------8----------------8-|
G |-------------------------------7----------------7-|
D |-9---5-------7---9-9-9-9-9-9-9-7--9-9-9-9-9-9-9-7-|
A |-7---3---5---5---7-7-7-7-7-7-7----7-7-7-7-7-7-7---|
E |-0-------3-------0-0-0-0-0-0-0----0-0-0-0-0-0-0---|


And the just chorus 'til the end.
E |-----------------------------|----------------------------|
H |-----------------------------|----------------------------|
G |-----------------------------|----------------------------|
D |-5----------7----------9---9-|-5----------7----5-4--9---9-|
A |-3---0-3-5--5----10-9--7---7-|-3---0-3-5--5---0-----7---7-|
E |---------------7-------0---0-|----------------------0---0-|
Song info
Diamonds And Rust
Judas Priest
2001
  • Rock
  • Heavy Metal
Alternative tracks
Similar songs
Hard As Iron - Judas Priest
High N Dry - Def Leppard
The Scarecrow - Avantasia
Rapid Fire - Judas Priest
Everythings Ruined - Faith No More

Hi! Hope you enjoy backing track experience.
If you want to help us in the development of the project, feel free to donate!