Nostradamus - Judas Priest
00:00 / 00:00
Tabs and lyrics
Tunning: Standard (E A D G B e)
h - hammer on
p - pull off
^ - bend
/ - slide
PM (or a |-| above the note)- palm mute


This is my first try at a tab, hope you like it. I think I'm the fist to do this song

Rob finishes singing the opera type thing

|----| |----------------------|
|-------------------------| REPEAT--| x3
|-----------------------------------|
|-----------------------------------|
|-0h2------2------------------------|
|-0--0-0-0-0--0-0-0-0-0-0-----------|
|-----------------------------------|

|-------------------------|
|-------------------------|
|-------------------------|
|-5-5-4-5-----------------|
|-3-3-2-3-----------------|
|-------------------------|

|----| |---------------------|
|-------------------------| REPEAT--| x3
|-----------------------------------|
|-----------------------------------|
|-0h2------2------------------------|
|-0--0-0-0-0--0-0-0-0-0-0-----------|
|-----------------------------------|

|-------------------------|
|-------------------------|
|-------------------------|
|-5-5-7-2-----------------|
|-3-3-5-0-----------------|
|-------------------------|

|----| |----------------------|
|-------------------------| REPEAT--| x3
|-----------------------------------|
|-----------------------------------|
|-0h2------2------------------------|
|-0--0-0-0-0--0-0-0-0-0-0-----------|
|-----------------------------------|

|-------------------------|
|-------------------------|
|-------------------------|
|-5-5-4-5-----------------|
|-3-3-2-3-----------------|
|-------------------------|

|----| |----------------------|
|-------------------------| REPEAT--| x3
|-----------------------------------|
|-----------------------------------|
|-0h2------2------------------------|
|-0--0-0-0-0--0-0-0-0-0-0-----------|
|-----------------------------------|

|-------------------------|
|-------------------------|
|-------------------------|
|-5-5-7-2-----------------|
|-3-3-5-0-----------------|
|-------------------------|


PM|--| |--| |---------------------|
|---------------------------| REPEAT--| x4
|-------------------------------------|
|-------------------------------------|
|-7-----5-----7-----5-7/8-5-----------|
|---0-0---0-0---0-0-------------------|
|-------------------------------------|

|--------------------------------|
|--------------------------------|
|--------------------------------|
|--------------------------------|
|-7-5-7-----------7-5-7----------|
|-5-3-5--3-5-6-3--5-3-5--3-5-6-3-|

PM|--| |--| |---------------------|
|---------------------------| REPEAT--| x4
|-------------------------------------|
|-------------------------------------|
|-7-----5-----7-----5-7/8-5-----------|
|---0-0---0-0---0-0-------------------|
|-------------------------------------|

|--------------------------------|
|--------------------------------|
|--------------------------------|
|--------------------------------|
|-7-5-7-----------7-5-7----------|
|-5-3-5--3-5-6-3--5-3-5--3-5-6-3-|


|--------------------------------------------------| REPEAT x2
|--------------------------------------------------|
|-------------------------9------------------------|
|-------7----9-------7--7----------7----9------7-9-|
|-----7----7-------7-------------7----7------7-----|
|-5-------------5------------5-------------5-------|


|----------------------------------| REPEAT x2
|----------------------------------|
|----------------------------------|
|-9--10-9------7--9-7-5---5--7-5-7-|
|-7---8-7-12---5--7-5-3---3--5-3-5-|
|---------10-----------------------|


PM|-| |-| |-| |-| |------------------------|
|---------------------------------------------| REPEAT--| x2
|-------------------------------------------------------|
|-------------------------------------------------------|
|-------------------------------------------------------|
|-7-0-5-7--0--7-0-8-5--7-0-5-7----------5/7-------------|
|-5-0-3-5--0--5-0-6-3--5-0-3-5--5-0-3-5-----7-----------|


PM|--| |--| |---------------------|
|---------------------------| REPEAT--| x4
|-------------------------------------|
|-------------------------------------|
|-7-----5-----7-----5-7/8-5-----------|
|---0-0---0-0---0-0-------------------|
|-------------------------------------|

|--------------------------------|
|--------------------------------|
|--------------------------------|
|--------------------------------|
|-7-5-7-----------7-5-7----------|
|-5-3-5--3-5-6-3--5-3-5--3-5-6-3-|

PM|--| |--| |---------------------|
|---------------------------| REPEAT--| x4
|-------------------------------------|
|-------------------------------------|
|-7-----5-----7-----5-7/8-5-----------|
|---0-0---0-0---0-0-------------------|
|-------------------------------------|

|--------------------------------|
|--------------------------------|
|--------------------------------|
|--------------------------------|
|-7-5-7-----------7-5-7----------|
|-5-3-5--3-5-6-3--5-3-5--3-5-6-3-|


|--------------------------------------------------| REPEAT x2
|--------------------------------------------------|
|-------------------------9------------------------|
|-------7----9-------7--7----------7----9------7-9-|
|-----7----7-------7-------------7----7------7-----|
|-5-------------5------------5-------------5-------|


|----------------------------------| REPEAT x2
|----------------------------------|
|----------------------------------|
|-9--10-9------7--9-7-5---5--7-5-7-|
|-7---8-7-12---5--7-5-3---3--5-3-5-|
|---------10-----------------------|


|-| |-| |-| |-| |------------------------|
|---------------------------------------------| REPEAT--| x2
|-------------------------------------------------------|
|-------------------------------------------------------|
|-------------------------------------------------------|
|-7-0-5-7--0--7-0-8-5--7-0-5-7----------5/7-------------|
|-5-0-3-5--0--5-0-6-3--5-0-3-5--5-0-3-5-----7-----------|


|--------------------------------------| REPEAT x4
|--------------------------------------|
|--------------------------------------|
|--------------------------------------|
|--------7---10-9-10--9-7-5------------|
|-7-9-10---7----------------9-10-9-7-5-|


(This part isn't fully done. I may come back to it later, but use this as a base, and
play around with it)
|--------------------------------------------------------------|
|--------------------------------------------------------------|
|--------------------------------------------------------------|
|-----9-10-12-14-14-9-10-12-14-9-10-12-14-7-8-10-12------------|
|-7-7-----------------------------------------------9-10-12-14-|
|--------------------------------------------------------------|

|----| |----------------------|
|-------------------------| REPEAT--| x3
|-----------------------------------|
|-----------------------------------|
|-0h2------2------------------------|
|-0--0-0-0-0--0-0-0-0-0-0-----------|
|-----------------------------------|

|-------------------------|
|-------------------------|
|-------------------------|
|-5-5-4-5-----------------|
|-3-3-2-3-----------------|
|-------------------------|

|----| |---------------------|
|-------------------------| REPEAT--| x3
|-----------------------------------|
|-----------------------------------|
|-0h2------2------------------------|
|-0--0-0-0-0--0-0-0-0-0-0-----------|
|-----------------------------------|

|-------------------------|
|-------------------------|
|-------------------------|
|-5-5-7-2-----------------|
|-3-3-5-0-----------------|
|-------------------------|


(this part is the backup to the solo also)
|-----| |------------|
|-----------------------------------------|
|-----------------------------------------|
|-----------------------------------------|
|-3p2-2--0-0-0--3p2-2-5-0-3p2-0-0-0-3p2---|
|-1p0-0--0-0-0--1p0-0-3-2-1p0-0-0-0-1p0---|
|-----------------------------------------|


(I haven't figured out the solo, I'll put it on if i ever get it)


|------------------------| REPEAT x3
|------------------------|
|------------------------|
|------------------------|
|-9-10-9---9-10-9-7-9-10-|
|-7--8-7---7--8-7-5-7--8-|

|--------------------------------------------------| REPEAT x2
|--------------------------------------------------|
|-------------------------9------------------------|
|-------7----9-------7--7----------7----9------7-9-|
|-----7----7-------7-------------7----7------7-----|
|-5-------------5------------5-------------5-------|


|----------------------------------| REPEAT x2
|----------------------------------|
|----------------------------------|
|-9--10-9------7--9-7-5---5--7-5-7-|
|-7---8-7-12---5--7-5-3---3--5-3-5-|
|---------10-----------------------|

|-| |-| |-| |-| |------------------------|
|---------------------------------------------| REPEAT--| x2
|-------------------------------------------------------|
|-------------------------------------------------------|
|-------------------------------------------------------|
|-7-0-5-7--0--7-0-8-5--7-0-5-7----------5/7-------------|
|-5-0-3-5--0--5-0-6-3--5-0-3-5--5-0-3-5-----7-----------|


PM|--| |--| |---------------------|
|---------------------------| REPEAT--| x2
|-------------------------------------|
|-------------------------------------|
|-7-----5-----7-----5-7/8-5-----------|
|---0-0---0-0---0-0-------------------|
|-------------------------------------|

|--------------------------------| REPEAT x4
|--------------------------------|
|--------------------------------|
|--------------------------------|
|-7-5-7-----------7-5-7----------|
|-5-3-5--3-5-6-3--5-3-5--3-5-6-3-|


|-------------------------|
|-------------------------|
|-------------------------|
|-------------------------|
|-----------3-5-3-1-3-----|
|-9-7-5-7-5-----------2-4-|


And thats it
Tunning: Standard (E A D G B e)
Band: Judas Priest
Album: Nostradamus
Song: Nostradamus

Copyright (c) (Sony) (2008)
Version 2.0

Transcribed By: ju.da.s
Email: metalgod.jp@hotmail.com


. - palm mute / - slide up to
\ - slide down to ~ - vibrato
h - hammer on b - Bend
p - pull off Suffixes for bend
t - tap f - full bend h - half bend
ph - pinched harmonic q - quarter bend t - tap bend
* - see comment ^ - Hold bend r release bend
x - Stuccatto ~ - vibrato bend
, - slight palm mute () - ghost note, sustained note
" - tremolo note - Trill

Tunning E A D G B E


Intro after the opera intro
Riff 1
|---------------------------|x3|------------------------|
|---------------------------| |-------------------------|
|---------------------------| |-------------------------|
|---------------------------| |-5-5-4-5-----------------|
|-5h7------7----------------| |-3-3-2-3-----------------|
|-5--5-5-5-5--5-5-5-5-5-5---| |-------------------------|

|---------------------------|x3|-----------------------|
|---------------------------||-------------------------|
|---------------------------||-------------------------|
|---------------------------||-5-5-7-7-----------------|
|-5h7------7----------------||-3-3-5-5-----------------|
|-5--5-5-5-5--5-5-5-5-5-5---||-------------------------|

Repeat the riff 1 2 times whole parts

Verse riff 2

PM|--| |--| |----------|
|-----------------------------|x4 |---------------------------------|
|-----------------------------| |---------------------------------|
|-----------------------------| |---------------------------------|
|-7-----5-----7-----5-7/8-5---| |---------------------------------|
|---0-0---0-0---0-0-----------| |-7-5-7--5-7-8-5--7-5-7--5-7-8-5--|
|-----------------------------| |-5-3-5--3-5-6-3--5-3-5--3-5-6-3--|

Repeat the verse part (riff 2) 2 times

Prechorus riff 3
A.H A.H A.H A.H
|---------------------------------------------------| REPEAT x2
|---------------------------------------------------|
|--------10----------7---------10---------------7~--|
|-------9----------9----------9--------9---10-------|
|----7----------7----------7---------7---7----7-----|
|-0----------0----------0----------0----------------|

Chorus riff 4
|-----------------------------------------| (x2)
|-----------------------------------------|
|-----------------------------------------|
|-9--7-9-10---7--9-7-5--5--7-5-4--4-------|
|-7--5-7-8----5--7-5-3--3--5-3-2--2-5--7--|
|-----------------------------------3--5--|

Break riff 5
|------------------------------------------------| x2
|------------------------------------------------|
|------------------------------------------------|
|------------------------------------------------|
|-7---5-7--x--7---8-7--7---5-7----------5/7-3----|
|-5-0-3-5--x--5-0-6-5--5-0-3-5--5-0-3-5-------5--|

Repeat all riffs two times in order except the first (riff 1)
After play the next riff

Presolo verse riff 6 part A
|-------------------------------------------|
|-------------------------------------------|
|-------------------------------------------|
|-------------------------------------------|
|--7-0-9-0-10-0-12-0-10-0-14-0-12-0-15-0-14-|
|-------------------------------------------|
Part B
|---------------------------------|
|---------------------------------|
|---------------------------------| after play this - repeat
|---------------------------------| the part A and after play the part c
|-12-0-10-0-9-0-12-0-10-0-9-0-6-0-|
|---------------------------------|
Part C A.H
|---------------------------|
|---------------------------|
|---------------------------|
|---------------------------| REPEAT WHOLE 2 TIMES (X2)
|-12-0-10-0-9-0-10-0-9-0-7~-|
|---------------------------|

the next part is a little solo after the solo's
part of glenn and kk but I don't know how is this part
|---------------------------------------|------------------------------|
|---------------------------------------|------------------------------|
|----------------7-9--------------------|------------------------------|
|-7-7--9-10--10-------5-5-7-9--7-7-9-10-|-3-3-5-7--5-5-7-9------6-9-7--|
|---------------------------------------|--------------------7-7-------|
|---------------------------------------|------------------------------|
Play again the first bar and and after play this
|----------------------------------------|
|----------------------------------------|
|----------------------------------------|
|--6-6-8-10-8-10-12-10-12-14-12-14-16~---|
|----------------------------------------|
|----------------------------------------|
Riff 1 again two times

enjoy and rated thank's
Song info
Nostradamus
Judas Priest
2001
  • Rock
  • Heavy Metal
Similar songs
Hourglass - Lamb of God
Guardian - Fates Warning
The End of This Chapter - Sonata Arctica
Wrathchild - Iron Maiden

Hi! Hope you enjoy backing track experience.
If you want to help us in the development of the project, feel free to donate!