00:00 / 00:00
Tabs and lyrics
Tunning: Nashville (E A D G B E)
Song: Ruby
Artist: Kaiser Chiefs
(danny.b3@ntlworld.com)

[Intro]
E|---------------------------------------------------------|
B|---------------------------------------------------------|
G|---------------------------------------------------------|
D|--------------------------------------X4-----------------|
A|---------------------------------------------------------|
E|----6-6-9--1-1-4-11-11-9-9-8-8-6-6-------4-4-3-3-1-1-----|

[Verse]
Never Romance So Little Occupying
E|----------------------------------------------------------------------------|
B|-2--------------------------------------------------------------------------|
G|-3---------2---------5-----------7------------------------------------------|
D|-3---------3---------6-----------8--------------------X"--------------------|
A|-1---------3---------6-----------8------------------------------------------|
E|-----------1---------4-----------6------------------------------------------|

[Chorus]
E|---------------------------------------------------------|
B|---------------------------------------------------------|
G|---------------------------------------------------------|
D|--------------------------------------X2-----------------|
A|---------------------------------------------------------|
E|----6-6-9--1-1-4-11-11-9-9-8-8-6-6-------4-4-3-3-1-1-----|

[Verse: Again]
E|----------------------------------------------------------------------------|
B|-2--------------------------------------------------------------------------|
G|-3---------2---------5-----------7------------------------------------------|
D|-3---------3---------6-----------8--------------------X"--------------------|
A|-1---------3---------6-----------8------------------------------------------|
E|-----------1---------4-----------6------------------------------------------|

[Chorus: Again]
E|---------------------------------------------------------|
B|---------------------------------------------------------|
G|---------------------------------------------------------|
D|--------------------------------------X2-----------------|
A|---------------------------------------------------------|
E|----6-6-9--1-1-4-11-11-9-9-8-8-6-6-------4-4-3-3-1-1-----|

[Breakitdown]
Could it be Joking Dont Me
E|-----------------------------------------------------------------------------------|
B|-----------------------------------------------------------------------------------|
G|--10-------------------------------------------------------------------------------|
D|--10-----------11----------8-------9-------10--------------------------------------|
A|--8------------11----------8-------9-------10--------------------------------------|
E|--8------------9-----------6-------7-------8---------------------------------------|

[Solo]
E|-------------------------------------------------------------|
B|-------------------------------------------------------------|
G|-------------------------------------------------------------|
D|-10-8-10-10-8-10-6-8-10-8-6-3-6-8-10-8-6-3-6-8-10-8-9-x-2----|
A|-------------------------------------------------------------|
E|-------------------------------------------------------------|

second time end on D|-10

[3rd Chorus]
E|---------------------------------------------------------|
B|---------------------------------------------------------|
G|---------------------------------------------------------|
D|----------------------------------------x4---------------|
A|---------------------------------------------------------|
E|----6-6-9--1-1-4-11-11-9-9-8-8-6-6-----------------------|

[Last Chorus]
E|------------------------------------------------|
B|------------------------------------------------|
G|------------------------------------------------|
D|-----------------------15-----------------------|
A|-----------------------15-----------------------|
E|----6-6-9--1-1-4-11-12-13-----------------------|

its optional to do this as the last three if u want i prefer just ending on the last chord

E|--------------|
B|--------------|
G|--------------|
D|-13-14-15-----|
A|-13-14-15-----|
E|-11-12-13-----|

************************************

| x Dead note

************************************
Tunning: Standard (E A D G B e)
Ruby-Kaiser Chiefs

Intro

(Overdriven guitar)

Riff A

e-6-x-6-x--|
B-8-x-8-x--|
G-8-x-8-x--|
D-8-x-8-x--|
A---x---x--|
E---x---x--| x2

Riff B

e---------------------------------|
B---------------------------------|
G---------------------------------|
D---------------------------------|
A-----4--------6-6--4-4--6-6--4-4-|
E-6-6----1-1-4--------------------|

Riff C

e-------------------------------|
B-------------------------------|
G-------------------------------|
D-------------------------------|
A-----4-------6-6--4-4--3-3--1--|
E-6-6---1-1-4-------------------|

Riff D

e------------------|
B------------------|
G------------------|
D------------------|
A------------------|
E-6-6-4-4-3-3-1-1--| x1

Verse

e-1----1----x----x--|
B-2----1----4----6--|
G-3----1----5----7--|
D-3----3----6----8--|
A-x----3----6----8--|
E-x----x----x----x--|

Gtr 2 (Fill)

e--------------|
B--------------|
G--------------|
D-8--10--6--8--|
A--------------|
E--------------|

Chorus

e-----------------------------|
B-----------------------------|
G-----------------------------|
D-----------------------------|
A-----4-------6-6--4--6-6--4--|
E-6-6---1-1-4-----------------|

e--------------------------------|
B--------------------------------|
G--------------------------------|
D--------------------------------|
A-----4--------6-6--4-4--3-3--1--|
E-6-6----1-1-4-------------------|

Bridge

F C# Bb B C x2

Solo

e------------------------------------------|
B------------------------------------------|
G------------------------------------------|
D-10p8-10p8-10p8--10--6--8--8/10--8--6--3--|
A------------------------------------------|
E------------------------------------------|

e-------------------------------------------------|
B-------------------------------------------------|
G-------------------------------------------------|
D-6--8--10--8--6--3--6--8--8/10--8--10--8--9--10--|
A-------------------------------------------------|
E-------------------------------------------------|

Order

Intro:
Riff A
Riff B
Riff C
Riff B
Riff C
Riff D
Verse
Chorus
Verse
Chorus
Bridge
Solo
Chorus x2
Tunning: Standard (E A D G B e)
Ruby

Kaiser Chiefs


Intro:


e|-------------------------------------------------------------------------|
B|-------------------------------------------------------------------------|
G|---10-10-8-8------10-10-8-8----------------------------------------------|
D|---10-10-8-8------10-10-8-8----------------------------------------------|
A|----8--8-6-6-------8--8-6-6----------------------------------------------|
E|-------------------------------------------------------------------------|

x2

E|-------------------------------------------------------------------------|
B|-------------------------------------------------------------------------|
G|-------------------------------------------------------------------------|
D|-------------------------------------------------------------------------|
A|----8-8-11--3-3-6-13------13---------------------------------------------|
E|----6-6-9---1-1-4-11------11---------------------------------------------|

E|-------------------------------------------------------------------------|
B|-------------------------------------------------------------------------|
G|-------------------------------------------------------------------------|
D|-------------------------------------------------------------------------|
A|----8-8-11--3-3-6-13-13-11-11--10-10-8-8---------------------------------|
E|----6-6-9---1-1-4-11-11--9--9---8--8-6-6---------------------------------|

E|-------------------------------------------------------------------------|
B|-------------------------------------------------------------------------|
G|-------------------------------------------------------------------------|
D|-------------------------------------------------------------------------|
A|----8-8-11--3-3-6-13------13---------------------------------------------|
E|----6-6-9---1-1-4-11------11---------------------------------------------|

E|-------------------------------------------------------------------------|
B|-------------------------------------------------------------------------|
G|-------------------------------------------------------------------------|
D|-------------------------------------------------------------------------|
A|----8-8-11--3-3-6-13-13-11-11--10-10-8-8---------------------------------|
E|----6-6-9---1-1-4-11-11--9--9---8--8-6-6---------------------------------|

Verse:

Never Romance So Little Occupying
E|-------------------------------------------------------------------------|
B|-2-----------------------------------------------------------------------|
G|-3---------2---------5-----------7---------------------------------------|
D|-3---------3---------6-----------8---------------------------------------|
A|-1---------3---------6-----------8---------------------------------------|
E|-----------1---------4-----------6---------------------------------------|

Chorus:

E|-------------------------------------------------------------------------|
B|-------------------------------------------------------------------------|
G|-------------------------------------------------------------------------|
D|-------------------------------------------------------------------------|
A|----8-8-11--3-3-6-13------13---------------------------------------------|
E|----6-6-9---1-1-4-11------11---------------------------------------------|

E|-------------------------------------------------------------------------|
B|-------------------------------------------------------------------------|
G|-------------------------------------------------------------------------|
D|-------------------------------------------------------------------------|
A|----8-8-11--3-3-6-13------13---------------------------------------------|
E|----6-6-9---1-1-4-11------11---------------------------------------------|

E|-------------------------------------------------------------------------|
B|-------------------------------------------------------------------------|
G|-------------------------------------------------------------------------|
D|-------------------------------------------------------------------------|
A|----8-8-11--3-3-6-13-13-11-11--10-10-8-8---------------------------------|
E|----6-6-9---1-1-4-11-11--9--9---8--8-6-6---------------------------------|

E|-------------------------------------------------------------------------|
B|-------------------------------------------------------------------------|
G|-------------------------------------------------------------------------|
D|-------------------------------------------------------------------------|
A|----8-8-11--3-3-6-13------13---------------------------------------------|
E|----6-6-9---1-1-4-11------11---------------------------------------------|


Verse: Again

E|-------------------------------------------------------------------------|
B|-2-----------------------------------------------------------------------|
G|-3---------2---------5-----------7---------------------------------------|
D|-3---------3---------6-----------8---------------------------------------|
A|-1---------3---------6-----------8---------------------------------------|
E|-----------1---------4-----------6---------------------------------------|

Chorus


E|-------------------------------------------------------------------------|
B|-------------------------------------------------------------------------|
G|-------------------------------------------------------------------------|
D|-------------------------------------------------------------------------|
A|----8-8-11--3-3-6-13------13---------------------------------------------|
E|----6-6-9---1-1-4-11------11---------------------------------------------|

E|-------------------------------------------------------------------------|
B|-------------------------------------------------------------------------|
G|-------------------------------------------------------------------------|
D|-------------------------------------------------------------------------|
A|----8-8-11--3-3-6-13------13---------------------------------------------|
E|----6-6-9---1-1-4-11------11---------------------------------------------|

E|-------------------------------------------------------------------------|
B|-------------------------------------------------------------------------|
G|-------------------------------------------------------------------------|
D|-------------------------------------------------------------------------|
A|----8-8-11--3-3-6-13-13-11-11--10-10-8-8---------------------------------|
E|----6-6-9---1-1-4-11-11--9--9---8--8-6-6---------------------------------|

E|-------------------------------------------------------------------------|
B|-------------------------------------------------------------------------|
G|-------------------------------------------------------------------------|
D|-------------------------------------------------------------------------|
A|----8-8-11--3-3-6-13------13---------------------------------------------|
E|----6-6-9---1-1-4-11------11---------------------------------------------|


Breakitdown:

Could it be Joking Dont Me
E|-------------------------------------------------------------------------|
B|-------------------------------------------------------------------------|
G|--10---------------------------------------------------------------------|
D|--10-----------11----------8-------9-------10----------------------------|
A|--8------------11----------8-------9-------10----------------------------|
E|--8------------9-----------6-------7-------8-----------------------------|


Solo

E|-------------------------------------------------------------
B|-------------------------------------------------------------
G|-------------------------------------------------------------
D|-10-8-10-10-8-10-6-8-10-8-6-3-6-8-10-8-6-3-6-8-10-8-9--------
A|-------------------------------------------------------------
E|-------------------------------------------------------------

E|-------------------------------------------------------------
B|-------------------------------------------------------------
G|-------------------------------------------------------------
D|-10-8-10-10-8-10-6-8-10-8-6-3-6-8-10-8-6-3-6-8-10-8-9--------
A|-------------------------------------------------------------
E|-------------------------------------------------------------

Chorus:

E|-------------------------------------------------------------------------|
B|-------------------------------------------------------------------------|
G|-------------------------------------------------------------------------|
D|-------------------------------------------------------------------------|
A|----8-8-11--3-3-6-13------13---------------------------------------------|
E|----6-6-9---1-1-4-11------11---------------------------------------------|

E|-------------------------------------------------------------------------|
B|-------------------------------------------------------------------------|
G|-------------------------------------------------------------------------|
D|-------------------------------------------------------------------------|
A|----8-8-11--3-3-6-13------13---------------------------------------------|
E|----6-6-9---1-1-4-11------11---------------------------------------------|

E|-------------------------------------------------------------------------|
B|-------------------------------------------------------------------------|
G|-------------------------------------------------------------------------|
D|-------------------------------------------------------------------------|
A|----8-8-11--3-3-6-13-13-11-11--10-10-8-8---------------------------------|
E|----6-6-9---1-1-4-11-11--9--9---8--8-6-6---------------------------------|

E|-------------------------------------------------------------------------|
B|-------------------------------------------------------------------------|
G|-------------------------------------------------------------------------|
D|-------------------------------------------------------------------------|
A|----8-8-11--3-3-6-13------13---------------------------------------------|
E|----6-6-9---1-1-4-11------11---------------------------------------------|


Outro



E|-------------------------------------------------------------------------|
B|-------------------------------------------------------------------------|
G|-------------------------------------------------------------------------|
D|-------------------------------------------------------------------------|
A|----8-8-11--3-3-6-13------13---------------------------------------------|
E|----6-6-9---1-1-4-11------11---------------------------------------------|

E|-------------------------------------------------------------------------|
B|-------------------------------------------------------------------------|
G|-------------------------------------------------------------------------|
D|------------------------------------------13--14-15----------------------
A|----8-8-11--3-3-6-13------13--------------13--14-15----------------------|
E|----6-6-9---1-1-4-11------11--------------11--12-13----------------------|




Feel Free to comment....

Cheers,

Frank




Tunning: Standard (E A D G B e)
Artist: Kaiser Chiefs
Track: Ruby
Album: Yours Truly, Angry Mob
Tabber: Woodshed

[Intro]
e|-------------------------------------------------------------------------|
B|---9p8--8----9p8--8----9p8--8----9p8--8----------------------------------|
G|---8----8----8----8----8----8----8----8----------------------------------|
D|--10p8--8---10p8--8---10p8--8---10p8--8----------------------------------|
A|-------------------------------------------------------------------------|
E|-------------------------------------------------------------------------|

(Riff)
e|-------------------------------------------------------------------------|
B|-------------------------------------------------------------------------|
G|-------------------------------------------------------------------------|
D|----------------------13-------------------------------------------------|
A|----------------------13-------------------------------------------------|
E|---6--6-9----1--1/4---11----6--6-9----1--1-4-11--11\9-9\8-8\6------------|

e|-------------------------------------------------------------------------|
B|-------------------------------------------------------------------------|
G|-------------------------------------------------------------------------|
D|----------------------13-------------------------------------------------|
A|----------------------13-------------------------------------------------|
E|---6--6-9----1--1/4---11----6--6-9----1--1-4-11--11\9-9\8-8\6-6\4-4\1----|

[Verse]
Bbm Fm
Let it never be said, that romance is dead
Cm Eb
Cos there’s so little else occupying my head
Bbm Fm
There is nothing I need except the function to breathe
Cm Eb
But I’m not really fussed, doesn’t matter to me

[Chorus]
Bbm Fm Eb
Ruby, Ruby, Ruby, Ruby
Bbm Fm Eb
Do ya, do ya, do ya, do ya

e|-------------------------------------------------------------------------|
B|-------------------------------------------------------------------------|
G|-------------------------------------------------------------------------|
D|-------------------------------------------------------------------------|
A|-------------------------------------------------------------------------|
E|-----------------------------6----9---1--4----11--11\9-9\8-8\6-----------|
Know what ya doing, doing to me?

e|-------------------------------------------------------------------------|
B|-------------------------------------------------------------------------|
G|-------------------------------------------------------------------------|
D|-------------------------------------------------------------------------|
A|-------------------------------------------------------------------------|
E|-----------------------------6----9---1--4----/11------------------------|
Ruby, Ruby, Ruby, Ruby

[Verse]
Bbm Fm
Due to lack of interest tomorrow is cancelled

Cm Eb
e|--------------------------------------------4p3---4p3--------------------|
B|------------------------------------------------4-----4------------------|
G|-------------------------------------------------------------------------|
D|-------------------------------------------------------------------------|
A|-------------------------------------------------------------------------|
E|-------------------------------------------------------------------------|
Let the clocks be reset and the pendulums held

Bbm Fm
Cos there’s nothing at all except the space in between
Cm Eb
Finding out what you’re called and repeating your name

[Chorus]
Bbm Fm Eb
Ruby, Ruby, Ruby, Ruby
Bbm Fm Eb
Do ya, do ya, do ya, do ya

e|-------------------------------------------------------------------------|
B|-------------------------------------------------------------------------|
G|-------------------------------------------------------------------------|
D|-------------------------------------------------------------------------|
A|-------------------------------------------------------------------------|
E|-----------------------------6----9---1--4----11--11\9-9\8-8\6-----------|
Know what ya doing, doing to me?

e|-------------------------------------------------------------------------|
B|-------------------------------------------------------------------------|
G|-------------------------------------------------------------------------|
D|-------------------------------------------------------------------------|
A|-------------------------------------------------------------------------|
E|-----------------------------6----9---1--4----/11----/12-----------------|
Ruby, Ruby, Ruby, Ruby

[Middle 8]
Fm C#
Could it be, could it be that you’re joking with me

Bbm Ebm E
e|-------------------------------------------------------------------------|
B|-------------------------------------------------------------------------|
G|------------------------------------13p12------15p13---------------------|
D|-------------------------------------------------------------------------|
A|-------------------------------------------------------------------------|
E|---------------------------------11---------12---------------------------|
And you don’t really see you with me

Fm C#
Could it be, could it be that you’re joking with me

Bbm Eb E
e|-------------------------------------------------------------------------|
B|-------------------------------------------------------------------------|
G|------------------------------------13p12------15p13---------------------|
D|-------------------------------------------------------------------------|
A|-------------------------------------------------------------------------|
E|---------------------------------11---------12---------------------------|
And you don’t really see you with me

[Solo]
Fm C#
e|-------------------------------------------------------------------------|
B|-------------------------------------------------------------------------|
G|-------------------------------------------------------------------------|
D|---10p8-10--10p8-10----6-8--8/10-8\6-------------------------------------|
A|--------------------------------------8----------------------------------|
E|-------------------------------------------------------------------------|

Bbm Eb E
e|-------------------------------------------------------------------------|
B|-------------------------------------------------------------------------|
G|-------------------------------------------------------------------------|
D|---6-8--8/10-8\6-------6--8--8/10-8--8-8-9-------------------------------|
A|-----------------8-------------------------------------------------------|
E|-------------------------------------------------------------------------|

Fm C#
e|-------------------------------------------------------------------------|
B|-------------------------------------------------------------------------|
G|-------------------------------------------------------------------------|
D|---10p8-10--10p8-10----6-8--8/10-8\6-------------------------------------|
A|--------------------------------------8----------------------------------|
E|-------------------------------------------------------------------------|

Bbm Eb E Fm
e|-------------------------------------------------------------------------|
B|-------------------------------------------------------------------------|
G|-------------------------------------------------------------------------|
D|---6-8--8/10-8\6--------6--8--8/10-8--8-8-9---9-9-10---------------------|
A|-----------------8-------------------------------------------------------|
E|-------------------------------------------------------------------------|

[Chorus]
Bbm Fm Eb
Ruby, Ruby, Ruby, Ruby
Bbm Fm Eb
Do ya, do ya, do ya, do ya

e|-------------------------------------------------------------------------|
B|-------------------------------------------------------------------------|
G|-------------------------------------------------------------------------|
D|-------------------------------------------------------------------------|
A|-------------------------------------------------------------------------|
E|-----------------------------6----9---1--4----11--11\9-9\8-8\6-----------|
Know what ya doing, doing to me?

e|-------------------------------------------------------------------------|
B|-------------------------------------------------------------------------|
G|-------------------------------------------------------------------------|
D|-------------------------------------------------------------------------|
A|-------------------------------------------------------------------------|
E|-----------------------------6----9---1--4----11--11\9-9\8-8\6-----------|
Ruby, Ruby, Ruby, Ruby

e|-------------------------------------------------------------------------|
B|-------------------------------------------------------------------------|
G|-------------------------------------------------------------------------|
D|-----------------------------------------13------------------------------|
A|-----------------------------------------13------------------------------|
E|-------------------------6--6-9--1--1-4--11------------------------------|
Do ya, do ya, do ya, do ya

e|-------------------------------------------------------13----------------|
B|-------------------------------------------------------13----------------|
G|-------------------------------------------------------13----------------|
D|-----------------------------------------------13--14--15----------------|
A|-----------------------------------------------13--14--------------------|
E|-------------------------------6--6-9--1--1-4--11--12--------------------|
Know what ya doing, doing to me?

************************************

| p Pull-off
| / Slide up
| \ Slide down

************************************
Tunning: Standard (E A D G B e)
this is pretty simple but also pretty cool, sounds great live.

Intro - Crunchy distortion
Eb------------|
Bb--12-12--12-|
Gb--14-13--13-|
Db--14-14--14-|
Ab------------|
Eb------------| X4

Eb---------------------------------------------------------------|
Bb---------------------------------------------------------------|
Gb---------------------------------------------------------------|
Db---------------------------------------------------------------|
Ab--2-2-5-------s7-----2-2-5-------s7-7-5-5-4-4-2-2--------------|
Eb--------2-2-5--------------2-2-5-------------------------------|

Eb----------------------------------------------------------------|
Bb----------------------------------------------------------------|
Gb----------------------------------------------------------------|
Db----------------------------------------------------------------|
Ab--2-2-5-------s7-----2-2-5-------s7-7-5-5-4-4-2-2---------------|
Eb--------2-2-5--------------2-2-5------------------5-5-4-4-2-2-0-|

Verse 1 - Switch to clean sound
Eb--2---------2---------4---------7------------------------------|
Bb--3---------2---------5---------9------------------------------|
Gb--4---------2---------6---------9------------------------------|
Db--4---------4---------6---------9------------------------------|
Ab--2---------4---------4---------7------------------------------|
Eb------------2--------------------------------------------------|

Eb--2---------2---------4---------7------------------------------|
Bb--3---------2---------5---------9------------------------------|
Gb--4---------2---------6---------9------------------------------|
Db--4---------4---------6---------9------------------------------|
Ab--2---------4---------4---------7------------------------------|
Eb------------2--------------------------------------------------|

Chorus 1 - Back to distortion
Eb---------------------|
Bb---------------------|
Gb---------------------|
Db---------------------|
Ab--2-2-5-4---------s7-|
Eb----------2-2-5-4----| X2

Eb------------------------------------------------------|
Bb------------------------------------------------------|
Gb------------------------------------------------------|
Db------------------------------------------------------|
Ab--2-2-5-4---------s7-7-5-5-4-4-2-2-2-2-5-4---------s7-|
Eb----------2-2-5-4--------------------------2-2-5-4----|

Verse 2 - As verse 1 excpt with the following fill starting at the words 'let the clocks'
Eb------------------------------------------|
Bb------------------------------------------|
Gb----------------------14p13----14p13------|
Db--11-12s14------------------14------14----|
Ab------------------------------------------|
Eb------------------------------------------|

Chorus 2 - As chorus 1 except at the end add
Eb----------------|
Bb----------------|
Gb----------------|
Db----------------|
Ab--7-8-9---------|
Eb----------------|

Bridge gtr 1 - Clean Sound Again
Eb--9---------10--------7-----7-8--9--|
Bb--10--------10--------7-----9-10-10-|
Gb--11--------13--------7-----9-10-11-|
Db--11--------12--------9-----9-10-11-|
Ab--9---------12--------9-----7-8--9--|
Eb------------10--------7-------------| X2

gtr 2 - Crunchy distortion
Eb----------------------------------------|
Bb----------------------------------------|
Gb----------------------------14p13-16p14-|
Db----------------------------------------|
Ab----------------------------------------|
Eb----------------------------------------|

Solo gtr 1 - As bridge

gtr 2 - Crunchy distortion
Eb------------------------------------------------------------------------|
Bb------------------------------------------------------------------------|
Gb------------------------------------------------------------------------|
Db--11p9-11-11p9-11--s7-9-9s11-9-7----s7-9-9s11-9-7---7-9-9s11-9-9-9-10---|
Ab---------------------------------9----------------9---------------------|
Eb------------------------------------------------------------------------|

w/pitch shifter up 1 octave
Eb------------------------------------------------------------------------|
Bb------------------------------------------------------------------------|
Gb------------------------------------------------------------------------|
Db--11p9-11-11p9-11--s7-9-9s11-9-7----s7-9-9s11-9-7---7-9-9s11-9-9-9-10---|
Ab---------------------------------9----------------9---------------------|
Eb------------------------------------------------------------------------|

Final Chorus
Eb---------------------|
Bb---------------------|
Gb---------------------|
Db---------------------|
Ab--2-2-5-4---------s7-|
Eb----------2-2-5-4----| X2

Eb---------------------------------|
Bb---------------------------------|
Gb---------------------------------|
Db---------------------------------|
Ab--2-2-5-4---------s7-7-5-5-4-4-2-|
Eb----------2-2-5-4----------------| X2

Eb------------------------------------------|
Bb------------------------------------------|
Gb------------------------------------------|
Db------------------------------------------|
Ab--2-2-5-------s7-----2-2-5-------s7-7-8-9-|
Eb--------2-2-5--------------2-2-5----------|
Tunning: Standard (E A D G B e)
-------------------------------------------------------------------------------
Ruby - Kaiser Chiefs
-------------------------------------------------------------------------------
Tabbed by: Aron S
Email: goodsum@hotmail.com

Tuning: Standard

Intro:

e|---------------------|
B|---9-8--8----9-8--8--|
G|--10-8--8---10-8--8--| x2
D|--10-8--8---10-8--8--|
A|---------------------|
E|---------------------|


e|------------------------------------------------------------------|
B|------------------------------------------------------------------|
G|-----------------------8--8---------------------------------------|
D|-------6-66------------8--8-------6-66----------------------------|
A|--8-88-4-44-3-33-6-66--6--6--8-88-4-44-3-33-6-66------------------|
E|--6-66------1-11-4-44--------6-66------1-11-4-44--11--9--8--6--5--|


e|------------------------------------------------------------------------|
B|------------------------------------------------------------------------|
G|-----------------------8--8---------------------------------------------|
D|-------6-66------------8--8-------6-66----------------------------------|
A|--8-88-4-44-3-33-6-66--6--6--8-88-4-44-3-33-6-66------------------------|
E|--6-66------1-11-4-44--------6-66------1-11-4-44--11--9--8--6--4--3--1--|


Verse:

e|-------------------|
B|-------------------|
G|------10--------8--|
D|--8---10---10---8--| x2
A|--8---8----10---6--|
E|--6--------8-------|


Chorus:

e|----------------------------|----------------------------|
B|----------------------------|----------------------------|
G|--------10--10--8--8--8--8--|--------10--10--8--8--8--8--|
D|--8--8--10--10--8--8--8--8--|--8--8--10--10--8--8--8--8--|
A|--8--8--8---8---6--6--6--6--|--8--8--8---8---6--6--6--6--|
E|--6--6----------------------|--6--6----------------------|


e|------------------------------------|--------------------------|--------|
B|------------------------------------|--------------------------|--------|
G|------------------------------------|-----------------------8--|--9--10-|
D|-------6-66^------------------------|-------6-66^-----------8--|--9--10-|
A|--8-88-4-44-3-33-6-66---------------|--8-88-4-44-3-33-6-66--6--|--7--8--|
E|--6-66------1-11-4-44--11--9--8--6--|--6-66------1-11-4-44-----|--------|
/ /
/ /
(not played first time)


Bridge:

e|----------------------------------------------|
B|----------------------------------------------|
G|--10------------8--9--10------------8--9--10--|
D|--10---11---8---8--9--10---11---8---8--9--10--|
A|--8----11---8---6--7--8----11---8---6--7--8---|
E|-------9----6--------------9----6-------------|


Solo:

e|--------------------------------------------------------------------|
B|--------------------------------------------------------------------|
G|--------------------------------------------------------------------|
D|--10p8h10--8h10-----8-10-8-----------8-10-8-----------8-10-8--88-9--|
A|-----------------11--------11-8---11--------11-8---11---------------|
E|--------------------------------------------------------------------|

e|---------------------------------------------------------------------------|
B|---------------------------------------------------------------------------|
G|---------------------------------------------------------------------------|
D|-10p8h10--8h10-----8-10-8-----------8-10-8-----------8-10-8--88-9--99-10~--|
A|----------------11--------11-8---11--------11-8---11-----------------------|
E|---------------------------------------------------------------------------|


| / slide up
| \ slide down
| h hammer-on
| p pull-off
| ~ vibrato
| + harmonic
| x Mute note
===============================================================================
Tunning: Standard (E A D G B e)
Kaiser Chiefs - Ruby


INTRO

(with some distorsion)
|| ------------------- ||
|| ---9p8--8---9p8--8- ||
||O---8----8---8----8-O||
||O--10p8--8--10p8--8-O||
|| ------------------- ||
|| ------------------- ||x2


Gtr. 1
D#m5
|| ------------------|------------------|------------------|
|| ------------------|------------------|------------------|
||O------------------|--8---------------|------------------|
||O------------------|--8---------------|------------------|
|| ------------------|--6---------------|------------------|
|| --6--6-9---1--1/4-|------------------|--6--6-9---1--1/4-|
|
|Gtr.2
| Fm7
|| ------------------|------------------|------------------|
|| ------------------|--9p8--8---9p8--8-|------------------|
||O------------------|--8----8---8----8-|------------------|
||O------------------|-10p8--8--10p8--8-|------------------|
|| ------------------|------------------|------------------|
|| ------------------|------------------|------------------|
Dada daa! Dada daa!

Gtr. 1 (after 2nd time)
|------------------- || |----------------|
|------------------- || |----------------|
|-------------------O|| |----------------|
|-------------------O|| |----------------|
|------------------- || |----------------|
|--11-11\9-9\8-8\6\- ||x2|-\4-4\3-3\1-1/4-|


VERSE I

A#m Fm Cm D#m5
|--6--|---8--|------|-----|
|--6--|---9--|---8--|-----|
|--6--|--10--|---8--|--8--|
|--8--|--10--|--10--|--8--|
|--8--|---8--|--10--|--6--|
|--6--|------|---8--|-----|

A#m Fm
Let it never be said, that romance is dead
Cm D#m5
'Cause there's so little else occupying my head
A#m Fm
There is nothing I need, except the function to breathe
Cm D#m5 (strum and slide out)
But I'm not really fussed, doesn't matter to me...


CHORUS

A#m5 Fm5 D#m5
|-----------------------|----------|------|
|-----------------------|----------|------|
|-----------------------|-----10---|-8----|
|-----------------------|-8---10---|-8----|
|-----------------------|-8----8---|-6----|
|-----------------------|-6--------|------|
Ruby, Ruby, Ruby, Ruby! (Dada daa!)

A#m5 Fm5 D#m5
|-----------------------|----------|------|
|-----------------------|----------|------|
|-----------------------|-----10---|-8----|
|-----------------------|-8---10---|-8----|
|-----------------------|-8----8---|-6----|
|-----------------------|-6--------|------|
Do you, do you, do you, do you? (Dada daa!)

|-----------------------|--------------------|-----------------|
|-----------------------|--------------------|-----------------|
|-----------------------|--------------------|-----------------|
|-----------------------|--------------------|-----------------|
|-----------------------|--------------------|-----------------|
|-----------------------|-6--6-9-8--1--1-4-3///11-11\9-9\8-8\6-|
Know what ya' doing, doing to me? (Dada daa!)

|-----------------------|---------|
|-----------------------|---------|
|-----------------------|---------|
|-----------------------|---------|
|-----------------------|---------|
|-6vv-6--6-9-8--1--1-4-3|-/11vvv--|
Ruby, Ruby, Ruby, Ruby! (Dada daa... ah!)


VERSE II

A#m Fm
Due te lack of interest, tomorrow is cancelled

Cm D#m5 (with delay)
b|-9p8---9p8---|
D|-10-11-11/13-| G|-----8-----8-|
Let the clocks be reset and the pendulumd held
A#m Fm
'Cause there's nothing at all, except the space in between
Cm D#m (strum and slide out)
D|-10-11-11/13-|
Finding out what you're called and repeating your name


CHORUS

A#m5 Fm5 D#m5
|-----------------------|----------|------|
|-----------------------|----------|------|
|-----------------------|-----10---|-8----|
|-----------------------|-8---10---|-8----|
|-----------------------|-8----8---|-6----|
|-----------------------|-6--------|------|
Ruby, Ruby, Ruby, Ruby! (Dada daa!)

A#m5 Fm5 D#m5
|-----------------------|----------|------|
|-----------------------|----------|------|
|-----------------------|-----10---|-8----|
|-----------------------|-8---10---|-8----|
|-----------------------|-8----8---|-6----|
|-----------------------|-6--------|------|
Do you, do you, do you, do you? (Dada daa!)

|-----------------------|--------------------|-----------------|
|-----------------------|--------------------|-----------------|
|-----------------------|--------------------|-----------------|
|-----------------------|--------------------|-----------------|
|-----------------------|--------------------|-----------------|
|-----------------------|-6--6-9-8--1--1-4-3///11-11\9-9\8-8\6-|
Know what ya' doing, doing to me? (Dada daa!)

|-----------------------|----------------|
|-----------------------|----------------|
|-----------------------|----------------|
|-----------------------|----------------|
|-----------------------|----------------|
|-6vv-6--6-9-8--1--1-4-3|-/11vvv--/12vvv-|
Ruby, Ruby, Ruby, Ruby! (Dada daa... ah!)


BRIDGE

Fm C# A#m D#5 E5
|--8--|------|-----|---------------------|
|--9--|---9--|--6--|---------------------|
|-10--|--10--|--6--|-----13p12----15p13--|
|-10--|--11--|--8--|---------------------|
|--8--|--11--|--8--|--13-------14--------|
|-----|---9--|--6--|--11-------12--------|

Fm C#
Could it be? Could it be... that you're joking with me?
A#m D#5 E5
And you don't really see you with me
Fm C#
Could it be? Could it be... that you're joking with me?
A#m D#5 E5
And you don't really see you with me


GUITAR SOLO

|| -------------------------------------------------------------------- ||
|| -------------------------------------------------------------------- ||
||O--------------------------------------------------------------------O||
||O-10p8h10--10p8h10--6-8/10-8\6---6-8/10-8\6---6-8-8/10--8--8-8-9vvvv-O||
|| ------------------------------8------------8------------------------ ||
|| -------------------------------------------------------------------- ||x2


|--------------------------------------------|
|--------------------------------------------|
|--------------------------------------------|
|-9-9-10-10-10-10-10-10-10-10-10-10-10-10-10-|
|--------------------------------------------|
|--------------------------------------------|


FINAL CHORUS

A#m Fm D#m
|-----------------------|----------|------|
|-----------------------|----------|------|
|-----------------------|-----10---|-8----|
|-----------------------|-8---10---|-8----|
|-----------------------|-8----8---|-6----|
|-----------------------|-6--------|------|
Ruby, Ruby, Ruby, Ruby! (Dada daa!)

A#m5 Fm5 D#m5
|-----------------------|----------|------|
|-----------------------|----------|------|
|-----------------------|-----10---|-8----|
|-----------------------|-8---10---|-8----|
|-----------------------|-8----8---|-6----|
|-----------------------|-6--------|------|
Do you, do you, do you, do you? (Dada daa!)

|-----------------------|--------------------|-----------------|
|-----------------------|--------------------|-----------------|
|-----------------------|--------------------|-----------------|
|-----------------------|--------------------|-----------------|
|-----------------------|--------------------|-----------------|
|-----------------------|-6--6-9-8--1--1-4-3///11-11\9-9\8-8\6-|
Know what ya' doing, doing to me? (Dada daa!)

|-----------------------|--------------------|-----------------|
|-----------------------|--------------------|-----------------|
|-----------------------|--------------------|-----------------|
|-----------------------|--------------------|-----------------|
|-----------------------|--------------------|-----------------|
|-----------------------|-6--6-9-8--1--1-4-3///11-11\9-9\8-8\6-|
Ruby, Ruby, Ruby, Ruby (Dada daa!)

D#m5
|-----------------------|--------------------|-----------------|
|-----------------------|--------------------|-----------------|
|-----------------------|--------------------|--8--------------|
|-----------------------|--------------------|--8--------------|
|-----------------------|--------------------|--6--------------|
|-----------------------|-6--6-9-8--1--1-4-3-|-----------------|
Do you, do you, do you, do you? (Dada daa!)

D#m5 E5 F5
|-----------------------|--------------------|-----------------|
|-----------------------|--------------------|-----------------|
|-----------------------|--------------------|--8---9---10-----|
|-----------------------|--------------------|--8---9---10-----|
|-----------------------|--------------------|--6---7----8-----|
|-----------------------|-6--6-9-8--1--1-4-3-|-----------------|
What ya' doing, doing to me? (Dada daa!)
Song info
Ruby
Kaiser Chiefs
2001
  • Rock
  • Indie Rock
Alternative tracks
Similar songs
Pumped Up Kicks - Foster the People
Intro - The xx
Battle Born - The Killers
Anas Song - Silverchair
Down - Blink-182

Hi! Hope you enjoy backing track experience.
If you want to help us in the development of the project, feel free to donate!