Picture - Kid Rock
00:00 / 00:00
Tabs and lyrics
Tunning: Standard (E A D G B e)
this is real easy. hardest part is the fill picks in the chords,
which go the same in all the chords as listed for the G.


[Intro]
e|-3-3-----3-------|
B|-3---3-----3---3-|
G|-0---------------|
D|-0---------------|
A|-2---------------|
E|-3-----3-----3---|


[Kid Rock's part:]
G C
Living my life in a slow hell. Different girl every night at the hotel
D G
I ain’t seen the sunshine in 3 damn days.
G C
Been fueling up on cocaine and whiskey. Wish I had a good girl to miss me.
D G
Lord I wonder if I’ll ever change my ways


[Kid Rock's Chorus:]
Em G
I put your picture away. Sat down and cried today
D C G
I can’t look at you, I’m lying next to her.
Em G
I put your picture away. Sat down and cried today.
D C G
I can’t look at you, I’m lying next to her.


[Sheryl Crow's Verse:]
G C
I called you last night in the hotel. Everyone knows but they won’t tell
D C G
But their half hearted smiles. Tell me something just ain’t right
G C
I’ve been waiting on you for a long time. Fueling up my heartaches on cheap wine
D G
I ain’t heard from you in 3 damn nights.


[Sheryl Crow's Chorus:]
Em G
I put your picture away. I wonder where you’ve been
D C G
I can’t look at you while I’m lying next to him.
Em G
I put your picture away. I wonder where you’ve been
D C G
I can’t look at you while I’m lying next to him.


[Solo:] G C D

Elec.- Mild Dist.

E---------------|--------|-----------------|-----------------|
B---------------|--------|7--8--7----------|7--8--7----------|
G---------------|------5-|---------9--7----|---------9--7----|
D---------------|---5--5-|---------------9-|---------------9-|
A-------------5-|7-------|-----------------|-----------------|
E--3--3--5/7----|--------|-----------------|-----------------|
x x


E--7--8--7--------------10---------|14--15--14------------|----15-----------|
B-----------10--8--10b12--12r10--8-|------------15b17--15-|--------15--15---|
G----------------------------------|----------------------|16----------14b16|
D----------------------------------|----------------------|-----------------|
A----------------------------------|----------------------|-----------------|
E----------------------------------|----------------------|-----------------|


E------------|-------|--------------|------------|
B------------|-------|--------------|3--3------3-|
G--12h14--12-|7h9--7-|4--2--0--2--0-|2--2b4r2--0-|
D------------|-------|--------------|------------|
A------------|-------|--------------|------------|
E------------|-------|--------------|------------|


G
Sheryl: I saw you yesterday with an old friend
C
Kid: It was the same ole same how have you been
D G
Both: Since you been gone my worlds been dark and gray
G
Kid: You reminded me of brighter days
C
Sheryl: I hoped you were coming home to stay
D
Sheryl: I was heading to church
G
Kid: I was off to drink you away


[Both:]
G C
I thought about you for a long time. Can’t seem to get you off my mind
D G
I can’t understand why we’re living life this way


[Both Chorus:]
Em G
I found your picture today. I swear I’ll change my ways
D C G
I just called to say I want you To come back home
Em G
I found your picture today. I swear I’ll change my ways
D C G
I just called to say I want you to come back home
D C G
I just called to say I love you come back home



************************************

| h Hammer-on
| r Release
| b Bend
| / Slide up

************************************
Song info
Picture
Kid Rock
2001
  • Pop
  • Rock
  • Country Rock
  • Pop Rock
  • Soft Rock
Similar songs
Money - Beatles
Humanoid - Tokio Hotel
In And Out Of Love - Bon Jovi

Hi! Hope you enjoy backing track experience.
If you want to help us in the development of the project, feel free to donate!