00:00 / 00:00
Tabs and lyrics
Tunning: Standard (E A D G B e)
fantastic song
enjoy

e|--0-0-0--0/-0-0-0--0/-0-0-0--0/-0-|
B|--0-0-0--0/-0-0-0--0/-0-0-0--0/-0-|
G|--1-1-1--1/-6-6-6--6/-8-8-8--8/-1-|
D|--2-2-2--2/-7-7-7--7/-9-9-9--9/-2-|
A|--2-2-2--2/-7-7-7--7/-9-9-9--9/-2-|
E|--0-0-0--0/-0-0-0--0/-0-0-0--0/-0-|
e a b

basically its just a sliding e chord, but still it sounds real good


************************************

| / Slide up

************************************
Tunning: Standard (E A D G B e)
Fans-Kings Of Leon

Verse

Guitar 1 (Acoustic Guitar)

e-0-0-0-0-0--0-0-0-0-0--0-0-0-0-0--|
B-0-0-0-0-0--0-0-0-0-0--0-0-0-0-0--|
G-1-1-1-1-1--6-6-6-6-6--8-8-8-8-8--|
D-2-2-2-2-2--7-7-7-7-7--9-9-9-9-9--|
A-2-2-2-2-2--7-7-7-7-7--9-9-9-9-9--|
E-0-0-0-0-0--5-5-5-5-5--7-7-7-7-7--|

Guitar 2 (Electric)

Either plays The Above Or Just Acquires Feedback.

Chorus

Guitar 1 (Acoustic)

e-0-0-0-0-0--0-0-0-0-0--0-0-0-0-0--|
B-0-0-0-0-0--0-0-0-0-0--0-0-0-0-0--|
G-1-1-1-1-1--6-6-6-6-6--8-8-8-8-8--|
D-2-2-2-2-2--7-7-7-7-7--9-9-9-9-9--|
A-2-2-2-2-2--7-7-7-7-7--9-9-9-9-9--|
E-0-0-0-0-0--5-5-5-5-5--7-7-7-7-7--|

Guitar 2 (Electric)

e-0-0-0-0-0--0-0-0-0-0--0-0-0-0-0--|
B-0-0-0-0-0--0-0-0-0-0--0-0-0-0-0--|
G-1-1-1-1-1--6-6-6-6-6--8-8-8-8-8--|
D-2-2-2-2-2--7-7-7-7-7--9-9-9-9-9--|
A-2-2-2-2-2--7-7-7-7-7--9-9-9-9-9--|
E-0-0-0-0-0--5-5-5-5-5--7-7-7-7-7--|

Solo

Guitar 1 (Acoustic)

e-0-0-0-0-0--0-0-0-0-0--0-0-0-0-0--|
B-0-0-0-0-0--0-0-0-0-0--0-0-0-0-0--|
G-1-1-1-1-1--6-6-6-6-6--8-8-8-8-8--|
D-2-2-2-2-2--7-7-7-7-7--9-9-9-9-9--|
A-2-2-2-2-2--7-7-7-7-7--9-9-9-9-9--|
E-0-0-0-0-0--5-5-5-5-5--7-7-7-7-7--|

Guitar 2 (Electric)

e-------0-0-0-0-0-0-0-0----------------------------|
B-0/////9h10-9h10-9h10br--0-0-0-0-0-0-0-0-0-0-0-0--|
G-------------------------8-8-9-8-8-8-9-8-8-8-9-9--|
D--------------------------------------------------|
A--------------------------------------------------|
E--------------------------------------------------|

Guitar 2 Slides On From Nowhereand plays the open strings with the other notes.
Song info
Fans
Kings of Leon
2001
  • Rock
  • Folk Rock
  • Southern Rock
Similar songs
Mr Tambourine Man - The Byrds
Heart Of Gold - Neil Young
Love Minus Zero - Bob Dylan
He Went To Paris - Jimmy Buffett

Hi! Hope you enjoy backing track experience.
If you want to help us in the development of the project, feel free to donate!