God Of Thunder - KISS
00:00 / 00:00
Tabs and lyrics
Tunning: Standard (E A D G B e)
-------------------------------------------------------------------------------
God of Thunder - KISS
-------------------------------------------------------------------------------
By: adiduz

Yeah, uh, I came up with this one night because I had the song stuck in my head... This is
how I (I, maybe not you) play it. If there is something wrong, please don't think I perverted
a good song, just email me (ray_warrick@hotmail.com) and let me know what's wrong with the tab.

INTRO
e|---------------------------------------------------------------------------|
B|---------------------------------------------------------------------------|
G|---------------------------------------------------------------------------|
D|---------------------------5-----------------5-2-5-7-8-7-5-7---------------|
A|-----7---5-7-------7---5-7---------7---5-7---------------------------------|
E|-0-0---7-------0-0---7---------0-0---7-------------------------------------|

e|---------------------------------------------------------------------------|
B|---------------------------------------------------------------------------|
G|---------------------------------------------------------------------------|
D|---------------------------5-----------------------------------------------|
A|-----7---5-7-------7---5-7---------7---5-7-------7---5h7-5h7---------------|
E|-0-0---7-------0-0---7---------0-0---7-------0-0---7-----------------------|
2X
CHORUS
e|---------------------------------------------------------------------------|
B|---------------------------------------------------------------------------|
G|---------------------------------------------------------------------------|
D|---------------------------------------------------------------------------|
A|-9-9---4-4---11-11---13-13-13------9-9---4-4---5---------------------------|
E|-7-7---2-2---9--9----11-11-11------7-7---2-2---3---------------------------|

e|---------------------------------------------------------------------------|
B|---------------------------------------------------------------------------|
G|---------------------------------------------------------------------------|
D|---------------------------------------------------------------------------|
A|-9-9---4-4---11-11---13-13-13---9-8-9-8-9-13-11-11-11-11-11-11-11----------|
E|-7-7---2-2---9--9----11-11-11---7-6-7-6-7-11-9--9--9--9--9--9--9-----------|

That's pretty much all there is to it.

===============================================================================
Tunning: Standard (E A D G B e)
Song: God of thunder
Band: Kiss

Feel free to use this tab for your own purpose.



e:---------------------------------------------------------------------|
B:---------------------------------------------------------------------|
G:---------------------------------------------------------------------|
D:---------------------------5---------------5---5--7-7pull up--5-7----|
A:-----7---5-5h7-----7---5-7-------7---5-5h7---7-----------------------|
E:-0-0---7-------0-0---7-------0-0---7---------------------------------|

e:----------------------------------------------------------------------|
B:----------------------------------------------------------------------|
G:----------------------------------------------------------------------|
D:---------------------------5------------------------------------------|
A:-----7---5-5h7-----7---5-7-------7---5-5h7-----7---5h7-5h7------------|
E:-0-0---7-------0-0---7-------0-0---7-------0-0---7--------------------|


[Chorus]

e:----------------------------------------------------------------------|
B:----------------------------------------------------------------------|
G:----------------------------------------------------------------------|
D:---------------------------5---------------5---5-7-7pul up-5-7--------|
A:-----7---5-5h7-----7---5-7-------7---5-5h7---7------------------------|
E:-0-0---5-------0-0---7-------0-0---7----------------------------------|

e:----------------------------------------------------------------------|
B:----------------------------------------------------------------------|
G:----------------------------------------------------------------------|
D:---------------------------5------------------------------------------|
A:-----7---5-5h7-----7---5-7-------7---5-5h7-----7---5h7-5h7------------|
E:-0-0---5-------0-0---7-------0-0---7-------0-0---5--------------------|
(play twice)

"God of thunder..."
e:---------------------------------------------------------------------------|
B:---------------------------------------------------------------------------|
G:--5-5----7-7----7-7----9~-----5-5----9-9-----------------4~-----5-5-----7-7|
D:--5-5----5-5----7-7----9~-----5-5----9-9------2-2-2-2-2--4~-----5-5-----5-5|
A:--3-3-----------5-5----7~-----3-3----7-7------0-0-0-0-0--2~-----3-3--------|
E:---------------------------------------------------------------------------|

"Will slowly..."
e:---------------------------------------------------------|
B:---------------------------------------------------------|
G:-----7-7----9~-----------------------7----7-7-7-7-7-7-7--|
D:-----7-7----9~---------5-4-5-4-5-----5----7-7-7-7-7-7-7--|
A:-----5-5----7~---------3-2-3-2-3----------5-5-5-5-5-5-5--|
E:---------------------------------------------------------|


[Solo]

e:---------------------------------------------------------------------------|
B:---------------------------------------------10b~~----------15b-15b-15b/15-|
G:-----------------4b~~~--------7b-7b-7b/7-----------------------------------|
D:-----------------------------------------9---------------------------------|
A:------------------------------------------10-------------------------------|
E:----6~~--7~~---------------------------------------------------------------|
}

e:---------------------------------------------------------------------------|
B:12-15-15b~---15/12---------------12-15/12----12---12--15/12---12---12--15/1|
G:------------------14-12/11~---14b---------14b--14b---------14b--14b--------|
D:---------------------------------------------------------------------------|
A:---------------------------------------------------------------------------|
E:---------------------------------------------------------------------------|


e:---------------15b-15-12/15/12------------|
B:2--15/12---12-----------------15-15b-15b~~|
G:--------14b-------------------------------|
D:------------------------------------------|
A:------------------------------------------|
E:------------------------------------------|



************************************

| h Hammer-on
| b Bend
| / Slide up
| ~ Vibrato

************************************
Tunning: Standard (E A D G B e)
KISS-God of Thunder (Destroyer '76)

Tabbed by Crystal Kilgore

This is an easy song, one of the first songs I learned. The other tab was almost correct, this one

similar, no part of the other was used, but the solo is different, thanks to the
KISS Asylum website,I

got the solo, give solo credit to him.(Side note: almost every KISS song in the '70s was in Eb or

"slack" tuning.)This was tabbed for the studio version, but it is also the live
version, for those who

know it better than the one of Destroyer.

Tuning-Eb
Key:
\-slide down
/-slide up
b-bend
r-release bend
~-let ring
h-hammer on
p-pull off
**-artificial harmonic

Intro (after voices)
|----------------------------------------------------------|
|----------------------------------------------------------|
|------------------------------------------5---5--7-7--5-7-|
|--------------------------5b--------------5---5--7-7--5-7-|
|-----7---5-7------7---5-7--------7---5-7---7--------------|
|-0-0---7------0-0---7--------0-0---7----------------------|x2

|-----------------------------------------------------------|
|-----------------------------------------------------------|
|-----------------------------------------------------------|
|--------------------------5b-------------------------------|
|-----7---5-7------7---5-7--------7---5-7------7---5h7-5h7--|
|-0-0---7------0-0---7--------0-0---7------0-0---7----------|

Verse
|----------------------------------------------------------|
|----------------------------------------------------------|
|------------------------------------------5---5--7-7--5-7-|
|--------------------------5b--------------5---5--7-7--5-7-|
|-----7---5-7------7---5-7--------7---5-7---7--------------|
|-0-0---7------0-0---7--------0-0---7----------------------|

|-----------------------------------------------------------|
|-----------------------------------------------------------|
|-----------------------------------------------------------|
|--------------------------5b-------------------------------|
|-----7---5-7------7---5-7--------7---5-7------7---5h7-5h7--|
|-0-0---7------0-0---7--------0-0---7------0-0---7----------|

|----------------------------------------------------------|
|----------------------------------------------------------|
|------------------------------------------5---5--7-7--5-7-|
|--------------------------5b--------------5---5--7-7--5-7-|
|-----7---5-7------7---5-7--------7---5-7---7--------------|
|-0-0---7------0-0---7--------0-0---7----------------------|

|-----------------------------------------------------------|
|-----------------------------------------------------------|
|-----------------------------------------------------------|
|--------------------------5b-------------------------------|
|-----7---5-7------7---5-7--------7---5-7------7---5h7-5h7--|
|-0-0---7------0-0---7--------0-0---7------0-0---7----------|

Chorus
|----------------------|----------------------------------|---------------------|-------------------|
|----------------------|----------------------------------|---------------------|-------------------|
|-5-5--(4)(4)--7-7--9~-|-5-5-5-5--9-9-9-9--2-2-2-2-2-2--4-|-5-5-(4)(4)--7-7--9~-|-5-4-5-4-5-4--7----|
|-5-5---5--5---7-7--9~-|-5-5-5-5--9-9-9-9--2-2-2-2-2-2--4-|-5-5--5--5---7-7--9~-|-5-4-5-4-5-4--7----|
|-3-3---5--5---5-5--7~-|-3-3-3-3--7-7-7-7--0-0-0-0-0-0--2-|-3-3--5--5---5-5--7~-|-3-2-3-2-3-2--5(x8)|
|-------3--3-----------|----------------------------------|------3--3-----------|-------------------|

Post Chorus
|----------------------------------------------------------|
|----------------------------------------------------------|
|------------------------------------------5---5--7-7--5-7-|
|--------------------------5b--------------5---5--7-7--5-7-|
|-----7---5-7------7---5-7--------7---5-7---7--------------|
|-0-0---7------0-0---7--------0-0---7----------------------|

Verse 2
|----------------------------------------------------------|
|----------------------------------------------------------|
|------------------------------------------5---5--7-7--5-7-|
|--------------------------5b--------------5---5--7-7--5-7-|
|-----7---5-7------7---5-7--------7---5-7---7--------------|
|-0-0---7------0-0---7--------0-0---7----------------------|

|-----------------------------------------------------------|
|-----------------------------------------------------------|
|-----------------------------------------------------------|
|--------------------------5b-------------------------------|
|-----7---5-7------7---5-7--------7---5-7------7---5h7-5h7--|
|-0-0---7------0-0---7--------0-0---7------0-0---7----------|

Chorus
|----------------------|----------------------------------|---------------------|-------------------|
|----------------------|----------------------------------|---------------------|-------------------|
|-5-5--(4)(4)--7-7--9~-|-5-5-5-5--9-9-9-9--2-2-2-2-2-2--4-|-5-5-(4)(4)--7-7--9~-|-5-4-5-4-5-4--7----|
|-5-5---5--5---7-7--9~-|-5-5-5-5--9-9-9-9--2-2-2-2-2-2--4-|-5-5--5--5---7-7--9~-|-5-4-5-4-5-4--7----|
|-3-3---5--5---5-5--7~-|-3-3-3-3--7-7-7-7--0-0-0-0-0-0--2-|-3-3--5--5---5-5--7~-|-3-2-3-2-3-2--5(x8)|
|-------3--3-----------|----------------------------------|------3--3-----------|-------------------|

Post Chorus
|----------------------------------------------------------|
|----------------------------------------------------------|
|------------------------------------------5---5--7-7--5-7-|
|--------------------------5b--------------5---5--7-7--5-7-|
|-----7---5-7------7---5-7--------7---5-7---7--------------|
|-0-0---7------0-0---7--------0-0---7----------------------|

Solo
|----------------------------------------------------------|
|----------------------------------------------------------|
|------------------------------------------5---5--7-7--5-7-|
|--------------------------5b--------------5---5--7-7--5-7-|
|-----7---5-7------7---5-7--------7---5-7---7--------------|
|-0-0---7------0-0---7--------0-0---7----------------------|x3 (rhy.)

Solo
|-----------------------------------------------------|
|-----------------------------------------------------|
|-----------------------------------------------------|
|-----------------------------------------------------|
|-----------------------------------------------------|
|--6~-------7~------b-------r7~-----------------------|
(Feedback)

|---------------------------------------------------|
|----------------------------3b---3b---3b-r3--------|
|--3b^^---------3p2p0--3b---------------------4--0--|
|---------------------------------------------------|
|---------------------------------------------------|
|---------------------------------------------------|


|---------------------------------------------------|
|---------------------------------------14**--------|
|--2**-2**-2**-2**b---r2p0--------------------------|
|---------------------------2--0--------------------|
|---------------------------------------------------|
|---------------------------------------------------|

|---------------------------------------------------|
|--15b---15b---15b---15b-r15--12-15--15b~-----------|
|---------------------------------------------------|
|---------------------------------------------------|
|---------------------------------------------------|
|---------------------------------------------------|

|---------------------------12----------------------|
|--12h15p12-------------/12--------------12-15-12---|
|-----------14p12\11-----------14b----14b-----------|
|---------------------------------------------------|
|---------------------------------------------------|
|---------------------------------------------------|

|------------------------------------15b--15--------|
|--12-15--------12-15-12h15p12----12----------------|
|-----------14b----------------14-------------------|
|---------------------------------------------------|
|---------------------------------------------------|
|---------------------------------------------------|

|--12h15p12----12-------------------------------------|
|-----------15----15b--15b----------------------------|
|-----------------------------------------------------|
|-----------------------------------------------------|
|-----------------------------------------------------|
|-----------------------------------------------------|

Post Solo
|----------------------------------------------------------|
|----------------------------------------------------------|
|------------------------------------------5---5--7-7--5-7-|
|--------------------------5b--------------5---5--7-7--5-7-|
|-----7---5-7------7---5-7--------7---5-7---7--------------|
|-0-0---7------0-0---7--------0-0---7----------------------|


|-----------------------------------------------------------|
|-----------------------------------------------------------|
|-----------------------------------------------------------|
|--------------------------5b-------------------------------|
|-----7---5-7------7---5-7--------7---5-7------7---5h7-5h7--|
|-0-0---7------0-0---7--------0-0---7------0-0---7----------|

Repeat Chorus
Post Chorus

Outro
|----------------------------------------------------------|
|----------------------------------------------------------|
|------------------------------------------5---5--7-7--5-7-|
|--------------------------5b--------------5---5--7-7--5-7-|
|-----7---5-7------7---5-7--------7---5-7---7--------------|
|-0-0---7------0-0---7--------0-0---7----------------------|x2


|-------|
|-------|
|-9-9~--|
|-9-9~--|
|-7-7~--|
|-0-0~--|
Song info
God Of Thunder
KISS
2001
  • Rock
  • Hard Rock
Alternative tracks
Similar songs
Live And Let Die - Guns N' Roses
Sorprendente - Leño
Don't Believe Her - Scorpions
A Better Man - Thunder
Roller - April Wine

Hi! Hope you enjoy backing track experience.
If you want to help us in the development of the project, feel free to donate!