Hotter Than Hell - KISS
00:00 / 00:00
Tabs and lyrics
Tunning: Standard (E A D G B e)
Hotter Than Hell - by Kiss
Original version on the album Hotter Than Hell (1974)
Words and music by Paul Stanley

Transcribed by Mark Vignati (gs01mcv@panther.gsu.edu)

Note about tuning: For some reason, this song is the only one on
the album Hotter Than Hell that is tuned one whole step below
standard pitch. All other songs for this album are one half step
below standard, and the live version of Hotter Than Hell on Alive!
is one half-step down also. Just be aware of this when you play
along with either the album or studio version.
[Tab Mod's note - original version is actually tuned somewhere between a half and a whole step down]

Note values are written above the staff: w=whole note, h= half
q=quarter, e=eighth, etc. A rest will be followed by an 'r'.
'Ghost' or 'grace' notes (such as in bar 3 of riff 1) will be
noted by an *.
Lyrics will be under staff, as physically close to their rhythmic
placement in the song as ASCII will allow.

Song is in 4/4.

Beginning (Riff 1)

e e h.r e e q.r s s s s s s e e er * e e e q
|---------------|--------------------------|------------------------|
|-o-------------|--3--3--------------------|------------------------|
|----2--2-------|--2--2-----------2h5p2p0--|--2--2------------------|
|-o--2--2-------|--0--0-------2h5----------|--2--2-----5h7--7-7-7\--|
|----0--0-------|--------------------------|--0--0------------------|
|---------------|--------------------------|------------------------|

e e q. s s s s s s
|--------3------------------|
|--3--3--3----------------o-|
|--2--2--0-------2h5p2p0----|
|--0--0--0---2h5----------o-|
|---------------------------|
|---------------------------|

Verse

e e h.r e e h.r e e h.r e e h.r
|---------------|---------------|--------------|-------------------|
|---------------|--3--3---------|--------------|--3--3-------------|
|----2--2-------|--2--2---------|--2--2--------|--2--2-------------|
|----2--2-------|--0--0---------|--2--2--------|--0--0-------------|
|----0--0-------|---------------|--0--0--------|-------------------|
|---------------|---------------|--------------|-------------------|
She looked hotter all dressed
good, she than in satins
looked ... hell... and lace . . .

e e h.r e e h.r e h+q.r
|---------------|-----------------|-----------------|
|---------------|--3--3-----------|-----------------|
|----2--2-------|--2--2-----------|--2--------------|
|----2--2-------|--0--0-----------|--2--------------|
|----0--0-------|-----------------|--0--------------|
|---------------|-----------------|-----------------|
I looked at much too I had to get
her and it was... clear... on the case . . .

e e q. s s s s s s
|--------3------------------|
|--3--3--3------------------|
|--2--2--0-------2h5p2p0----|
|--0--0--0---2h5------------|
|---------------------------|
|---------------------------|


e e h.r e e h.r e e h.r
|---------------|---------------|--------------|
|---------------|--3--3---------|--------------|
|----2--2-------|--2--2---------|--2--2--------|
|----2--2-------|--0--0---------|--2--2--------|
|----0--0-------|---------------|--0--0--------|
|---------------|---------------|--------------|
I said Lady take ya home? There's just
can I -- so much we could do . . .


e e q. s s s s s s
|--------3------------------|
|--3--3--3------------------|
|--2--2--0-------2h5p2p0----|
|--0--0--0---2h5------------|
|---------------------------|
|---------------------------|


e e qr e e qr e e qr e e qr
|---------------------|--3--3-------3--3-------|
|---------------------|--3--3-------3--3-------|
|-2--2------2--2------|--0--0-------0--0-------|
|-2--2------2--2------|--0--0-------0--0-------|
|-0--0------0--0------|--2--2-------2--2-------|
|---------------------|--3--3-------3--3-------|
I'll take ya all whole wide world . . .
around the . . .


e e e e e e er e (w)
|-----------------3--------|--------------|
|--3--3--3--3--3--3--------|--------------|
|--2--2--2--2--2--0-----2--|--(2)---------|
|--0--0--0--0--0--0-----2--|--(2)---------|
|-----------------2-----0--|--(0)---------|
|-----------------3--------|--------------|
She blah blah blah -?-?-?- there . . .
(Never could figure these out, sorry :)

Chorus

e er e er e er e er e er e er e er e er
|--------------------------|------------------------------|
|--14----14----14----14----|---12----12----12----12-------|
|--14----14----14----14----|---12----12----12----12-------|
|--14----14----14----14----|---12----12----12----12-------|
|--------------------------|------------------------------|
|--------------------------|------------------------------|
Hot, hot, Hotter than hell,


e er e er e er e er e er e er e er e er
|-------------------------|-------------------------------|
|--7----7----12----12-----|---14----14----14----14--------|
|--7----7----12----12-----|---14----14----14----14--------|
|--7----7----12----12-----|---14----14----14----14--------|
|-------------------------|-------------------------------|
|-------------------------|-------------------------------|
Ya know she's gonna
leave ya well done . . . . (undone?)


e er e er e er e er e er e er e er e er
|--------------------------|------------------------------|
|--14----14----14----14----|---12----12----12----12-------|
|--14----14----14----14----|---12----12----12----12-------|
|--14----14----14----14----|---12----12----12----12-------|
|--------------------------|------------------------------|
|--------------------------|------------------------------|
Hot, hot, Hotter than hell,

h h w h h
|----------3----|-------------|------------3-------------|
|---3------3----|-------------|----3-------3-------------|
|---2------0----|--2----------|----2-------0-------------|
|---0------0----|--2----------|----0-------0-------------|
|----------2----|--0----------|------------2-------------|
|----------3----|-------------|------------3-------------|
Burn ya like
the midday - sun -

Guitar solo interlude
(Ace does solo I haven't figured out, Paul plays this)

e e h.r e e q.r s s s s s s e e er * e e e q
|--------------|--------------------------|------------------------|
|--------------|--3--3--------------------|------------------------|
|---2--2-------|--2--2-----------2h5p2p0--|--2--2------------------|
|---2--2-------|--0--0-------2h5----------|--2--2-----5h7--7-7-7\--|
|---0--0-------|--------------------------|--0--0------------------|
|--------------|--------------------------|------------------------|

e e q. s s s s s s
|--------3-----------------|
|--3--3--3-----------------|
|--2--2--0-------2h5p2p0---|
|--0--0--0---2h5-----------|
|--------------------------|
|--------------------------|


Verse 2

e e h.r e e h.r e e h.r
|--------------------|---------------|--------------|
|--------------------|--3--3---------|--------------|
|----2--2------------|--2--2---------|--2--2--------|
|----2--2------------|--0--0---------|--2--2--------|
|----0--0------------|---------------|--0--0--------|
|--------------------|---------------|--------------|
I asked her why Make up her She said you
she couldn't mind . . . don't understand . . .


e e q. s s s s s s
|--------3------------------|
|--3--3--3------------------|
|--2--2--0-------2h5p2p0----|
|--0--0--0---2h5------------|
|---------------------------|
|---------------------------|


e e qr e e qr e e qr e e qr
|---------------------|--3--3-------3--3-------|
|---------------------|--3--3-------3--3-------|
|-2--2------2--2------|--0--0-------0--0-------|
|-2--2------2--2------|--0--0-------0--0-------|
|-0--0------0--0------|--2--2-------2--2-------|
|---------------------|--3--3-------3--3-------|
I'd love to go thing you should know . . .
but there's one


e e e e e e er e (w)
|-----------------3--------|--------------|
|--3--3--3--3--3--3--------|--------------|
|--2--2--2--2--2--0-----2--|--(2)---------|
|--0--0--0--0--0--0-----2--|--(2)---------|
|-----------------2-----0--|--(0)---------|
|-----------------3--------|--------------|
She -?-?-?- me all the way there
(Sorry, don't know this either :)

Do two choruses, then to the...
Guitar solo:

e e e e e er e er e e e e er e q
|---------------------------------|------------------------------|
|-o-------------------------------|------------------------------|
|---------------------------------|------------------------------|
|-o--12--14--14--12--14----14-----|--10--9--7--10-----12--12-----|
|----10--12--12--10--12----12-----|--8---7--5--8------10--10-----|
|---------------------------------|------------------------------|

e e e e e er e er e e e h+e
|-------------------------------|--------------------------|
|-------------------------------|------------------------o-|
|-------------------------------|--------------------------|
|--12--14--14--12--14----14-----|--10---9--7---/12-------o-|
|--10--12--12--10--12----12-----|--8----7--5---/10---------|
|-------------------------------|--------------------------|


Sorry I don't know the solos, but maybe someone can appent this
transcription. The final solo is doubletracked in the studio, with
two separate solos going at once. Ace uses one of these for the
live version solo.
Tunning: D tuning (D G C F A D)
Key:
/ = slide up
\ = slide down
b = bend (whole step)
b^ = bend (1/2 step)
b^^ = bend (1 1/2 steps)
pb = pre-bend
r = release-bend
t = tap with righthand finger
h = hammer-on
p = pull-off
~ = Vibrato
* = Natural Harmonic
#(#) = Trill
** = Artificial Harmonic
x = Dead notes (no pitch)
P.M. = Palm mute (- -> underneath indicates which notes)
(\) = Dive w\bar
(/) = Release w\bar
Tp = Tap w\plectrum



Rhythm Fig. 1a

D|------------------------------------------------------|
A|------------------------------------------------------|
F|--2--2-------------7-7--7-----------------------------|
C|--2--2-------------5-5--5-----------------------------|
G|--0--0-------------0-0--0------------0h3p0------------|
D|---------------------------------0h3-------3----------|



D|------------------------------------------------------|
A|--------------------------7--7--8---------------------|
F|--2--2--------------------7--7--7---------------------|
C|--2--2------5h7-7-7-5h7\--7--7--9---------------------|
G|--0--0-------------------------------------0h3p0------|
D|---------------------------------------0h3-------3----|



Rhythm Fig. 1b

D|-------------------3-3--3-----------------------------|
A|-------------------3-3--3-----------------------------|
F|--2--2-------------0-0--0------------2h5p2p0----------|
C|--2--2-------------0-0--0--------2h5------------------|
G|--0--0-------------0-0--0-----------------------------|
D|------------------------------------------------------|



D|--------------------------2--2--3---------------------|
A|--------------------------3--3--3---------------------|
F|--2--2--------------------2--2--0----------2h5p2p0----|
C|--2--2------5h7-7-7-5h7\--0--0--0------2h5------------|
G|--0--0------------------------------------------------|
D|------------------------------------------------------|



Rhythm Fig. 2a

D|------------------------------------------------------|
A|------------------------------------------------------|
F|--2--2-------------7-7--7-----------------------------|
C|--2--2-------------5-5--5-----------------------------|
G|--0--0-------------0-0--0-----------------------------|
D|------------------------------------------------------|



D|------------------------------------------------------|
A|-------------------7--7--8----------------------------|
F|--2----------------7--7--7----------------------------|
C|--2----------------7--7--9----------------------------|
G|--0---------------------------------0h3p0-------------|
D|--------------------------------0h3-------3-----------|



Rhythm Fig. 2b

D|-------------------3-3--3-----------------------------|
A|-------------------3-3--3-----------------------------|
F|--2--2-------------0-0--0-----------------------------|
C|--2--2-------------0-0--0-----------------------------|
G|--0--0-------------0-0--0-----------------------------|
D|------------------------------------------------------|



D|-------------------2--2--3----------------------------|
A|-------------------3--3--3----------------------------|
F|--2----------------2--2--0----------2h5p2p0-----------|

C|--2----------------0--0--0------2h5-------------------|
G|--0---------------------------------------------------|
D|------------------------------------------------------|




Rhythm Fig. 3a

D|------------------------------------------------------|
A|------------------------------------------------------|
F|--2--2-------------7-7--7-----------------------------|
C|--2--2-------------5-5--5-----------------------------|
G|--0--0-------------0-0--0-----------------------------|
D|------------------------------------------------------|



D|------------------------------------------------------|
A|--------------------7--7--8---------------------------|
F|--2--2--------------7--7--7---------------------------|
C|--2--2--------------7--7--9---------------------------|
G|--0--0-------------------------------0-3-0------------|
D|---------------------------------0-3-------3----------|



D|----------------------3--3------3--3------------------|
A|----------------------3--3------3--3------------------|
F|--2--2------2--2------0--0------0--0------------------|
C|--2--2------2--2------0--0------0--0------------------|
G|--0--0------0--0--------------------------------------|
D|----------------------3--3------3--3------------------|



D|------------------------------------------------------|
A|--7--7--7--7---------9----9--9----9----9--------------|
F|--7--7--7--7---------9----9--9----9----9--------------|
C|--7--7--7--7----7----9----9--9----9----9--------------|
G|--5--5--5--5----7----7----7--7----7----7--------------|
D|----------------5-------------------------------------|




Rhythm Fig. 3b

D|-------------------3-3--3-----------------------------|
A|-------------------3-3--3-----------------------------|
F|--2--2-------------0-0--0-----------------------------|
C|--2--2-------------0-0--0-----------------------------|
G|--0--0-------------0-0--0-----------------------------|
D|------------------------------------------------------|




D|--------------------2--2--3---------------------------|
A|--------------------3--3--3---------------------------|
F|--2--2--------------2--2--0----------2h5p2p0----------|
C|--2--2--------------0--0--0------2h5------------------|
G|--0--0------------------------------------------------|
D|------------------------------------------------------|




D|------------------------------------------------------|
A|------------------------------------------------------|
F|--2--2------2--2------7--7------7--7------------------|
C|--2--2------2--2------5--5------5--5------------------|
G|--0--0------0--0--------------------------------------|
D|------------------------------------------------------|




D|------------------------------------------------------|
A|------------------------------------------------------|
F|--7--7--7--7----9----9--------------------------------|
C|--7--7--7--7----7----9--------------------------------|
G|--5--5--5--5---------7--------------------------------|
D|--------------------------0---------------------------|
Let ring


Rhythm Fig. 4a (P.M. on open 6th)

D|------------------------------------------------------|
A|--14----14----14-----14-----12----12----12-----12-----|
F|--14----14----14-----14-----12----12----12-----12-----|
C|--14----14----14-----14-----12----12----12-----12-----|
G|--12----12----12-----12-----10----10----10-----10-----|
D|------------------0------0------------------0------0--|




D|------------------------------------------------------|
A|--7----7----7-----7-----2-----------------------------|
F|--7----7----7-----7-----2-----------------------------|
C|--7----7----7-----7-----2-----------------------------|
G|--5----5----5-----5-----0-----------------------------|
D|---------------0-----0--------------------------------|




D|------------------------------------------------------|
A|--14----14----14-----14-----12----12----12-----12-----|
F|--14----14----14-----14-----12----12----12-----12-----|
C|--14----14----14-----14-----12----12----12-----12-----|
G|--12----12----12-----12-----10----10----10-----10-----|
D|------------------0------0------------------0------0--|




D|--2--------3--------------------------2--------3------|
A|--3--------3--------2-----------------3--------3------|
F|--2--------0--------2-----------------2--------0------|
C|--0--------0--------2-----------------0--------0------|
G|--------------------0---------------------------------|
D|-----------3-----------------------------------3------|



Rhythm Fig. 4b

D|------------------------------------------------------|
A|------------------------------------------------------|
F|--14----14----14----14----12----12----12----12--------|
C|--14----14----14----14----12----12----12----12--------|
G|--12----12----12----12----10----10----10----10--------|
D|------------------------------------------------------|




D|------------------------------------------------------|
A|------------------------------------------------------|
F|--7----7----7----7----14----14----14----14------------|
C|--7----7----7----7----14----14----14----14------------|
G|--5----5----5----5----12----12----12----12------------|
D|------------------------------------------------------|




D|------------------------------------------------------|
A|------------------------------------------------------|
F|--14----14----14----14----12----12----12----12--------|
C|--14----14----14----14----12----12----12----12--------|
G|--12----12----12----12----10----10----10----10--------|
D|------------------------------------------------------|




D|--2--------3--------------------------2--------3------|
A|--3--------3--------2-----------------3--------3------|
F|--2--------0--------2-----------------2--------0------|
C|--0--------0--------2-----------------0--------0------|
G|--------------------0---------------------------------|
D|-----------3-----------------------------------3------|



Rhythm Fig. 5

D|------------------------------------------------------|
A|------------------------------------------------------|
F|--12/-14--14--12--14----14----10\-9--7--10----12------|
C|--12/-14--14--12--14----14----10\-9--7--10----12------|
G|--10/-12--12--10--12----12----8\--7--5--8-----10------|
D|------------------------------------------------------|



D|------------------------------------------------------|
A|------------------------------------------------------|
F|--12/-14--14--12--14----14----10\-9--7--12------------|
C|--12/-14--14--12--14----14----10\-9--7--12------------|
G|--10/-12--12--10--12----12----8\--7--5--10------------|
D|------------------------------------------------------|



Riff 1

D|------------------------------------------------------|
A|--15b~------------------------------------------------|
F|-------------12h14b^^~-------12h14-14~----------------|
C|------------------------------------------------------|
G|------------------------------------------------------|
D|------------------------------------------------------|



Riff 2

D|------------------------------------------------------|
A|----------------------------------------15b---15b~----|
F|--12h14b^^~------14--12--14--12--14p12----------------|
C|------------------------------------------------------|
G|------------------------------------------------------|
D|------------------------------------------------------|



D|------------------------------------------------------|
A|--15-13-15--13--15--15b-r15p13----13h15p13-15b--------|
F|-------------------------------14---------------------|
C|------------------------------------------------------|
G|------------------------------------------------------|
D|------------------------------------------------------|



Riff 3

D|------------------------------------------------------|
A|------------------------------------------------------|
F|--7b---7b---7--5--7p5~--------------------------------|
C|------------------------------------------------------|
G|------------------------------------------------------|
D|------------------------------------------------------|



Riff 4

D|------------------------------------------------------|
A|--------------------------------------------17b--17b--|
F|--------14----16b--16b-r16p14-----14h16p14------------|
C|--14h16----------------------16-----------------------|
G|------------------------------------------------------|
D|------------------------------------------------------|



D|------------------------------------------------------|
A|--17b--r17--17~---------------------------------------|
F|------------------------------------------------------|
C|------------------------------------------------------|
G|------------------------------------------------------|
D|------------------------------------------------------|




Riff 5

D|------------------------------------------------------|
A|------------------------------------------------------|
F|--12h14b^^-----12h14b^^--r14-14b^^--------------------|
C|------------------------------------------------------|
G|------------------------------------------------------|
D|------------------------------------------------------|
Pick only once - - >



Solo

D|------------------------------------------------------------------|
A|-----------------------------------------------------------12-----|
F|--7p-5~-------------7b---7b---7b---7b-r7p5--------/12--14---------|
C|--------------7--5-------------------------7~---------------------|
G|------------------------------------------------------------------|
D|------------------------------------------------------------------|
(left)



D|------------------------------------------------------------------|
A|--12b^----12b^--r12----12b^--r12----------------------------------|
F|----------------------------------14~----14b^^----r14-12h14b^^----|
C|------------------------------------------------------------------|
G|------------------------------------------------------------------|
D|------------------------------------------------------------------|



D|------------------------------------------------------------------|
A|------------------------------------------------------------------|
F|--12h14b^^--r14-14b^^---r14-12h14b^^---r14-14b^^---r14--12h14b^^--|
C|------------------------------------------------------------------|
G|------------------------------------------------------------------|
D|------------------------------------------------------------------|
| |
| |
D|------------------------------------------------------------------|
A|------------------------------------------------------------------|
F|-----7---7b----------------r7-----------5h7p5------------12--14---|
C|----------------------------------------------7-----/14-----------|
G|------------------------------------------------------------------|
D|------------------------------------------------------------------|
(right)


D|------------------------------------------------------------------|
A|----------------13-15b------15--13--15--15-15b-15b-15b-15b-15b----|
F|-----------r14----------------------------------------------------|
C|------------------------------------------------------------------|
G|------------------------------------------------------------------|
D|------------------------------------------------------------------|
| |
| |
| |
D|------------------------------------------------------------------|
A|--14b^^----r14--12-14b^^--r14-12h14b^^--r14-14b^^-r14-12h14b^^----|
F|------------------------------------------------------------------|
C|------------------------------------------------------------------|
G|------------------------------------------------------------------|
D|------------------------------------------------------------------|



D|------------------------------------------------------------------|
A|--15b-r15p13------13h15b~------r15-15b------r15-------------------|
F|-------------14---------------------------------------------------|
C|------------------------------------------------------------------|
G|------------------------------------------------------------------|
D|------------------------------------------------------------------|
| |
| |
| |
D|------------------------------------------------------------------|
A|--r14-14b^^--r14-12h14b^^---r14-14b--r14-12h14b^^--r14-14b^^-r14--|
F|------------------------------------------------------------------|
C|------------------------------------------------------------------|
G|------------------------------------------------------------------|
D|------------------------------------------------------------------|



D|----------------------------------------17------------------------|
A|-------17-20b----20b-----r20-20b---r20------20b-------r20---------|
F|--/19-------------------------------------------------------------|
C|------------------------------------------------------------------|
G|------------------------------------------------------------------|
D|------------------------------------------------------------------|
| |
| |
| |
D|------------------------------------------------------------------|
A|------------------15b--r15-13h15p13---------------13--15--13------|
F|--12h14p12----12--------------------14--14b^^---------------------|
C|-----------14-----------------------------------------------------|
G|------------------------------------------------------------------|
D|------------------------------------------------------------------|



D|--------20b-------------20b-------r20--20b----r20-20b-----r20\----|
A|--20p17-----------------------------------------------------------|
F|------------------------------------------------------------------|
C|------------------------------------------------------------------|
G|------------------------------------------------------------------|
D|------------------------------------------------------------------|
| |
| |
| |
D|------------------------------------------------------------------|
A|--15--15b--15b--15b--15b--15b---15b----------r15---13\------------|
F|------------------------------------------------------------------|
C|------------------------------------------------------------------|
G|------------------------------------------------------------------|
D|------------------------------------------------------------------|



D|------------------------------------------------------------------|
A|--5---------------------------------------------------------------|
F|--5----5---7b--------5--------------------------------------------|
C|-------------------------7---5---5--------------------------------|
G|-----------------------------------7-5--3--3-----0--0--3----------|
D|------------------------------------------------------------------|
| |
| |
| |
D|---17(20)---------20b-------20b---20b--20-17----------------------|
A|---------------------------------------------20-17-20b-----20--17-|
F|------------------------------------------------------------------|
C|------------------------------------------------------------------|
G|------------------------------------------------------------------|
D|------------------------------------------------------------------|



D|------------------------------------------------------------------|
A|------------------------------------------------------------------|
F|----------------------5---5-7b--r7p-5-------------------5h7-------|
C|-------------5--5h6h7---7--------------7--5h-7~-------------------|
G|--0---3--/7-------------------------------------------------------|
D|------------------------------------------------------------------|
| |
| |
| |
D|------20----------------------------------------------------------|
A|---------17-------------------------------------------------------|
F|------------19-17-19b-------19b-r19p17----------------------------|
C|---------------------------------------19-17h19~------------------|
G|------------------------------------------------------------------|
D|------------------------------------------------------------------|



D|------------------------------------------------------------------|
A|---------------------------------------10--12~---------12b^---r12-|
F|--7b--------r7-----5h7p5~---------/11-----------------------------|
C|------------------------------------------------------------------|
G|------------------------------------------------------------------|
D|------------------------------------------------------------------|
| |
| |
| |
D|------------------------------------------------------------------|
A|--x-5--x-5--x-5--7b^-r7p5-----------------------------------------|
F|--x-5--x-5--x-5--7b^-r7p5-----------------------------------------|
C|---------------------------7-5-5h7~-------5h7----5h7-----5h7------|
G|------------------------------------------------------------------|
D|------------------------------------------------------------------|



D|------------------------------------------------------------------|
A|--12b^--r12--12b^--r12-12b^--r12--12b^--r12--12b^--r12--12b^--r12-|
F|------------------------------------------------------------------|
C|------------------------------------------------------------------|
G|------------------------------------------------------------------|
D|------------------------------------------------------------------|
| |
| |
| |
D|------------------------------------------------------------------|
A|------------------------------------------------------------------|
F|------------------------------------------------------------------|
C|--5h7p5------------------------------------------------------5--7-|
G|--------7--6-5--3~------------0--3----3h5/7---0--3-5p-3--5/7------|
D|------------------------------------------------------------------|



D|------------------------------12b---------------------------------|
A|--12b-r12p10----10-12b-r12p10-------------------------------------|
F|-------------11---------------------------------------------------|
C|------------------------------------------------------------------|
G|------------------------------------------------------------------|
D|------------------------------------------------------------------|
| (fade out) |
| |
| |
D|---------------------------5--------------------------------------|
A|--------------5---5-8-5-8-----8-8p7p5-----------------------------|
F|--5---5-7-5-7---7-------------------------------------------------|
C|----7-------------------------------------------------------------|
G|------------------------------------------------------------------|
D|------------------------------------------------------------------|
(fade out)




HOTTER THAN HELL
Paul Stanley

[Rhy. Fig 1a w/ Rhy. Fig 1b]
[Rhy. Fig 1a w/ Rhy. Fig 1b and Riff 1]
Come on

[Rhy. Fig 2a w/ Rhy. Fig 2b]
She looked good
She looked hotter than hell
All dressed in satins and lace
I looked at her and it was just too clear
I had to get on the case

[Rhy. Fig 3a w/ Rhy. Fig 3b]
I said "Lady, oh lady, can I take you home
There's just so much we could do
I'll take you all around the whole wide world
Before the evening is through

[Rhy. Fig 4a w/ Rhy. Fig 4b]
Hot, hot, hotter than hell
You know she's gonna leave you well done
Hot, hot, hotter than hell
Burn you like the midday sun

[Rhy. Fig 1a w/ Rhy. Fig 1b and Riff 2]

[Rhy. Fig 3a w/ Rhy. Fig 3b and Riff 3]
I asked her why she couldn't make up her mind
She said "You don't understand"
"I'd love to go, but there's something you should know"
She showed me her wedding band

[Rhy. Fig 4a w/ Rhy. Fig 4b w/ Riff 4]
Hot, hot, hotter than hell
You know she's gonna leave you well done
Hot, hot, hotter than hell
She'll burn you like the midday sun
[Rhy. Fig 4a w/ Rhy. Fig 4b w/ Riff 5]
Hot, hot, hotter than hell
You know she's gonna leave you well done
Hot, hot, hotter than hell
She'll burn you like the midday sun

[Rhy. Fig 5]
[Solo over Rhy. Fig 5 (until fade)]

Song info
Hotter Than Hell
KISS
2001
  • Rock
  • Glam
  • Hard Rock
Alternative tracks
Similar songs
Hot Child In The City - Nick Gilder
1970 - The Stooges
Free For All - Ted Nugent
Back On The Streets - Gary Moore

Hi! Hope you enjoy backing track experience.
If you want to help us in the development of the project, feel free to donate!