I Love It Loud - KISS
00:00 / 00:00
Tabs and lyrics
Tunning: Standard (E A D G B e)
#----------------------------------PLEASE NOTE---------------------------------#
#This file is the author's own work and represents their interpretation of the #
#song. You may only use this file for private study, scholarship, or research. #
#------------------------------------------------------------------------------##
From: robs@violet.berkeley.edu (Rob Schenk)
Subject: Tab: Kiss "I Love It Loud"

I Love It Loud

by Kiss

off the album, Creatures of the Night

from Guitar School, Sept. 1993

Verse

---------------------------------------------------------3----------
---------------------------------------------------------3--3---3-2-
-4-4---4-4-4------4-4-4-4-----4-----4--4--4-4--4---4---0--2---2-2--
-4-4-4-4-4-4-4-4--4-4-4-4--4-4--4--4--4--4-4--4-4-4-4----0---0-0-
-2---2---0----0-0--2-2-2-2--0----0-----2----2----0-0-0-------------
---------------------------------------------------------------------

Chorus

-------------------------------------------------------------------------
-------------9---x--------------------9-------------------------x-------
-4----4-2----9--x------4-4-4-4---2---9----------4---4-2---9---x-2---------
-4----4-2----9--x--2---4-4-4-4-4-2---9----------4---4-2---9---x-2----------
-2----2-0----7-----0---2-2-2-2-2-0---7----------2---4-0---7-----0--------
-------------0------------------------0---3---5-------------0--------------

---------------3-----------------------------------------
---------------3-----x--3----------------------------------
-4-4-4-4-4-2--0-----x--2---9--------------------------------------
-4-4-4-4-4-2--0-----x--0---9--------------------------------------
-2-2-2-2-2-0--x------------7------------------------------------
---------------3------------0-------3b----------------------

Interlude
[ 3X ]
--------------------------------------------------------
---------------------------------7-----------------------
-2---7-7-/-5--/-7----2----------7-7-/---5--7-------------------------
-2---7-7-/-5--/-7--2-2----------7-7-/---5--7---------------------------
-0---5-5-/-3--/-5--0-0----------5-5-/---3--5--------------------------
--------------------------------------------------------

Solo

--------------------------------------------------------
-7-----9----10------9----7-----5----3----dive bar-------
-9b---12b---12bv---11b---9bv---7b---5b-----------------
--------------------------------------------------------
--------------------------------------------------------
--------------------------------------------------------




Tunning: Standard (E A D G B e)
I Love It Loud by KISS
From the album Creatures Of The Night
Transcriber: Unknown
--------------------------------------------------------------------


drums intro to verse 1 "Stand up you dont have to.." "Get down...
e:---------------------------------------------------------------------------|
B:---------------------------------------------------------------------------|
G:-----------------------------4~----4--4-4-----4~----4--4-4--------4~---4--4|
D:-----------------------------4~----4--4-4-----4~----4--4-4--------4~---4--4|
A:-----------------------------2~----2--2-2-----0~----0--0-0--------2~---2--2|
E:---------------------------------------------------------------------------|




." "..like a hurricane" "Street boy.." "..could be tamed.." "Better
e:-----------------------------------------------------------------------3---|
B:-----------------------------------------------------------------------3---|
G:-4-----4~----4---4-4--------4~---4--4-4--------4~--4---4--4------------0---|
D:-4-----4~----4---4-4--------4~---4--4-4--------4~--4---4--4------------0---|
A:-2-----0~----0---0-0--------2~---2--2-2--------0~--0---0--0------------x---|
E:-----------------------------------------------------------------------3---|
repe



believe it"
e:--2----2---------|
B:--3----3---------|
G:--2----2---2~----|
D:--0----0---2~----|
A:-----------0~----|
E:-----------------|
at for verses



chorus "Loud I wanna hear it loud" "..between the eyes.."
e:---------------------------------------------------------------------------|
B:---------------------------------------------------------------------------|
G:-------4~-----4--2----------4~----------2-------4--4-4-4--2----4~---------4|
D:-------4~-----4--2----------2~------2---2-------4--4-4-4--2----2~---------4|
A:-------2~-----2--0----------2~------2---0-------2--2-2-2--0----2~---------2|
E:----------------------------0~------0--------------------------0~----------|




"Loud I wanna hear it loud" "..no compromise"
e:--------------------------------------------------------3~-----2~----------|
B:--------------------------------------------------------3~-----3~----------|
G:~------4--2---------4~----------2-------4--4-4-4--2-----0~-----2~----4~----|
D:~------4--2---------2~-----2----2-------4--4-4-4--2-----0~-----0~----2~----|
A:~------2--0---------2~-----2----0-------2--2-2-2--0-----x------------2~----|
E:--------------------0~-----0----------------------------3~-----------0~----|




interlude "Hey ay ay AY AY..etc"
e:|----------------------------------------------2-2---2------------2--------|
B:|----------------------------------------------3-3---3------------3--------|
G:|---------------------2-2----------------------2-2---2------5-----2-----2--|
D:|---------------------2-2----------------------0-0---0------5-----0-----2--|
A:|---------------------0-0-----------------------------------3-----------0--|
E:|-----------------3b-------------------------------------------------------|




repeat
e:------|
B:------|
G:-2-2--|
D:-2-2--|
A:-0-0--|
E:------|




solo w/verse chords
e:---------------------------------------------------------------------------|
B:----------------------7---------9--------10---------9--------7---------5---|
G:----------------------9b(11)----11b(13)--12b(14)----11b(13)--9b(11)----7b(9|
D:---------------------------------------------------------------------------|
A:---------------------------------------------------------------------------|
E:---------------------------------------------------------------------------|





e:-------|
B:---3---|
G:)--5b(7|
D:-------|
A:-------|
E:-------|
Song info
I Love It Loud
KISS
2001
  • Rock
  • Hard Rock
Alternative tracks
Similar songs
Soldier Of Fortune - Thin Lizzy
Nuclear Attack - Gary Moore
Everyday - Bon Jovi
Dirt - Alice in Chains
I Just Want You - Ozzy Osbourne

Hi! Hope you enjoy backing track experience.
If you want to help us in the development of the project, feel free to donate!