Falling Away from Me - Korn
00:00 / 00:00
Tabs and lyrics
Tunning: Standard (E A D G B e)
Song: Falling Away From me
Artist: KoRn
Album: Issues (1999)
Tab By: John Dannar

7 string guitar Arr. for 6 string
Tuned (from low to high) ADGFAD



[Intro]

D|----15--14-(14)---------|------14--14---------|
A|17--------------15------|---------------------|
F|--------------------16--|(16)-----------------|
G|------------------------|---------------------|
D|------------------------|---------------------|
A|------------------------|---------------------|



D|----15--14-(14)---------|------14---------------- 1|-----------------|
A|17--------------15------|-----------14--(14)----- ||-----------------|
F|--------------------16--|(16)--------------------*||9--------9---9---|
G|------------------------|------------------------*||8--------8---8---|
D|------------------------|------------------------ ||----7--7--------7|
A|------------------------|------------------------ ||6---0--0-6---6--0|


[Verse] x2

D|-------- 6|-----------|-------------|| ----15--14-(14)---------|
A|-------- ||-----------|-------------|| 17--------------15------|
F|--------*||9--------9-|--9----------||*--------------------16--|
G|--------*||8--------8-|--8----------||*------------------------|
D|--7---7- ||----7--7---|-----7--7----|| ------------------------|
A|--0---0- ||6---0--0-6-|--6--0--0----|| ------------------------|



D|------14--14---------15-|-14-(14)---------------14-|------------- 1|
A|-----------------17-----|---------15---------------|--14--(14)--- ||
F|(16)--------------------|-------------16--(16)-----|-------------*||
G|------------------------|--------------------------|-------------*||
D|------------------------|--------------------------|------------- ||
A|------------------------|--------------------------|------------- ||
n g. ...

--------- ---------------- ------------------|
D|---------|---------------- 2|-------------------|------|
A|---------|---------------- ||-------------------|------|
F|9--------|9---9-----------*||9--------9-----9---|------|
G|8--------|8---8-----------*||8--------8-----8---|------|
D|----7--7-|-------7--7---7- ||----7--7----------7|------|
A|6---0--0-|6---6--0--0---0- ||6---0--0-6-----6--0|------|


[Chorus]

Beating me down ...... (1:24,2:10,3:33)
D|--------------|----------------|---------------------|
A|--------------|----------------|---------------------|
F|--------------|----------------|---------------------|
G|2-------9-----|--5-------3--3--|--2-------9--------5-|
D|2-------9-----|--5-------3--3--|--2-------9--------5-|
A|0-------7-----|--3-------1--1--|--0-------7--------3-|



D|----------------|----------------|----------------|----------------|
A|----------------|----------------|----------------|----------------|
F|----------------|----------------|----------------|----------------|
G|-------8--8----2|-------9-------5|-------3--3----2|-------9-------5|
D|-------8--8----2|-------9-------5|-------3--3----2|-------9-------5|
A|-------6--6----0|-------7-------3|-------1--1----0|-------7-------3|


.......... Ground.
D|-------------------|-----15--14-(14)--------|-------14--14--------|
A|-------------------|-17--------------15-----|---------------------|
F|-------------------|---------------------16-|-(16)----------------|
G|----(5)-----8-8-8-8|------------------------|---------------------|
D|----(5)-----8-8-8-8|------------------------|---------------------|
A|----(3)-----6-6-6-6|------------------------|---------------------|



D|-----15--14-(14)--------|-------14---------------|----------------||
A|-17--------------15-----|------------14--(14)----|----------------||
F|---------------------16-|-(16)-------------------|----------------||
G|------------------------|------------------------|----------------||
D|------------------------|------------------------|----------------||
A|------------------------|------------------------|----------------||


[Verse 3]

( Falling away...) It's
D|| ----15--14-(14)---------|------14--14---------|
A|| 17--------------15------|---------------------|
F||*--------------------16--|(16)-----------------|
G||*------------------------|---------------------|
D|| ------------------------|---------------------|
A|| ------------------------|---------------------|


Spinning round ... Repeat Chorus..
D|----15--14-(14)---------|------14-------------- 1||----------------|
A|17--------------15------|-----------14--(14)--- |||----------------|
F|--------------------16--|(16)------------------*|||----------------|
G|------------------------|----------------------*|||----------------|
D|------------------------|---------------------- |||----------------|
A|------------------------|---------------------- |||----------------|


Then at (2:26):
D|----------------|----------------|----------------|----------------|
A|----------------|----------------|----------------|----------------|
F|----------------|----------------|----------------|----------------|
G|5---------8--8--|--------2-------|--2---------2---|------2---------|
D|5---------8--8--|--------2-------|--2---------2---|------2---------|
A|3---------6--6--|--------0-------|--0---------0---|------0---------|


[Bridge]

(2:38) Pressing me... ..
D|2--------2------|--2---------2---|---(2)---2--(2)---2-|
A|0--------2------|--3---------5---|---(5)---3--(3)---2-|
F|4--------4------|--2---------1---|---(1)---2--(2)---2-|
G|----------------|----------------|--------------------|
D|----------------|----------------|--------------------|
A|----------------|----------------|--------------------|



D|-2----------2---|--0-------0-----|---0---------0--|----------------|
A|-3----------0---|--2-------0-----|---0---------0--|----0-----------|
F|-0----------4---|--3-------2-----|---0---------0--|----8-----------|
G|----------------|----------------|----------------|----9-----------|
D|----------------|----------------|----------------|----------------|
A|----------------|----------------|----------------|----------------|


Well it's
D|----15--14-(14)---------|------14--14---------|
A|17--------------15------|---------------------|
F|--------------------16--|(16)-----------------|
G|------------------------|---------------------|
D|------------------------|---------------------|
A|------------------------|---------------------|


falling away.....
D|----15--14-(14)---------|------14----------------|
A|17--------------15------|-----------14--(14)-----|
F|--------------------16--|(16)--------------------|
G|------------------------|------------------------|
D|------------------------|------------------------|
A|------------------------|------------------------|


D|----15--14-(14)---------|------14--14---------|
A|17--------------15------|---------------------|
F|--------------------16--|(16)-----------------|
G|------------------------|---------------------|
D|------------------------|---------------------|
A|------------------------|---------------------|


D|----15--14-(14)---------|------14----------------|| ----------------|
A|17--------------15------|-----------14--(14)-----|| ----------------|
F|--------------------16--|(16)--------------------||*9--------9---9--|
G|------------------------|------------------------||*8--------8---8--|
D|------------------------|------------------------|| ----7--7--------|
A|------------------------|------------------------|| 6---0--0-6---6--|


[Chorus]

D|--------- 6|-------|----------------|----------------|
A|--------- ||-------|----------------|----------------|
F|---------*||9------|--9---9---------|----------------|
G|---------*||8------|--8---8---------|----------------|
D|7--7---7- ||----7--|7--------7------|----------------|
A|0--0---0- ||6---0--|0-6---6--0------|----------------|


Then At (3:49) Outro:(3:52)
D|----------------|| ----------------|----------------|----------------|
A|----------------|| ----------------|----------------|----------------|
F|----------------||*----------------|----------------|----------------|
G|-5----------8-8-||*2-------9-------|5-------3--3----|2-------9-------|
D|-5----------8-8-|| 2-------9-------|5-------3--3----|2-------9-------|
A|-3----------6-6-|| 0-------7-------|3-------1--1----|0-------7-------|



D|-------------- 1|----------------|---------------- 1|----------------|
A|-------------- ||0-------0-----0-|----------0----- ||0-----0---------|
F|--------------*||3---3---3-----3-|--3---3---3-----*||3--3--3---------|
G|5-------8--8--*||----------------|----------------*||----------------|
D|5-------8--8-- ||----------------|---------------- ||----------------|
A|3-------6--6-- ||----------------|---------------- ||----------------|



************************************

| (n) Ghost note

************************************
Tunning: Standard (E A D G B e)
KoRn - Falling Away From Me
Issues

Riff A

------15--14----------14------15--14---------14-----
--17----------15----------17----------15---------14-
------------------16----------------------16--------
----------------------------------------------------
----------------------------------------------------
----------------------------------------------------
----------------------------------------------------

--14------------------------------------------------
------14-----5-----5-----5-----5------5-------------
----------------------------------------------------
-------------3-----3-----3---------3--3-------------
----------------------------------------------------
----------------------------------------------------
----------------------------------------------------

Riff 2

----------------------------------------------------------
----------------------------------------------------------
----------------------------------------------------------
------3--------3-----3----------3--------3-----3----------
------3--------3-----3----------3--------3-----3----------
------1--------1-----1----------1--------1-----1----------
--0------0--0-----0-----0----0-----0--0-----0-----0----0--

--5--------5-------5-------5------------------------
----------------------------------------------------
--3--------3-------3-------3------------------------
----------------------------------------------------
----------------------------------------------------
----------------------------------------------------
----------------------------------------------------

----------------------------------------------------------
----------------------------------------------------------
----------------------------------------------------------
------3--------3-----3----------3--------3-----3----------
------3--------3-----3----------3--------3-----3----------
------1--------1-----1----------1--------1-----1----------
--0------0--0-----0-----0----0-----0--0-----0-----0----0--

Verse

----------------------------------------------------
--11--(11)---(11)---(11)---(11)---(11)---(11)-------
----------------------------------------------------
----------------------------------------------------
----------------------------------------------------
----------------------------------------------------
--------------------------------------------------0-

Your flirting with suicide Sometimes thats ok
I flirted with suicide Sometimes kill the pain

Do what others say Im here standing hollow
I can't always say Its gonna be better tomorrow

Falling away from me Beating me down, beating me

----------------------------------------------------
----------------------------------------------------
--3--------(3)--------3--------(3)------------------
----------------------------------------------------
----------------------------------------------------
----------------------------------------------------
----------------------------------------------------
b5 f#5 d5 f5 b5 f#5
----------------------------------------------------
------1---------------1-----------------------------
------2---------------2-----------------------------
--4---2---3-------4---2-----------------------------
--4---3---3---3---4---3-----------------------------
--2---0---1---3---2---0-----------------------------
----------1---1-------------------------------------

Chorus

Beating me down Into the ground Screaming so sound
Beating me Beating me down Down, into the ground

d5 c5 b5 f#5 d5 f5
----------------------------------------------------
-------1-------1------------------------------------
-------x-------2------------------------------------
---3---3---4---2---3--------------------------------
---3---3---4---3---3---3----------------------------
---1---1---2---0---1---3----------------------------
---1---x-----------1---1----------------------------

Riff C

bm f bm7 bm6 gmaj7
----------------------------------------------------
-------1---2---4---3--------------------------------
---2---1---3---4---0--------------------------------
---3---2---4---4---0--------------------------------
---4---3---4---4---0--------------------------------
---2---3---0---x---2--------------------------------
---2---1---x---x---2--------------------------------

Trust in me Then walk away

bm f bm7 f5
----------------------------------------------------
--------1----2----------------------------------------
---2----1----3-----------------------------------------
---3----2----4-----------------------------------------
---4----3----4----3-------------------------------------
---2----3----0----3-------------------------------------
---2----1----x----1-------------------------------------

So I pray.... Go.... Away....

Bm
Life's falling away from me Its falling away from me
Lifes falling away
f#5 d5 f5 b5
----------------------------------------------------
---------2------------------------------------------
----b5---2------------------------------------------
---------2----3-------------------------------------
----4----3----3----3-----4--------------------------
----4----0----1----3-----4--------------------------
----2---------1----1-----2--------------------------

Outro

Beating me down Into the ground

----------------------------------------------------
----------------------------------------------------
--3--------(3)-------3--------(3)-------3------(3)--
----------------------------------------------------
----------------------------------------------------
----------------------------------------------------
----------------------------------------------------

The chords and the small solo parts are sometimes played at the same time - listen to the
song to work it out.
JINX
Tunning: Standard (E A D G B e)
band-korn
song-falling away from me


Intro & Refrain:

d|----15-14--------14--|----15-14--------14-------|
a|--17------15---------|-17--------15--------14---|
F|--------------16-----|--------------16----------|
C|---------------------|--------------------------| (Guitar2)
G|---------------------|--------------------------|
D|---------------------|--------------------------|
A|---------------------|--------------------------|

Verse:(Guitar1 & Guitar2)

d|------------------------|
a|------------------------|
F|------------------------|
C|------------------------|
G|---14-----14-----14-----|
D|---14-----14-----14-----|
A|-0-13-0---13-0-0-13-0-0-|

Refrain:

d|----15-14--------14----|----15-14--------14--------|
a|--17------15-----------|-17--------15--------14----|
F|--------------16-------|--------------16-----------|
C|-----------------------|---------------------------| (Guitar2)
G|-----------------------|---------------------------|
D|-----------------------|---------------------------|
A|-----------------------|---------------------------|

d|-----------------------|----------------------------|
a|-------------------11%-|-------------------------11%|
F|-----------------------|----------------------------|
C|-----------------------|----------------------------| (Guitar1)
G|-----------------------|----------------------------| Volume pedal
D|-----------------------|----------------------------|
A|-----------------------|----------------------------|

Verse:(Guitar1 & Guitar2)

d|------------------------|
a|------------------------|
F|------------------------|
C|------------------------|
G|---14-----14-----14-----|
D|---14-----14-----14-----|
A|-0-13-0---13-0-0-13-0-0-|

Refrain:

d|----15-14--------14----|----15-14--------14--------|
a|--17------15-----------|-17--------15--------14----|
F|--------------16-------|--------------16-----------|
C|-----------------------|---------------------------| (Guitar2)
G|-----------------------|---------------------------|
D|-----------------------|---------------------------|
A|-----------------------|---------------------------|

d|-----------------------|----------------------------|
a|-------------------11%-|-------------------------11%|
F|-----------------------|----------------------------|
C|-----------------------|----------------------------| (Guitar1)
G|-----------------------|----------------------------| Volume pedal
D|-----------------------|----------------------------|
A|-----------------------|----------------------------|

Chorus:

d|--------------|--------------|
a|--------------|--------------|
F|--------------|--------------|
C|-----4--------|-----4-----5--| (Guitar1)
G|--2--4--5--4--|--2--4--5--5--|
D|--2--2--5--4--|--2--2--5--3--|
A|--0-----3--2--|--0-----3-----|

d|--0--0--0--0--|--0--0--0--0--|
a|--0--0--0--0--|--0--0--0--0--|
F|--3^-3--3^-3--|--3^-3--3^-3--| (Guitar2)
C|--------------|--------------|
G|--------------|--------------|
D|--------------|--------------|
A|--------------|--------------|

Refrain:

d|----15-14--------14----|----15-14--------14--------|
a|--17------15-----------|-17--------15--------14----|
F|--------------16-------|--------------16-----------|
C|-----------------------|---------------------------| (Guitar2)
G|-----------------------|---------------------------|
D|-----------------------|---------------------------|
A|-----------------------|---------------------------|

d|-----------------------|----------------------------|
a|-------------------11%-|-------------------------11%|
F|-----------------------|----------------------------|
C|-----------------------|----------------------------| (Guitar1)
G|-----------------------|----------------------------| Volume pedal
D|-----------------------|----------------------------|
A|-----------------------|----------------------------|

Chorus:

d|--------------|--------------|
a|--------------|--------------|
F|--------------|--------------|
C|-----4--------|-----4-----5--| (Guitar1)
G|--2--4--5--4--|--2--4--5--5--|
D|--2--2--5--4--|--2--2--5--3--|
A|--0-----3--2--|--0-----3-----|

d|--0--0--0--0--|--0--0--0--0--|
a|--0--0--0--0--|--0--0--0--0--|
F|--3^-3--3^-3--|--3^-3--3^-3--| (Guitar2)
C|--------------|--------------|
G|--------------|--------------|
D|--------------|--------------|
A|--------------|--------------|

Bridge:

^= bend and keep bent until *
^ * ^ *
d|-0----0-0-0-----0-0-0-0--0-----0--0--0--0--0-----0---0----|
a|-0----0-0-0-----0-0-0-0--0-----0--0--0--0--0-----0---0----|
F|-3----3-3-3-----3-3-3-3--3-----3--3--3--3--3-----3---3----| (Guitar2)
C|----------------------------------------------------------|
G|----------------------------------------------------------|
D|----------------------------------------------------------|
A|----------------------------------------------------------|

d|-2--2--2---2---2-2-2---2--0--0---0---0---0-|
a|-0--2--3---5---3-2-3---0--2--0---0---0---8-|
F|-4--4--2---1---2-2-0---4--3--2---0---0---9-| (Guitar1)
C|-------------------------------------------|
G|-------------------------------------------|
D|-------------------------------------------|
A|-------------------------------------------|

Refrain:

d|----15-14--------14----|----15-14--------14--------|
a|--17------15-----------|-17--------15--------14----|
F|--------------16-------|--------------16-----------|
C|-----------------------|---------------------------| (Guitar2)
G|-----------------------|---------------------------|
D|-----------------------|---------------------------|
A|-----------------------|---------------------------|

d|--0--0--0--0--|--0--0--0--0--|
a|--0--0--0--0--|--0--0--0--0--|
F|--3^-3--3^-3--|--3^-3--3^-3--| (Guitar1)
C|--------------|--------------|
G|--------------|--------------|
D|--------------|--------------|
A|--------------|--------------|

Verse:(Guitar1 & Guitar2)

d|------------------------|
a|------------------------|
F|------------------------|
C|------------------------|
G|---14-----14-----14-----|
D|---14-----14-----14-----|
A|-0-13-0---13-0-0-13-0-0-|


Chorus:

d|--------------|--------------|
a|--------------|--------------|
F|--------------|--------------|
C|-----4--------|-----4-----5--| (Guitar1)
G|--2--4--5--4--|--2--4--5--5--|
D|--2--2--5--4--|--2--2--5--3--|
A|--0-----3--2--|--0-----3-----|

d|--0--0--0--0--|--0--0--0--0--|
a|--0--0--0--0--|--0--0--0--0--|
F|--3^-3--3^-3--|--3^-3--3^-3--| (Guitar2)
C|--------------|--------------|
G|--------------|--------------|
D|--------------|--------------|
A|--------------|--------------|
Tunning: Standard (E A D G B e)
Tunning Standard
This is a really accurte tab of one of the aol acoustic seesion korn did of falling away
me
Intro:
E---------------------------------------------------------------------------|
A-----3---6---5-------------------------------------------------------------|
D---------------5---2--9----------------------------------------------------|
G---------------------------------------------------------------------------|
B---------------------------------------------------------------------------|
E---------------------------------------------------------------------------|

E---------------------------------------------------------------------------|
A-----3---6---5-------------------------------------------------------------|
D---------------5---2--9--4-------------------------------------------------|
G---------------------------------------------------------------------------|
B---------------------------------------------------------------------------|
E---------------------------------------------------------------------------|

Rate this song it's prett damn good
Shadows_deepest_fears@yahoo.com
Tunning: Standard (E A D G B e)
KoRn - Falling Away From Me - MTV Unplugged

Tabbed by Elvisz (elvisz84@yahoo.com)
Tuning : 6 String Tuned Low to High (D G C F a d)

Vocal: Jonathan Houseman Davis 'Hiv'
Guitar: James Randal Shaffer 'Munky'
Bass: Reginald Arvizu 'Fieldy'

Munky uses a 6 string guitar in this song..

Verse:
d|-----------------------------------------|------------------------------------------|
a|-----------------------------------------|------------------------------------------|
F|----12----12----11----11---7---7---7---7-|----12----12----11----11---7---7----9---9-|
C|-14----14----12----12----9---9---9---9---|-14----14----12----12----9---9---11---11--|
G|-----------------------------------------|------------------------------------------|
D|-----------------------------------------|------------------------------------------|

Chorus:
d|------------------------------------------------------------------------|
a|------------------------------------------------------------------------|
F|------------------------------------------------------------------------|
C|-9-99-9-99\8-88-8-88\7-77-7-77-7-77-7\6---5-55-5-55-4-44-4-44-9-99-9-99-|
G|-9-99-9-99\8-88-8-88\7-77-7-77-7-77-7\6---5-55-5-55-4-44-4-44-9-99-9-99-|
D|-7-77-7-77\6-66-6-66\5-55-5-55-5-55-5\4~--3-33-3-33-2-22-2-22-7-77-7-77-|

Pre-Chorus:
d|-----------------------------------------|------------------------------------------|
a|-----------------------------------------|------------------------------------------|
F|----12----12----11----11---7---7---7---7-|----12----12----11----11---7---7----9---9-|
C|-14----14----12----12----9---9---9---9---|-14----14----12----12----9---9---11---11--|
G|-----------------------------------------|------------------------------------------|
D|-----------------------------------------|------------------------------------------|

Chorus:
d|------------------------------------------------------------------------|
a|------------------------------------------------------------------------|
F|------------------------------------------------------------------------|
C|-9-99-9-99\8-88-8-88\7-77-7-77-7-77-7\6---5-55-5-55-4-44-4-44-9-99-9-99-|
G|-9-99-9-99\8-88-8-88\7-77-7-77-7-77-7\6---5-55-5-55-4-44-4-44-9-99-9-99-|
D|-7-77-7-77\6-66-6-66\5-55-5-55-5-55-5\4~--3-33-3-33-2-22-2-22-7-77-7-77-|

Bridge1:(this part was corrected by luis_baroni@hotmail.com, so i would like to thank
here for his correction)
d|-7--7---7---7---7---7---7---7---7---7----|
a|--0---0---0---0---0---0---0---0---0---0--|
F|-----------------------------------------| (Guitar2)
C|-----------------------------------------|
G|-----------------------------------------|
D|-----------------------------------------|

d|---------------------------------------------------------------------------------------------|
a|---------------------------------------------------------------------------------------------|
F|---------------------------------------------------------------------------------------------|
C|--------------------------------------------------14-------14-------------12-----12----------|
G|----5----5----7----7----9-----9-----9-----9-----14-------14-----14------12-----12------12----|
D|-7----7----9----9----10----10----10----10-----12-------12-----12------10-----10------10------|

Bridge2:
d|-----------------|
a|-----------------|
F|-10---10---10----|
C|- 9--- 9--- 9----|
G|- 8--- 8--- 8----|
D|----7----7----77-|

Chorus:
d|------------------------------------------------------------------------|
a|------------------------------------------------------------------------|
F|------------------------------------------------------------------------|
C|-9-99-9-99\8-88-8-88\7-77-7-77-7-77-7\6---5-55-5-55-4-44-4-44-9-99-9-99-|
G|-9-99-9-99\8-88-8-88\7-77-7-77-7-77-7\6---5-55-5-55-4-44-4-44-9-99-9-99-|
D|-7-77-7-77\6-66-6-66\5-55-5-55-5-55-5\4~--3-33-3-33-2-22-2-22-7-77-7-77-|
Tunning: Standard (E A D G B e)
KoRn - Falling Away From Me - MTV Unplugged

Tabbed by Changui
Tuning : Standard (E A D G B e)

Vocal: Jonathan Houseman Davis 'Hiv'
Guitar: James Randal Shaffer 'Munky'
Bass: Reginald Arvizu 'Fieldy'

Munky uses a 6 string guitar Tuned Low to High (D G C F a d) in this song...

This is basically the adapted version on standard Tuning of Elvisz' (elvisz84@yahoo.com) Tab
plus arrangement for the guitar of the Xilophone and the Piano

Verse:

Xilophon:
e|-10-13-12-------12---10-13-12-------12---|-10-13-12-------12---10-13-12-------12----|
B|----------13-10---------------13-10----12|----------13-10---------------13-10----12-|
G|-----------------------------------------|------------------------------------------|
D|-----------------------------------------|------------------------------------------|
A|-----------------------------------------|------------------------------------------|
E|-----------------------------------------|------------------------------------------|

Piano:
e|-----------------------------------------|------------------------------------------|
B|-----------------------------------------|------------------------------------------|
G|--7-10-9------9-------7-10-9------9------|--7-10-9------9-------7-10-9------9-------|
D|---------10-7----------------10-7---9----|---------10-7----------------10-7---9-----|
A|-----------------------------------------|------------------------------------------|
E|-----------------------------------------|------------------------------------------|

Guitar:
e|-----------------------------------------|------------------------------------------|
B|---6----6----5----5----1----1----1----1--|---6----6----5----5----1----1----2----2---|
G|-7----7----5----5----2----2----2----2----|-7----7----5----5----2----2----4----4-----|
D|-----------------------------------------|------------------------------------------|
A|-----------------------------------------|------------------------------------------|
E|-----------------------------------------|------------------------------------------|

Chorus:
e|------------------------------------------------------------------------|
B|------------------------------------------------------------------------|
G|------------------------------------------------------------------------|
D|-7-77-7-77\6-66-6-66\5-55-5-55-5-55-5\4---3-33-3-33-2-22-2-22-7-77-7-77-|
A|-7-77-7-77\6-66-6-66\5-55-5-55-5-55-5\4---3-33-3-33-2-22-2-22-7-77-7-77-|
E|-5-55-5-55\4-44-4-44\3-33-3-33-3-33-3\2~--1-11-1-11-0-00-0-00-5-55-5-55-|

Verse:
e|-----------------------------------------|------------------------------------------|
B|---6----6----5----5----1----1----1----1--|---6----6----5----5----1----1----2----2---|
G|-7----7----5----5----2----2----2----2----|-7----7----5----5----2----2----4----4-----|
D|-----------------------------------------|------------------------------------------|
A|-----------------------------------------|------------------------------------------|
E|-----------------------------------------|------------------------------------------|

Chorus:
e|------------------------------------------------------------------------|
B|------------------------------------------------------------------------|
G|------------------------------------------------------------------------|
D|-7-77-7-77\6-66-6-66\5-55-5-55-5-55-5\4---3-33-3-33-2-22-2-22-7-77-7-77-|
A|-7-77-7-77\6-66-6-66\5-55-5-55-5-55-5\4---3-33-3-33-2-22-2-22-7-77-7-77-|
E|-5-55-5-55\4-44-4-44\3-33-3-33-3-33-3\2~--1-11-1-11-0-00-0-00-5-55-5-55-|

Bridge1:(this part was corrected by luis_baroni@hotmail.com, so i would like to thank
here for his correction)
e|-5--5---5---5---5---5---5---5---5---5----|
B|-----------------------------------------|
G|--2---2---2---2---2---2---2---2---2---2--| (Guitar2)
D|-----------------------------------------|
A|-----------------------------------------|
E|-----------------------------------------|

e|---------------------------------------------------------------------------------------------|
B|---------------------------------------------------------------------------------------------|
G|---------------------------------------------------------------------------------------------|
D|------------------------------------------------12--------12---------------10-------10-------|
A|---3----3----5----5----7----7----7----7------12--------12--------12-----10-------10-------10-|
E|-5----5----7----7----8----8----8----8-----10--------10--------10------8--------8--------8----|

Bridge2:
e|-----------------|
B|-----------------|
G|--8----8----8----|
D|--7----7----7----|
A|--6----6----6----|
E|----5----5----55-|

Chorus:
e|------------------------------------------------------------------------|
B|------------------------------------------------------------------------|
G|------------------------------------------------------------------------|
D|-7-77-7-77\6-66-6-66\5-55-5-55-5-55-5\4---3-33-3-33-2-22-2-22-7-77-7-77-|
A|-7-77-7-77\6-66-6-66\5-55-5-55-5-55-5\4---3-33-3-33-2-22-2-22-7-77-7-77-|
E|-5-55-5-55\4-44-4-44\3-33-3-33-3-33-3\2~--1-11-1-11-0-00-0-00-5-55-5-55-|
Song info
Falling Away from Me
Korn
2001
  • Electronic
  • Rock
  • Breakbeat
  • Nu Metal
Alternative tracks
Similar songs
Getting Off - Korn
Love Song - Korn
Sugar - System of a down
Broken Home - Papa Roach

Hi! Hope you enjoy backing track experience.
If you want to help us in the development of the project, feel free to donate!