Freak On A Leash - Korn
00:00 / 00:00
Tabs and lyrics
Tunning: D tuning (D G C F A D)
GUITAR TABLATURE ONLINE

URL: www.angelfire.com/bc/tablature
EMAIL: tablature@canada.com

----------------------------------------------------------------------------------

SONG: Freak On A Leash
BAND: Korn
ALBUM: Follow the Leader
TRANSCRIBED BY: Paul De Jaegher
DATE: August 22, 1999

----------------------------------------------------------------------------------

TUNING: tune your guitar down one full step (D,G,C,F,A,D)


INTRO/VERSE GUITAR 1:

D|-----------19--------------------------------------|
A|--17-----------18----------------------------------|
F|---------------------------------------------------|
C|---------------------------------------------------|
G|---------------------------------------------------|
D|---------------------------------------------------|

INTRO/VERSE GUITAR 2:

D|-----------------------------------24--------------|
A|-----------------------------22--------------------|
F|--------------------------22-----------------------|
C|---------------------------------------------------|
G|---------------------------------------------------|
D|---------------------------------------------------|

PRE-CHORUS:

D|------------------------------------------------------|
A|------------------------------------------------------|
F|--13/14\13-----13-----------13/14\13----13---------0--|
C|---x------------x------------x-----------x------------|
G|--11/12\11-----11-----------11/12\11----11-----8------|
D|---0--------0----------------0--------0---------------|

CHORUS:

D|--0--0--0--0--0--0--0--0---------------------|
A|--4--4--4--4--4--4--4--4-----------0------0--|
F|--4--4--4--4--4--4--4--4--3--3--3--4------2--|
C|--4--4--4--4--4--4--4--4--4--4--4--5------3--|
G|--2--2--2--2--2--2--2--2--4--4--4--5------3--|
D|--------------------------2--2--2--3------1--|

INTERLUDE: (where jon does his jibberish shit)

D|--10--10---10--10-9-10-9--|
A|--------------------------|
F|--------------------------|
C|--------------------------|
G|--------------------------|
D|--------------------------|

BRIDGE: (really heavy part)

D|-----------------|
A|-----------------|
F|-----------------|
C|-----------------|
G|--4---5---6---7--|
D|--4---5---6---7--|
Tunning: D tuning (D G C F A D)
Artist: Korn
Song: Freak on a leash
Albun: Follow The Leaders
By: Sepultura5000@Hotmail.com


==========
| Tuning |
==========

Seven String guitar tuned down one whole step.

Standard To Play This Song
7 string B A
6 string E D
5 string A G
4 string D C
3 string G F
2 string B A
1 string E D


============
| Notation |
============

/ = Slide Up
\ = Slide Down
P.M. = Palm Mute
x = Stop sound (Not a mute in this tab)
h = Hammer On
p = Pull Off

==================================
| Intro / Verse (Without Drums)* |
==================================

Riff A
Munky Head
D||--------19------||---------24----||
A||-17--------18---||-----22--------||
F||----------------||-21------------||
C||----------------||---------------||
G||----------------||---------------||
D||----------------||---------------||
A||----------------||---------------||

*You play this during the first verse BEFORE the drums come in. Also, when Munky hits
the High A 18th fret note, Head starts his little part of this riff. Then, when Head hits
the High D 24TH fret note, Munky starts his part of this riff.

=======================
| Verse (With Drums)* |
=======================

Riff B
Munky Head
D||---------18------||---------24-||
A||-17--------*19---||-----22-----||
F||-----------------||-21---------||
C||-----------------||------------||
G||-----------------||------------||
D||-----------------||------------||
A||-----------------||------------||
*-To get this note to
sound like Munky does
use a Flanger set to
vibrato (I just turn all
the way clock-wise.)

*These Riffs are only done when David plays the verse with the band

=============
| Pre Chorus |
=============

Riff C
Munky & Head
D||----------------------------------------||
A||----------------------------------------||
F||-13/-14\-13---13---13/-14\-13---13--10--||
C||----------------------------------------||
G||-11/-12\-11---11---11/-12\-11---11---8--||
D||------------0-----------------0---------||
A||----------------------------------------||

Riff D
Munky & Head
D||-------------------||
A||-------------------||
F||-13/-14\-13---13---||
C||-------------------||
G||-11/-12\-11---11---||
D||------------0------||
A||-------------------||

==========
| Chorus |
==========

Riff E
Munky & Head
D||------------------------------||
A||------------------------------||
F||------------------------------||
C||-9-9-9-9-9-9-9-9--------------||
G||-9-9-9-9-9-9-9-9-9-9-9-10--8--||
D||-7-7-7-7-7-7-7-7-9-9-9-10--8--||
A||-----------------7-7-7--8--6--||

==========
| Bridge |
==========

Riff F
Munky & Head
D||----------10-10------------10-10p9h10p9--||
A||-----------------------------------------||
F||-----------------------------------------||
C||-----------------------------------------||
G||-----------------------------------------||
D||----9--9-----------9--9------------------||
A||-----------------------------------------||

Riff G
Munky or Head (One keeps playing Riff F)
D||----------10-10------------10-10p9h10p9--||
A||-----------------------------------------||
F||-----------------------------------------||
C||-----------------------------------------||
G||-----------------------------------------||
D||----9--9-----------9--9------------------||
A||-----------------------------------------||
Play these notes
with the Flanger
the same way you
used it in Riff B.

Riff H
Munky & Head
D||----------------||
A||----------------||
F||----------------||
C||----------------||
G||-4-5-6-7--------||
D||-4-5-6-7--------||
A||-2-3-4-5--------||

Riff I
Munky & Head
D||-------------||
A||-------------||
F||-------------||
C||-------------||
G||-4-5-4-3-----||
D||-4-5-4-3-----||
A||-2-3-2-1-----||

===============
| Last Chorus |
===============

Riff J
Munky & Head
D||---------------------------||
A||---------------------------||
F||---------------------------||
C||-9-9---9---9-9-9-9---------||
G||-9-9---9---9-9-9-9-9-10-8--||
D||-7-7---7---7-7-7-7-9-10-8--||
A||-------------------7--8-6--||

Riff K
Munky or Head
D||--7---------/19----\7--|---------8-----5--||
A||-----------------------|------------------||
F||-----------------------|------------------||
C||-----------------------|------------------||
G||-----------------------|------------------||
D||-----------------------|------------------||
A||-----------------------|------------------||

==========================
| Song Order with Lyrics |
==========================

Intro: Riff A X5

With: Riff A X2
Something takes a part of me.
Something lost and never seen.

With Riff B X7
Everytime I start to believe,
Something's raped and taken from me... from me
Life's got to always be messing with me (You wanna see the light)
Can't they chill and let me be free (So do I)
Can't I take away all this pain (You wanna see the light
I try to every night, all in vain... in vain

With: Riff C X3
Sometimes I cannot take this place.
Sometimes it's my life I can't taste.
Sometimes I cannot feel my face.

With: Riff D X1
You'll never see fall from grace

With: Riff E X4
Something takes a part of me.
You and I were meant to be.
A cheap fuck for me to lay
Something takes a

No guitar here: part of me.

With: Riff B X4
Feeling like a freak on a leash. (You wanna see the light)
Feeling like I have no release. (So do I)
How many times have I felt diseased? (You wanna see the light)
Nothing in my life is free... is free

With: Riff C X4
Sometimes I cannot take this place.
Sometimes it's my life I can't taste.
Sometimes I cannot feel my face.

With Riff D X1
You'll never see fall from grace

With: Riff E X4
Something takes a part of me.
You and I were meant to be.
A cheap fuck for me to lay
Something takes a

No Guitar here: part of me.

No Guitar Here:
Boom na da mmm dum na ema
Da boom na da mmm dum na ema
Da boom na da mmm dum na ema
Da boom na da mmm dum na ema

With: Riff F X1
Da boom na da mmm dum na ema

With: Riff G X1
Da boom na da mmm dum na ema

With: Riff F X1
Da boom na da mmm dum na ema

With: Riff G X1
Da boom na da mmm dum na ema

With: Riff F X1
Da boom na da mmm dum na ema

With: Riff G X1
Da boom na da mmm dum na ema

With: Riff F X1
Da boom na da mmm dum na ema

With: Riff G X1
Da boom na da mmm dum na ema

With: No guitar: GO!

Riff H X3
Riff I X1

With: Riff H X3
So... fight! something on the...
Fight... some things they fight
So... something on the...

With: Riff I X1
Fight... some things they fight

With: Riff H X3
Fight... something of the
No... some things they fight
Fight... something of the...

With: Riff I X1
Fight... some things they fight

With: Riff J X4
Something takes a part of me.
You and I were meant to be.
A cheap fuck for me to lay
Something takes a part of me.

With: Riff K (Space Noise) and Riff J X4
Part of me...
Part of me...
Part of me...
Oh...
Tunning: Standard (E A D G B e)
BAND : KORN
ALBUM : FOLLOW THE LEADER
SONG : FREAK ON A LEASH
TRACK : 14
TIME : 4:18
TABBED: GABRIEL ROMERO

DROPPED D TUNNING

TAB LEGEND:
~ VIBRATO
@ TREMOLO BAR
h HAMMER ON
p PULL OFF
/ GUITARS DON'T PLAY
:: TREMOLO PICKING

INTRO:
e------------------------------------------------------------22~~~~~-----
B----------------22~~~-------16~~~-------16~~~~----20~~~~~~--------------
G----19~~~~~-------------------------------------------------------------
D------------------------------------------------------------------------
A------------------------------------------------------------------------
E------------------------------------------------------------------------
|
e------------------------17@-@-@-@-@-@-@---------------------------------
B------------------------------------------------------------------------
G------------------------------------------------------------------------
D------------------------------------------------------------------------
A------------------------------------------------------------------------
E------------------------------------------------------------------------

e----------------------------------------------------22~~~~~~~-----------
B----22~~~~~~----16~~~~~~~----16~~~~~~~----20~~~~~~~~~~------------------
G------------------------------------------------------------------------
D------------------------------------------------------------------------
A------------------------------------------------------------------------
E------------------------------------------------------------------------
|
e---------------17-@-@-@-@-@-@-@-----------------------------------------
B------------------------------------------------------------------------
G------------------------------------------------------------------------
D------------------------------------------------------------------------
A------------------------------------------------------------------------
E------------------------------------------------------------------------
FIRST AND SECOND VERSE:
e-------------------------------------------------------22~~~~~~~--------
B----22~~~~~~----16~~~~~~~----16~~~~~~~----20~~~~~~~~~~------------------
G------------------------------------------------------------------------
D------------------------------------------------------------------------
A------------------------------------------------------------------------
E------------------------------------------------------------------------
|
e---------------17-@-@-@-@-@-@-@-----------------------------------------
B------------------------------------------------------------------------
G------------------------------------------------------------------------
D------------------------------------------------------------------------
A------------------------------------------------------------------------
E------------------------------------------------------------------------
FIRST AND SECOND VERSE
e----------------------------------------------------22~~~~~~~-----------
B----22~~~~~~----16~~~~~~~----16~~~~~~~----20~~~~~~~~~~------------------
G------------------------------------------------------------------------
D------------------------------------------------------------------------
A------------------------------------------------------------------------
E------------------------------------------------------------------------
|
e---------------17-@-@-@-@-@-@-@-----------------------------------------
B------------------------------------------------------------------------
G------------------------------------------------------------------------
D------------------------------------------------------------------------
A------------------------------------------------------------------------
E------------------------------------------------------------------------
1.Something takes apart

e----------------------------------------------------22~~~~~~~-----------
B----22~~~~~~----16~~~~~~~----16~~~~~~~----20~~~~~~~~~~------------------
G------------------------------------------------------------------------
D------------------------------------------------------------------------
A------------------------------------------------------------------------
E------------------------------------------------------------------------
of me_______ Something last and ne-

e----------------------------------------------------22~~~~~~~-----------
B----22~~~~~~----16~~~~~~~----16~~~~~~~----20~~~~~~~~~~------------------
G------------------------------------------------------------------------
D------------------------------------------------------------------------
A------------------------------------------------------------------------
E------------------------------------------------------------------------
|
e------------------------------------------------------------------------
B--------------16@@@@@@@@@@@@@-------------------------------------------
G------------------------------------------------------------------------
D------------------------------------------------------------------------
A------------------------------------------------------------------------
E------------------------------------------------------------------------
ver see______n Every time I'm sad

e----------------------------------------------------22~~~~~~~-----------
B----22~~~~~~----16~~~~~~~----16~~~~~~~----20~~~~~~~~~~------------------
G------------------------------------------------------------------------
D------------------------------------------------------------------------
A------------------------------------------------------------------------
E------------------------------------------------------------------------
|
e------------------------------------------------------------------------
B--------------16@@@@@@@@@@@@@-------------------------------------------
G------------------------------------------------------------------------
D------------------------------------------------------------------------
A------------------------------------------------------------------------
E------------------------------------------------------------------------
of belive______ Something is break and taken

e----------------------------------------------------22~~~~~~~-----------
B----22~~~~~~----16~~~~~~~----16~~~~~~~----20~~~~~~~~~~------------------
G------------------------------------------------------------------------
D------------------------------------------------------------------------
A------------------------------------------------------------------------
E------------------------------------------------------------------------
|
e------------------------------------------------------------------------
B--------------16@@@@@@@@@@@@@-------------------------------------------
G------------------------------------------------------------------------
D------------------------------------------------------------------------
A------------------------------------------------------------------------
E------------------------------------------------------------------------
from me, from me Life got a house been
2.Feeling like a freak

e----------------------------------------------------22~~~~~~~-----------
B----22~~~~~~----16~~~~~~~----16~~~~~~~----20~~~~~~~~~~------------------
G------------------------------------------------------------------------
D------------------------------------------------------------------------
A------------------------------------------------------------------------
E------------------------------------------------------------------------
|
e------------------------------------------------------------------------
B--------------16@@@@@@@@@@@@@-------------------------------------------
G------------------------------------------------------------------------
D------------------------------------------------------------------------
A------------------------------------------------------------------------
E------------------------------------------------------------------------
me send with me Can't touch and they lent
on a leash Feeling like a have

e----------------------------------------------------22~~~~~~~-----------
B----22~~~~~~----16~~~~~~~----16~~~~~~~----20~~~~~~~~~~------------------
G------------------------------------------------------------------------
D------------------------------------------------------------------------
A------------------------------------------------------------------------
E------------------------------------------------------------------------
|
e------------------------------------------------------------------------
B--------------16@@@@@@@@@@@@@-------------------------------------------
G------------------------------------------------------------------------
D------------------------------------------------------------------------
A------------------------------------------------------------------------
E------------------------------------------------------------------------
be free_____ Can't thought take all away
no a leash How many times does I feel

e----------------------------------------------------22~~~~~~~-----------
B----22~~~~~~----16~~~~~~~----16~~~~~~~----20~~~~~~~~~~------------------
G------------------------------------------------------------------------
D------------------------------------------------------------------------
A------------------------------------------------------------------------
E------------------------------------------------------------------------
|
e------------------------------------------------------------------------
B--------------16@@@@@@@@@@@@@-------------------------------------------
G------------------------------------------------------------------------
D------------------------------------------------------------------------
A------------------------------------------------------------------------
E------------------------------------------------------------------------
this pai____n I try to every night
disea___s Nothing in my life

e----------------------------------------------------22~~~~~~~-----------
B----22~~~~~~----16~~~~~~~----16~~~~~~~----20~~~~~~~~~~------------------
G------------------------------------------------------------------------
D------------------------------------------------------------------------
A------------------------------------------------------------------------
E------------------------------------------------------------------------
|
e------------------------------------------------------------------------
B--------------16@@@@@@@@@@@@@-------------------------------------------
G------------------------------------------------------------------------
D------------------------------------------------------------------------
A------------------------------------------------------------------------
E------------------------------------------------------------------------
all in vain, in vain
is free is free

BRIDGE:
e------------------------------------------------------------------------
B------------------------------------------------------------------------
G------------------------------------------------------------------------
D---4h5p4--------4--------4h5p4--------4---------4h5p4---------4---------
A------------5-------5-------------5--------5-------------5---------5----
E------------------------------------------------------------------------
|
e------------------------------------------------------------------------
B------------------------------------------------------------------------
G---------------------------------------------8@@@@@@@@@bg@@@@@@@@@@@@/9@
D------------------------------------------------------------------------
A------------------------------------------------------------------------
E------------------------------------------------------------------------
Sometimes I cannot take this place, sometimes it's

e------------------------------------------------------------------------
B------------------------------------------------------------------------
G------------------------------------------------------------------------
D---4h5p4---------4---------4h5p4---------4---------4h5p4---------4------
A------------5---------5-------------5---------5-------------5---------5-
E------------------------------------------------------------------------
|
e------------------------------------------------------------------------
B------------------------------------------------------------------------
G@@@@@@@@@/8@@@@@@@@@@@@@------------------------------------------------
D------------------------------------------------------------------------
A------------------------------------------------------------------------
E------------------------------------------------------------------------
my life I can taste Sometimes I cannot fill my face

e------------------------------------------------------------------------
B------------------------------------------------------------------------
G------------------------------------------------------------------------
D---0--------------------------------------------------------------------
A---0--------------------------------------------------------------------
E------------------------------------------------------------------------
you'll never see me fall from grace

CHORUS: (SAME FOR TWO GUITARS)
e------------------------------------------------------------------------
B------------------------------------------------------------------------
G------------------------------------------------------------------------
D---7--7--7-X-X-X-X--7--7---2--2-X-X-X-X---5--5--7--7--7-X-X-X-X--7--7---
A---7--7--7-X-X-X-X--7--7---2--2-X-X-X-X---5--5--7--7--7-X-X-X-X--7--7---
E---7--7--7-X-X-X-X--7--7---2--2-X-X-X-X---5--5--7--7--7-X-X-X-X--7--7---
Something takes apa____rt of me_________.

e------------------------------------------------------------------------
B------------------------------------------------------------------------
G------------------------------------------------------------------------
D---2--2-X-X-X-X---5--5--7--7--7-X-X-X-X--7--7---2--2-X-X-X-X---5--5-----
A---2--2-X-X-X-X---5--5--7--7--7-X-X-X-X--7--7---2--2-X-X-X-X---5--5-----
E---2--2-X-X-X-X---5--5--7--7--7-X-X-X-X--7--7---2--2-X-X-X-X---5--5-----
You_ a_____nd I__would meet at me________. I___ shi__t fucks for

e------------------------------------------------------------------------
B------------------------------------------------------------------------
G------------------------------------------------------------------------
D---7--7--7-X-X-X-X--7--7---2--2-X-X-X-X---5--5-X-5-7--------------------
A---7--7--7-X-X-X-X--7--7---2--2-X-X-X-X---5--5-X-5-7--------------------
E---7--7--7-X-X-X-X--7--7---2--2-X-X-X-X---5--5-X-5-7--------------------
me___ to__ lai______. Something takes apart of me____________.

BRIDGE 2:

GUITAR///////////////////////////////////////////////////////////////////

Pu_mmmna__hatammmm nanainma___ Ta Pu_mmmna__hatammmm nanainma___

GUITAR///////////////////////////////////////////////////////////////////

Ta Pu_mmmna__hatammmm nanainma___ Ta Pu_mmmna__hatammmm nanainma___

e----------8---8--------8-----8---------------8---8----8-----8::---------
B------------------------------------------------------------------------
G-----4----------4----4----4-----4-------4----------4----4---------------
D------------------------------------------------------------------------
A------------------------------------------------------------------------
E------------------------------------------------------------------------
Ta Pu_mmmna__hatammmm nanainma___ Ta Pu_mmmna__hatammmm nanainma___

e----------8---8--------8-----8---------------8---8----8-----8::---------
B------------------------------------------------------------------------
G-----4----------4----4----4-----4-------4----------4----4---------------
D------------------------------------------------------------------------
A------------------------------------------------------------------------
E------------------------------------------------------------------------
Ta Pu_mmmna__hatammmm nanainma___ Ta Pu_mmmna__hatammmm nanainma___

e----------8---8--------8-----8---------------8---8----8----8------------
B------------------------------------------------------------------------
G-----4----------4----4----4-----4-------4----------4--------------------
D------------------------------------------------------------------------
A------------------------------------------------------------------------
E------------------------------------------------------------------------
Ta Pu_mmmna__hatammmm nanainma___ Ta Pu_mmmna__hatammmm nanai GO___

VERSE 3:
e------------------------------------------------------------------------
B------------------------------------------------------------------------
G------------------------------------------------------------------------
D--9---10---12--12---9---10---12--12---9---10---12--12---9---10---12--12-
A--9---10---12--12---9---10---12--12---9---10---12--12---9---10---12--12-
E--9---10---12--12---9---10---12--12---9---10---12--12---9---10---12--12-

e------------------------------------------------------------------------
B------------------------------------------------------------------------
G------------------------------------------------------------------------
D---9----10----12---12----9---10---12---12----9----10----12---12---------
A---9----10----12---12----9---10---12---12----9----10----12---12---------
E---9----10----12---12----9---10---12---12----9----10----12---12---------
Tso foysomlimnanamina foy somesingdepoy Tso foysomlinanamina

e------------------------------------------------------------------------
B------------------------------------------------------------------------
G------------------------------------------------------------------------
D---9----10---12---12----9---10---12---12----9----10----12---12----------
A---9----10---12---12----9---10---12---12----9----10----12---12----------
E---9----10---12---12----9---10---12---12----9----10----12---12----------
foy somesingdepoy foy__somlinanamina Ahhhh somesingdepoy

e---------------------------------------------
B---------------------------------------------
G---------------------------------------------
D---9----10----12---12----9---10---12---12----
A---9----10----12---12----9---10---12---12----
E---9----10----12---12----9---10---12---12----
foy somlinanamina foy somesingdepoy

OUTRO:
e------------------------------------------------------------------------
B------------------------------------------------------------------------
G------------------------------------------------------------------------
D---7--7--7-X-X-X-X--7--7---2--2-X-X-X-X---5--5--7--7--7-X-X-X-X--7--7---
A---7--7--7-X-X-X-X--7--7---2--2-X-X-X-X---5--5--7--7--7-X-X-X-X--7--7---
E---7--7--7-X-X-X-X--7--7---2--2-X-X-X-X---5--5--7--7--7-X-X-X-X--7--7---
Something takes apa____rt of me_________.

e------------------------------------------------------------------------
B------------------------------------------------------------------------
G------------------------------------------------------------------------
D---2--2-X-X-X-X---5--5--7--7--7-X-X-X-X--7--7---2--2-X-X-X-X---5--5-----
A---2--2-X-X-X-X---5--5--7--7--7-X-X-X-X--7--7---2--2-X-X-X-X---5--5-----
E---2--2-X-X-X-X---5--5--7--7--7-X-X-X-X--7--7---2--2-X-X-X-X---5--5-----
You_ a_____nd I__would meet at me________. I___ shi__t fucks for

e------------------------------------------------------------------------
B------------------------------------------------------------------------
G------------------------------------------------------------------------
D---7--7--7-X-X-X-X--7--7---2--2-X-X-X-X---5--5--7--7--7-X-X-X-X--7--7---
A---7--7--7-X-X-X-X--7--7---2--2-X-X-X-X---5--5--7--7--7-X-X-X-X--7--7---
E---7--7--7-X-X-X-X--7--7---2--2-X-X-X-X---5--5--7--7--7-X-X-X-X--7--7---
me___ to__ lai______. Something takes apart of me___________________

e------------------------------------------------------------------------
B------------------------------------------------------------------------
G------------------------------------------------------------------------
D---2--2-X-X-X-X---5--5--7--7--7-X-X-X-X--7--7---2--2-X-X-X-X---5--5-----
A---2--2-X-X-X-X---5--5--7--7--7-X-X-X-X--7--7---2--2-X-X-X-X---5--5-----
E---2--2-X-X-X-X---5--5--7--7--7-X-X-X-X--7--7---2--2-X-X-X-X---5--5-----
___________________ apart of me____________________________________

e------------------------------------------------------------------------
B------------------------------------------------------------------------
G------------------------------------------------------------------------
D---7--7--7-X-X-X-X--7--7---2--2-X-X-X-X---5--5--7--7--7-X-X-X-X--7--7---
A---7--7--7-X-X-X-X--7--7---2--2-X-X-X-X---5--5--7--7--7-X-X-X-X--7--7---
E---7--7--7-X-X-X-X--7--7---2--2-X-X-X-X---5--5--7--7--7-X-X-X-X--7--7---
apart of me_________________________________ apart of me____________

e------------------------------------------------------------------------
B------------------------------------------------------------------------
G------------------------------------------------------------------------
D---2--2-X-X-X-X---5--5--7--7--7-X-X-X-X--7--7---------------------------
A---2--2-X-X-X-X---5--5--7--7--7-X-X-X-X--7--7---------------------------
E---2--2-X-X-X-X---5--5--7--7--7-X-X-X-X--7--7---------------------------
_______________________________________________________________.

IN VERSE 3 YOU ALSO CAN PLAY THIS, BOTH RIFFS SOUND GOOD.

e------------------
B------------------
G------------------
D---7--10--12--12--
A---7--10--12--12--
E---7--10--12--12--
Tunning: Standard (E A D G B e)

Tuning:Whole Step Down (DGCFAD)


Fig1 (verse riff)
Guitar 1 Guitar 2
|--12---19---13--------------|--------------------12------|
|----------------------------|----------------------------|
|----------------------------|-------------9--10----------|
|----------------------------|----------------------------|
|----------------------------|----------------------------|
|----------------------------|----------------------------|


Fig2 (Pre-Chorus riff)
|-------------------------------------|
|-------------------------------------|
|-13s14s13---13---13s14s13---13--10---|
|-------------------------------------|
|-11s12s11---11---11s12s11---11--8----|
|----------0---------------0----------|


Fig3 (Interlude riff)
|-----10-10------10-10-9s10s9----|
|--------------------------------|
|-7-7-------7-7------------------|
|--------------------------------|
|--------------------------------|
|--------------------------------|


Fig4 (Chorus riff)
A A E F D
|-----------------------|
|-----------------------|
|-4--4------3-----------|
|-4--4--4-4---5---2-----|
|-2--2--4-----5---2-----|
|-------2-----3---0-----|


Fig5 (Interlude riff)
B C C# D
|-------------------|
|-------------------|
|-------------------|
|-11--12--13--14----|
|-11--12--13--14----|
|-9---10--11--12----|


Fig1
Fig2
Fig4
Fig1
Fig2
Fig4
Fig3
Fig5
Fig4
Fig4
-------------------------------------------------------------------------------------
Tunning: Standard (E A D G B e)
Artist: KoRn
Album: Follow the Leader
Song: Freak on a Leash
Tabbed by: Colina uv Lithium tabs
Email: colina99@home.com or Lithium_tabZ@hotmail.com

Alright here's freak on a leash, in STANDARD tunning i know
they tune down a whole step, but honestly? its not fun tunning
Down... too much work to get it back up... so here's Freak on
a leash, so I should prolly shut up now

Riff 1 HEAD
E:----------17-------------------------------------------|
B:----15--------16---------------------------------------|
G:-------------------------------------------------------|
D:-------------------------------------------------------|
A:-------------------------------------------------------|
E:-------------------------------------------------------|
B:-------------------------------------------------------|
Riff 2 Munky
E:----10-------------------------------------------------|
B:---8---------------------------------------------------|
G:--8----------------------------------------------------|
D:-------------------------------------------------------|
A:-------------------------------------------------------|
E:-------------------------------------------------------|
B:-------------------------------------------------------|
Riff 3 Head
E:-------------------------------------------------------|
B:-------------------------------------------------------|
G:-------------------------------------------------------|
D:-------------------------------------------------------|
A:----8-9-8----8--8-9-8----8-----------------------------|
E:----------10----------10---11--------------------------|
B:-------------------------------------------------------|
Munky (pitches sound loco)
E:-------------------------------------------------------|
B:-------------------------------------------------------|
G:---------------------------8---------------------------|
D:-------------------------------------------------------|
A:-------------------------------------------------------|
E:-------------------------------------------------------|
B:-------------------------------------------------------|

E:-------------------------------------------------------|
B:-------------------------------------------------------|
G:----7---------6-5--------------------------------------|
D:-------------------------------------------------------|
A:-------------------------------------------------------|
E:-------------------------------------------------------|
B:-------------------------------------------------------|
Riff 4 Head and Munky
E:-------------------------------------------------------|
B:-------------------------------------------------------|
G:-------------------------------------------------------|
D:------------------6-6-6-7-7----------------------------|
A:--7-7-7-7-7-7-7-7-7-7-7-8-6----------------------------|
E:--5-5-5-5-5-5-5-5--------------------------------------|
B:-------------------------------------------------------|
Riff 5 Munky
E:---8-8-8-8-7-8-7----8-8-8-8(last note vibrato)---------|
B:-------------------------------------------------------|
G:-------------------------------------------------------|
D:-------------------------------------------------------|
A:-------------------------------------------------------|
E:-------------------------------------------------------|
B:-------------------------------------------------------|
Head
E:-------------------------------------------------------|
B:-------------------------------------------------------|
G:-------------------------------------------------------|
D:-------------------------------------------------------|
A:-------------------------------------------------------|
E:--7-7---7-7---------7-7---7-7--------------------------|
B:-------------------------------------------------------|
Riff 6 Head and Munky
E:-------------------------------------------------------|
B:-------------------------------------------------------|
G:-------------------------------------------------------|
D:-4-5-6-7-----------------------------------------------|
A:-2-3-4-5-----------------------------------------------|
E:-------------------------------------------------------|
B:-------------------------------------------------------|
Munky after 8 times of whatcha just did with Head
E:-------------------------------------------------------|
B:-------------------------------------------------------|
G:-1-----------------------------------------------------|
D:-(1/2 step bend on the G#)-----------------------------|
A:-------------------------------------------------------|
E:-------------------------------------------------------|
B:-------------------------------------------------------|

Riff 4 for head on the outro:
E:-5-17-5-6-3--------------------------------------------|
B:-------------------------------------------------------|
G:-------------------------------------------------------|
D:-------------------------------------------------------|
A:-------------------------------------------------------|
E:-------------------------------------------------------|
B:-------------------------------------------------------|
Order:
Riff 1 and 2- together until pre chorus
Riff 3 until Chorus
Riff 4
Riff 1 and 2
Riff 3
Riff 4
Riff 5
Riff 6
Riff 4 Head comes in When John first starts repeating Part
of me
Tunning: Standard (E A D G B e)
-------------------------------------------------------------------------------
FREAK ON A LEASH - Korn
-------------------------------------------------------------------------------
Tabbed by:Luis Gustavo Hernández Collado
Email:ltavo_87@hotmail.com

Tuning:DADGBe

Intro
Guitar 1
e|---------17-------------------|
B|-15r--------16r---------------|
G|------------------------------|X4
D|------------------------------|
A|------------------------------|
D|------------------------------|
r=let ring

Guitar 2
e|--------------------------10r-|
B|------------------------8-----|
G|----------------------8-------|X4
D|------------------------------|
A|------------------------------|
D|------------------------------|
r=let ring

Verse 1
(Something takes a part of me, something lost and never seen...)
Guitar 1
e|---------17-------------------|
B|-15r--------16r---------------|
G|------------------------------|X8
D|------------------------------|
A|------------------------------|
D|------------------------------|
r=let ring

Guitar 2
e|--------------------------10r-|
B|------------------------8-----|
G|----------------------8-------|X8
D|------------------------------|
A|------------------------------|
D|------------------------------|
r=let ring

Pre-chorus 1
(Sometimes I cannot take this place, sometimes it's my life I can't taste...)
Guitar 1
e|--------------------------------|
B|--------------------------------|
G|-11/12-11-11----11/12-11-11-8/7-|X4
D|-x--x--x--x-----x--x--x--x--x-x-|
A|-9/-10/9--9-----9/-10/9--9--6/5-|
D|----------0r-------------0------|

Guitar 2
e|--------------------------------|
B|--------------------------------|
G|--------------------------------|X4
D|--------------------------------|
A|-9/-10/9--9-----9/-10/9--9--6/5-|
D|--------------------------------|

Chorus 1
(Something takes a part of me, you and I were meant to be...)
Guitar 1
e|------------------------------|
B|-2----------------------------|
G|-2--------1--2--1-------------|X4
D|-2r-------2--3--2-------------|
A|-0r---------------------------|
D|------------------------------|
r=let ring

Guitar 2
e|------------------------------|
B|------------------------------|
G|------------------------------|X4
D|-7r---------------------------|
A|-0r-------7--8--4-------------|
D|----------7--8--4-------------|
r=let ring

Verse 2
(felling like a freak on a leash, felling like I have no release...)
Guitar 1
e|---------17-------------------|
B|-15r--------16r---------------|
G|------------------------------|X8
D|------------------------------|
A|------------------------------|
D|------------------------------|
r=let ring

Guitar 2
e|--------------------------10r-|
B|------------------------8-----|
G|----------------------8-------|X8
D|------------------------------|
A|------------------------------|
D|------------------------------|
r=let ring

Pre-chorus 2
(Sometimes I cannot take this place, sometimes it's my life I can't taste...)
Guitar 1
e|--------------------------------|
B|--------------------------------|
G|-11/12-11-11----11/12-11-11-8/7-|X4
D|-x--x--x--x-----x--x--x--x--x-x-|
A|-9/-10/9--9-----9/-10/9--9--6/5-|
D|----------0r-------------0------|

Guitar 2
e|--------------------------------|
B|--------------------------------|
G|--------------------------------|X4
D|--------------------------------|
A|-9/-10/9--9-----9/-10/9--9--6/5-|
D|--------------------------------|

Chorus 2
(Something takes a part of me, you and I were meant to be...)
Guitar 1
e|------------------------------|
B|-2----------------------------|
G|-2--------1--2--1-------------|X4
D|-2r-------2--3--2-------------|
A|-0r---------------------------|
D|------------------------------|
r=let ring

Guitar 2
e|------------------------------|
B|------------------------------|
G|------------------------------|X4
D|-7r---------------------------|
A|-0r-------7--8--4-------------|
D|----------7--8--4-------------|
r=let ring

Interlude
(Boom na da mmm dum na ema ...)
Guitar 1
e|------------------------------|
B|------------------------------|
G|------------------------------|X8
D|------------------------------|
A|------------------------------|
D|-9-9--------9-9---------------|

Guitar 2
e|-------8-8-------8-8/7/8------|
B|------------------------------|
G|------------------------------|X8
D|------------------------------|
A|------------------------------|
D|------------------------------|

(Go! so fight! something on the dum na ema...)
Guitar 1
e|---------------|
B|---------------|
G|---------------|X6
D|-2--345--2--31-|
A|-2--345--2--31-|
D|-2--345--2--31-|

Guitar 2
e|---------------|
B|---------------|
G|---------------|X6
D|-2--345--2--31-|
A|-2--345--2--31-|
D|-2--345--2--31-|

Chorus 3/Outro
(Something takes a part of me, you and I were meant to be...)
Guitar 1
e|----------------------|
B|----------------------|
G|-2-222-2-222--1--2--1-|X4
D|-2-222-2-222--2--3--2-|
A|-0-000-0-000----------|
D|----------------------|

Guitar 2
e|----------------------|
B|----------------------|
G|----------------------|X4
D|-7-777-7-777----------|
A|-0-000-0-000--7--8--4-|
D|--------------7--8--4-|

(A part of me, part of me...)
Guitar 1
e|----------------------|
B|----------------------|
G|-2-222-2-222--1--2--1-|X4
D|-2-222-2-222--2--3--2-|
A|-0-000-0-000----------|
D|----------------------|

Guitar 2
e|-5r--/17-5--6-3-------|
B|----------------------|
G|----------------------|X4
D|----------------------|
A|----------------------|
D|----------------------|
Tunning: Standard (E A D G B e)
---------------------------------------------------------------------------
"Freak on a leash" (MTV Unplugged Live Version), Korn feat. Amy Lee
---------------------------------------------------------------------------
*By: Sebastián Ara. (Buenos Aires, Argentina)
*Email MSN: playing.the.angel_@hotmail.com

>Tuning: EADGBe (Turned to the Standard Version)

>Chords Diagram:
e|2--5---1---2---0-1-0-|
B|3--3---3---3---2-1-0-|
G|2--3---3---4---2-2-1-|
D|0--5---3---4---2-3-2-|
A|---x---1---2---0-3-2-|
E|---x-------------x-0-|
D G1 Bb Bm A F E

________________________________________________________________________
D G1
Something takes a part from me
D Bb
Something lost and never seen...
D G1
Every time I start to believe,
Bm Bb
Something is taken and raped from me, from me.

D G1
Life's gotta always messing with me (You wanna see the light?)
D Bb
Can't they just let me be free? (So do I...)
D G1
Can't I take away of this pain (You wanna see the light?)
Bm Bb
I try to every nite in vain, in vain.


PRECHORUS:

e|2--------------/3----------------2----------------------|
B|3--------------/4----------------3----------------------|
G|2--------------/3----------------2----------------------|
D|0---------------0----------------0----------------------|
A|--------------------------------------------------------|
E|--------------------------------------------------------|
Sometimes I cannot take this place.

[While there's a guitar which plays:]
*Guitar:
e|----------------------------------------------------|
B|-/7-7...--------8h7---------------------------------|
G|----------------------------------------------------|
D|----------------------------------------------------|
A|----------------------------------------------------|
E|----------------------------------------------------|

e|---------------/5------/3--------2-----------------------|
B|---------------/4------/4--------3-----------------------|
G|---------------/5------/3--------2-----------------------|
D|----------------0-------0--------0-----------------------|
A|---------------------------------------------------------|
E|---------------------------------------------------------|
Sometimes it's My life I can't Taste
*Guitar:
e|----------------------------------------------------|
B|-/7-7...--------8h7---------------------------------|
G|----------------------------------------------------|
D|----------------------------------------------------|
A|----------------------------------------------------|
E|----------------------------------------------------|


e|2--------------/3-------------2---------------------|
B|3--------------/4-------------3---------------------|
G|2--------------/3-------------2---------------------|
D|0---------------0-------------0---------------------|
A|----------------------------------------------------|
E|----------------------------------------------------|
Sometimes I Cannot feel my Face.
*Guitar:
e|----------------------------------------------------|
B|-/7-7...--------8h7---------------------------------|
G|----------------------------------------------------|
D|----------------------------------------------------|
A|----------------------------------------------------|
E|----------------------------------------------------|


e|--------------/5-------/3---------2-----------------------|
B|--------------/4-------/4---------3-----------------------|
G|--------------/5-------/3---------2-----------------------|
D|---------------0--------0---------0-----------------------|
A|----------------------------------------------------------|
E|----------------------------------------------------------|
You'll never See me Fall from Grace.
*Guitar:
e|-----------------------------------------------------------|
B|-/7-7...--------10-10/--8-8-------7-7----------------------|
G|-----------------------------------------------------------|
D|-----------------------------------------------------------|
A|-----------------------------------------------------------|
E|-----------------------------------------------------------|


CHORUS:

*Synth. Arrengment (or whatever instrument really is):
e|-----------------------|
B|-----------------------|
G|--------------9-9-10-9-|
D|-19----/7--------------|
A|--------------7-7-8--7-|
E|-17----/5--------------|
[repeats few times]

*Chords:

A
E F A
Something takes a part of me
E F A
You and I were meant to be
E F A
A cheap ... for me to lay
E F A
Something takes a part of me

Guitar solo:

e|---------------------------------------------------------------|
B|----------------------10---------------------------------------|
G|12-11----12-----11-12----12-11---------------------------------|
D|------12--------------------------12-12/10---------------------|
A|---------------------------------------------12-13-12/10-10/9--|
E|---------------------------------------------------------------|

(Same chords as the verses before)
Feelin' like a freak on a leash.
Feelin' like I have no release.
How many times have i felt diseased?
Nothing in my life is free, is free.

PRECHORUS
Sometimes I cannot take this place
Sometimes is my life I can't take
Sometimes I cannot feel my face
You'll never see me fall from grace.

CHORUS
Something takes a part from me
You and I were meant to be
A cheap fuck for me to lay
Something takes a part from me.


BREAK:

*Riff arrenged to guitar:
e|------------------|
B|------------------|
G|------------------|
D|------------------|
A|------------------|
E|-5-5-5-5--5h6h7h8-|

*Amy Lee screams:
e|----------------------------------------------------|
B|-2---3-2/5---3-5-6--5-3-3-2-------------------------|
G|----------------------------------------------------|
D|----------------------------------------------------|
A|----------------------------------------------------|
E|----------------------------------------------------|

e|-0---1-3---0--1/6--5-0------------------------------|
B|----------------------------------------------------|
G|----------------------------------------------------|
D|----------------------------------------------------|
A|----------------------------------------------------|
E|----------------------------------------------------|

e|-5-----8h10p7------5-7-8-7-8-7/10-8-7-8-5-----------|
B|----------------------------------------------------|
G|----------------------------------------------------|
D|----------------------------------------------------|
A|----------------------------------------------------|
E|----------------------------------------------------|


CHORUS:

*Chords:

A
E F A
Something takes a part of me
E F A
You and I were meant to be
E F A
A cheap ... for me to lay
E F A
Something takes a part of me

*Arreng:
e|-----------|
B|-----------|
G|-----------|
D|7--8--9h10-|
A|-----------|
E|5--6--7h8--|

"...Part of me..."


Ends with this chord:
e|-------|
B|-10----|
G|-7-----|
D|-8-----|
A|-9--...
E|-------
Song info
Freak On A Leash
Korn
2001
  • Rock
  • Nu Metal
Alternative tracks
Similar songs
Inside Out - Korn
Lets Go - Korn
Souvenir - Korn
Happy Song - Bring Me the Horizon

Hi! Hope you enjoy backing track experience.
If you want to help us in the development of the project, feel free to donate!