Bad Romance - Lady Gaga
00:00 / 00:00
Tabs and lyrics
Tunning: Standard (E A D G B e)
[When she is singing the "Oh oh oh caught in a bad romance" part at the begining, play
chords C, G, Am, Fm]

e|---------------------------------------------------------------|
B|---------------------------------------------------------------|
G|---------------------------------------------------------------|
D|-----2-2-3-2-------2-2-3-2-------2-2-3-2-----------------------|
A|-0-0-----------0-0-----------0-0-------------3-3-0-3-0-3-------|
E|---------------------------------------------------------------|
(Repeat that twice..)

(During the verse, we palm mute it and play just open and then a G bar chord. We play
song with distortion. We play it kinda like this..)

e|-0--0--3--0--3--0------------------------|
B|-0--0--3--0--3--0------------------------|
G|-0--0--4--0--4--0------------------------|
D|-0--0--5--0--5--0------------------------|
A|-0--0--5--0--5--0------------------------|
E|-0--0--3--0--3--0------------------------|

(So yeah.. That pretty much through the verse.. Except when she says "I want your love..
love, love, I want your love.." Then you play)

e|-----------------------------------------|
B|-----------------------------------------|
G|-----------------------------------------|
D|-----------------------------------------|
A|-------0-----7-3-0-------0---------------|
E|-0-3-4-------------0-3-4-----------------|

[Entering the chorus, play the G chord]

[Then the chorus goes]

e|----------------------------------------------|
B|----------------------------------------------|
G|----------------------------------------------|
D|-7-7-7-7-7-7-7-5-5------------------5---------|
A|-------------------5-5--5-5-7-7-7-7---5-5-3---|
E|----------------------------------------------|

[Then those little chords C, G, Am, Fm twice]

[And then]

e|---------------------------------------------------------------|
B|---------------------------------------------------------------|
G|---------------------------------------------------------------|
D|-----2-2-3-2-------2-2-3-2-------2-2-3-2-----------------------|
A|-0-0-----------0-0-----------0-0-------------3-3-0-3-0-3-------|
E|---------------------------------------------------------------|

Then do the next verse like the first verse above..

(And the chorus the same)

e|---------------------------------------------------------------|
B|--------------------------------------------------------------|
G|---------------------------------------------------------------|
D|-----2-2-3-2-------2-2-3-2-------2-2-3-2-----------------------|
A|-0-0-----------0-0-----------0-0-------------3-3-0-3-0-3-------|
E|---------------------------------------------------------------|
(Play it twice)
(Next, play G chord palm muted until you hit the part, "I want your love, and I want your
where you play the chords C, G, Am, Fm..)
Tunning: Standard (E A D G B e)
-------------------------------------------------------------------------------
BAD ROMANCE - Lady Gaga

-------------------------------------------------------------------------------
Tabbed by: dvon88
Email: xisephiroth@yahoo.com

This is a vocal cover so I matched all the hammer ons, pull offs, slides, and
bends to the tone of her voice and when it changes. To see how it is played,
watch my video of it on YouTube(I have the same name on YouTube: dvon88)

Tuning:DGCFAD

Notes in () at slides are not to be picked, just slide to/from that fret to the
next fret.

Intro

d|---------------------------------------------------------------------------|
A|---------------------------------------------------------------------------|
F|---------------------------------------------------------------------------|
C|-0h2h4p0-/5--4-5-4h5p4-2------2-/4--4-4-4\2p0-0----------------------------|
G|--------------------------4-5----------------------------------------------|
D|---------------------------------------------------------------------------| x2

d|---------------------------------------------------------------------------|
A|---------------------------------------------------------------------------|
F|---------------------------------------------------------------------------|
C|-----4-4-5-4-------4-4-5-4------4-4-5-4------------------------------------|
G|-2-2----------2-2----------2-2-----------5-5p2-5p2-5b----------------------|
D|---------------------------------------------------------------------------| x2
pm. Bend only a microtone

Verse 1

d|---------------------------------------------------------------------------|
A|---------------------------------------------------------------------------|
F|---------------------------------------------------------------------------|
C|---------------------------------------------------------------------------|
G|---------------------------------------------------------------------------|
D|-5-7-5-7-7--5-5/10-7-5-7p5--7-7-5-7-5-7-5-/10-7-5-7p5--2-5/7-7-------------|

d|---------------------------------------------------------------------------|
A|---------------------------------------------------------------------------|
F|---------------------------------------------------------------------------|
C|---------------------------------------------------------------------------|
G|-/9-/5---------------------------------------------------------------------|
D|-------/7-2-5/7-7~---------------------------------------------------------|

d|---------------------------------------------------------------------------|
A|---------------------------------------------------------------------------|
F|---------------------------------------------------------------------------|
C|---------------------------------------------------------------------------|
G|---------------------------------------------------------------------------|
D|-/10-10-7-10-10~--7-10-10-7-10\5~--/10-10-7-10-7-10-7-10\(7)-5-7p5-2-5/7-7-|

d|---------------------------------------------------------------------------|
A|---------------------------------------------------------------------------|
F|---------------------------------------------------------------------------|
C|---------------------------------------------------------------------------|
G|-/9-/5---------------------------------------------------------------------|
D|-------/7-2-5/7-7~~--------------------------------------------------------|

Prechorus 1

d|---------------------------------------------------------------------------|
A|---------------------------------------------------------------------------|
F|---------------------------------------------------------------------------|
C|---------------------------------------------------------------------------|
G|-x-x-x---------------------------------------------------------------------|
D|-x-x-x---just do muted 8th notes on the low 2 strings----3*------------------|

Chorus

d|---------------------------------------------------------------------------|
A|---------------------------------------------------------------------------|
F|---------------------------------------------------------------------------|
C|-/9-9-9-9-9~~\(7)-7-7-7-2~--2-2-2/(4)--4-4-4-4/(7)~~\(2)-2p0---0h4h5p0-/5--|
G|---------------------------------------------------------------------------|
D|---------------------------------------------------------------------------|

d|---------------------------------------------------------------------------|
A|---------------------------------------------------------------------------|
F|---------------------------------------------------------------------------|
C|-/9-9-9-9-9-9~\(7)-7-7-7-2~~-2-2-2/(4)-4-4-4-4/(8)\(2)-2p0-----------------|
G|---------------------------------------------------------------------------|
D|---------------------------------------------------------------------------|

d|---------------------------------------------------------------------------|
A|---------------------------------------------------------------------------|
F|---------------------------------------------------------------------------|
C|-0h2h4p0-/5--4-5-4h5p4-2------2-/4--4-4-4\2p0-0----------------------------|
G|--------------------------4-5----------------------------------------------|
D|---------------------------------------------------------------------------| x2

d|---------------------------------------------------------------------------|
A|---------------------------------------------------------------------------|
F|---------------------------------------------------------------------------|
C|-----4-4-5-4-------4-4-5-4------4-4-5-4------------------------------------|
G|-2-2----------2-2----------2-2-----------5-5p2-5p2-5b----------------------|
D|---------------------------------------------------------------------------|

Verse 2

d|---------------------------------------------------------------------------|
A|---------------------------------------------------------------------------|
F|---------------------------------------------------------------------------|
C|---------------------------------------------------------------------------|
G|---------------------------------------------------------------------------|
D|-5-7-5-7-7--5-5/10-7-5-7p5--7-7-5-7-5-7-5-/10-7-5-7p5--2-5/7-7-------------|

d|---------------------------------------------------------------------------|
A|---------------------------------------------------------------------------|
F|---------------------------------------------------------------------------|
C|---------------------------------------------------------------------------|
G|-/9-/5---------------------------------------------------------------------|
D|-------/7-2-4/5-5~---------------------------------------------------------|

d|---------------------------------------------------------------------------|
A|---------------------------------------------------------------------------|
F|---------------------------------------------------------------------------|
C|---------------------------------------------------------------------------|
G|---------------------------------------------------------------------------|
D|-/10-10-7-10-10~--7-10-10-7-10\5~--/10-10-7-10-7-10-7-10\(7)-5-7p5-2-5/7-7-|

d|---------------------------------------------------------------------------|
A|---------------------------------------------------------------------------|
F|---------------------------------------------------------------------------|
C|---------------------------------------------------------------------------|
G|-/9-/5---------------------------------------------------------------------|
D|-------/7-2-5/7-7~~--------------------------------------------------------|

Prechorus 2

d|---------------------------------------------------------------------------|
A|---------------------------------------------------------------------------|
F|---------------------------------------------------------------------------|
C|---------------------------------------------------------------------------|
G|---------------------------------------------------------------------------|
D|-x--x-x-x-x-x-x-x-x-x-x-x-x-x-xxxx-x-x-xxxx-x-x-xxxx-xxxx-xxxx-------------|

Chorus

d|---------------------------------------------------------------------------|
A|---------------------------------------------------------------------------|
F|---------------------------------------------------------------------------|
C|-/9-9-9-9-9~~\(7)-7-7-7-2~--2-2-2/(4)--4-4-4-4/(7)~~\(2)-2p0---0h4h5p0-/5--|
G|---------------------------------------------------------------------------|
D|---------------------------------------------------------------------------|

d|---------------------------------------------------------------------------|
A|---------------------------------------------------------------------------|
F|---------------------------------------------------------------------------|
C|-/9-9-9-9-9-9~\(7)-7-7-7-2~~-2-2-2/(4)-4-4-4-4/(8)\(2)-2p0-----------------|
G|---------------------------------------------------------------------------|
D|---------------------------------------------------------------------------|

d|---------------------------------------------------------------------------|
A|---------------------------------------------------------------------------|
F|---------------------------------------------------------------------------|
C|-0h2h4p0-/5--4-5-4h5p4-2------2-/4--4-4-4\2p0-0----------------------------|
G|--------------------------4-5----------------------------------------------|
D|---------------------------------------------------------------------------| x2

d|---------------------------------------------------------------------------|
A|---------------------------------------------------------------------------|
F|---------------------------------------------------------------------------|
C|-----4-4-5-4-------4-4-5-4------4-4-5-4------------------------------------|
G|-2-2----------2-2----------2-2-----------5-5p2-5p2-5b----------------------|
D|---------------------------------------------------------------------------| x2

Interlude

d|---------------------------------------------------------------------------|
A|---------------------------------------------------------------------------|
F|---------------------------------------------------------------------------|
C|---------------------------------------------------------------------------|
G|-0--0--0-0-0-0-0-0-0-0-0-00-0----------------------------------------------|
D|---------------------------------------------------------------------------| x2

d|---------------------------------------------------------------------------|
A|---------------------------------------------------------------------------|
F|---------------------------------------------------------------------------|
C|-7--7--7-7-7-7-7-7-7-7-7-77-7----------------------------------------------|
G|-0--0--0-0-0-0-0-0-0-0-0-00-0----------------------------------------------|
D|---------------------------------------------------------------------------|

d|---------------------------------------------------------------------------|
A|---------------------------------------------------------------------------|
F|-9--9--9-9-9-9-9-9-99-9---9---9--------------------------------------------|
C|-7--7--7-7-7-7-7-7-77-7---7---7--------------------------------------------|
G|-0--0--0-0-0-0-0-0-00-0---0---0--------------------------------------------|
D|---------------------------------------------------------------------------|
"free bitch baby"
d|---------------------------------------------------------------------------|
A|---------------------------------------------------------------------------|
F|---------------------------------------------------------------------------|
C|---------------------------------------------------------------------------|
G|-/5-4--0-2---/5-5-4-4-0-----/5-4--0-2---/9-9-9-9-7-5-----------------------|
D|------------------------2~-------------------------------------------------| x2
I don't wanna be friends

d|---------------------------------------------------------------------------|
A|---------------------------------------------------------------------------|
F|---------------------------------------------------------------------------|
C|---------------------------------------------------------------------------|
G|-/5-4--0-2---/5-5-4-4-0----/5-4--0-2---/9-9-9-9-7-5~~~~/9-9-9-9-12-5~~~~---|
D|------------------------2~-------------------------------------------------|
I don't wanna be friends

d|--------------------------------------------10-10-7-10p7-10----------------|
A|---------------------------------------------------------------------------|
F|-/7-7-7-7-6---------------/7-7p4-7p4-7-------------------------------------|
C|------------9--7h9p7\5-----------------------------------------------------|
G|---------------------------------------------------------------------------|
D|---------------------------------------------------------------------------|
Want your bad romance
Chorus 3

d|---------------------------------------------------------------------------|
A|---------------------------------------------------------------------------|
F|-----------------------------------------------/7p6------------------------|
C|-/9-9-9-9-9~~\(7)-7-7-7-2~--2-2-2/(4)--4-4-4-4------9\7--------------------|
G|---------------------------------------------------------------------------|
D|---------------------------------------------------------------------------|

d|---------------------------------------------------------------------------|
A|---------------------------------------------------------------------------|
F|---------------------------------------------------------------------------|
C|-/9-9-9-9-9-9~\(7)-7-7-7-2~~-2-2-2/(4)-4-4-4-4/(8)\(2)-2p0-----------------|
G|---------------------------------------------------------------------------|
D|---------------------------------------------------------------------------|

d|---------------------------------------------------------------------------|
A|---------------------------------------------------------------------------|
F|------------------------[7-7p4-7p4-7]----------[7-7p4-7p4-7]---------------|
C|-0h2h4p0-/5--4-5-4h5p4-2------2-/4--4-4-4\2p0-0----------------------------|
G|--------------------------4-5----------------------------------------------|
D|---------------------------------------------------------------------------| x2
[Want your bad romance] [Want your bad romance]


d|---------------------------------------------------------------------------|
A|---------------------------------------------------------------------------|
F|---------------------------------------------------------------------------|
C|-----4-4-5-4-------4-4-5-4------4-4-5-4------------------------------------|
G|-2-2----------2-2----------2-2-----------5-5p2-5p2-5b----------------------|
D|---------------------------------------------------------------------------| x2
I like to play this last part one octave up.


| / slide up
| \ slide down
| h hammer-on
| p pull-off
| ~ vibrato
| + harmonic
| x Mute note
| * Pinch Harmonic
Tunning: Standard (E A D G B e)
Bad Romance
by: Lady Gaga
The Fame Monster
Tabbed by: slevin3

"Oh..."
--------1-11-0-----------------|--------1-11-0-----------------|
-13-5-1--------3-013-5-555-3-1-|-13-5-1--------3-013-5-555-3-1-|
-------------------------------|-------------------------------|
-------------------------------|-------------------------------|
-------------------------------|-------------------------------|
-------------------------------|-------------------------------|

"Ra ra ah ah ah..."
-------------------------------|-------------------------------|
----5565----5565----5565-------|----5565----5565----5565-------|
-22------22------22------552525|-22------22------22------552525|
-------------------------------|-------------------------------|
-------------------------------|-------------------------------|
-------------------------------|-------------------------------|

"I want your ugly..."
-------------------------------|-------------------------------|
-------------------------------|-------51----------------------|
-25255-252020-220202-252020----|--0-22---2--022----------------|
-------------------------------|-2---------2-------------------|
-------------------------------|-------------------------------|
-------------------------------|-------------------------------|

"I want your drama..."
-------------------------------|-------------------------------|
-------------------------------|-------51----------------------|
-25255-252020-252525-252020----|--0-22---2--022----------------|
-------------------------------|-2---------2-------------------|
-------------------------------|-------------------------------|
-------------------------------|-------------------------------|

"You know that I want you..."
-------------------------------|
-------------------------------|
-222222-2222222-22222-2-22-----|
-------------------------------|
-------------------------------|
-------------------------------|

"I want your love..."
--555555-3333-----------3------|-555555-3333----------3--------|
-------------3-33-5-555--3-3/1-|------------3-33-5-55---3-3/1--|
-------------------------------|-------------------------------|
-------------------------------|-------------------------------|
-------------------------------|-------------------------------|
-------------------------------|-------------------------------|

"Oh..."
--------1-11-0-----------------|--------1-11-0-----------------|
-13-5-1--------3-013-5-555-3-1-|-13-5-1--------3-013-5-555-3-1-|
-------------------------------|-------------------------------|
-------------------------------|-------------------------------|
-------------------------------|-------------------------------|
-------------------------------|-------------------------------|

"Ra ra ah ah ah..."
-------------------------------|
----5565----5565----5565-------|
-22------22------22------552525|
-------------------------------|
-------------------------------|
-------------------------------|

"I want your horror..."
-------------------------------|-------------------------------|
-------------------------------|-------51----------------------|
-25255-252020-220202-252020----|--0-22---2--022----------------|
-------------------------------|-2---------2-------------------|
-------------------------------|-------------------------------|
-------------------------------|-------------------------------|

"I want your psycho..."
-------------------------------|-------------------------------|
-------------------------------|-------51----------------------|
-25255-252020-252525-252020----|--0-22---2--022----------------|
-------------------------------|-2---------2-------------------|
-------------------------------|-------------------------------|
-------------------------------|-------------------------------|

"You know that I want you..."
-------------------------------|
-------------------------------|
-222222-2222222-22222-2-22-----|
-------------------------------|
-------------------------------|
-------------------------------|

"I want your love..."
--555555-3333-----------3------|-555555-3333----------3/4------|
-------------3-33-5-555--3-3/1-|------------3-33-5-55----3-3/1-|
-------------------------------|-------------------------------|
-------------------------------|-------------------------------|
-------------------------------|-------------------------------|
-------------------------------|-------------------------------|

"Oh..."
--------1-11-0-----------------|--------1-11-0-----------------|
-13-5-1--------3-013-5-555-3-1-|-13-5-1--------3-013-5-555-3-1-|
-------------------------------|-------------------------------|
-------------------------------|-------------------------------|
-------------------------------|-------------------------------|
-------------------------------|-------------------------------|

"Ra ra ah ah ah..."
-------------------------------|
----5565----5565----5565-------|
-22------22------22------552525|
-------------------------------|
-------------------------------|
-------------------------------|

"Walk, walk fashion baby..."
-------------------------------|-------------------------------|
-------------------------------|-------------------------------|
-------------------------------|-------------------------------|
-55-5555-55555-555-------------|-55-5555-55555-555-------------|
-------------------------------|-------------------------------|
-------------------------------|-------------------------------|

"Walk, walk fashion baby..."
-------------------------------|-------------------------------|
-------------------------------|-------------------------------|
-------------------------------|-------------------------------|
-55-5555-55555-555-------------|-55-5555-55-5555-55------------|
-------------------------------|-------------------------------|
-------------------------------|-------------------------------|

"I want your love..."
-------------------------------|-------------------------------|
-10---1100---10----555531------|-0/10---1100---10----555531----|
---02-----0----02--------------|---02-----0----02--------------|
-----------2-------------------|-----------2-------------------|
-------------------------------|-------------------------------|
-------------------------------|-------------------------------|

"I don't wanna be friends..."
-----3----888875-3/1--885858---|---------885858----------------|
-5555-1------------------------|-555531------------------------|
-------------------------------|-------------------------------|
-------------------------------|-------------------------------|
-------------------------------|-------------------------------|
-------------------------------|-------------------------------|

"I want your love..."
--555555-3333-----------8-753--|-555555-3333----------4--------|
-------------3-33-5-555--------|------------3-33-5-55---35-----|
-------------------------------|-------------------------------|
-------------------------------|-------------------------------|
-------------------------------|-------------------------------|
-------------------------------|-------------------------------|

"Oh..."
--------1-11-0-----------------|--------1-11-0-----------------|
-13-5-1--------3-013-5-555-3-1-|-13-5-1--------3-013-5-555-3-1-|
-------------------------------|-------------------------------|
-------------------------------|-------------------------------|
-------------------------------|-------------------------------|
-------------------------------|-------------------------------|

"Ra ra ah ah ah..."
-------------------------------|
----5565----5565----5565-------|
-22------22------22------552525|
-------------------------------|
-------------------------------|
-------------------------------|
Tunning: Standard (E A D G B e)
MY FIRST TAB EVER! PLEASE BE NICE!

NOTE:
THIS IS MY RE-INTERPRETATION OF THE SONG. IT ISN'T AN EXACT MATCH TO LADY GAGAS VOCALS OR MUSIC.
I JUST THOUGHT IT SOUNDS COOL WITH A COUPLE OF DISTORTED GUITARS!
ALL THE CHORDS IN THE INTRO, VERSE, PRE-CHORUS, CHORUS AND INTERLUDE SHOULD BE CONSTANTLY PLAYED
UNTIL THE CHORD CHANGE, I JUST COULDN'T BE ARSED COUNTING HOW MANY TIMES I PLAYED THEM.
(I'VE ADDED SOME OF THE VOCALS TO GIVE AN IDEA OF WHEN TO CHANGE)

ANY COMMENTS/ SUGGESTIONS ARE WELCOME

MUCH THANKS TO JUDE LOCKETT WHO SHOWED ME THE PRE-VERSE, I USED THAT TO FIND EVERYTHING ELSE


BAD ROMANCE - LADY GAGA

TABBED BY: MICHAEL STUBBINGS

EMAIL: MDSSEVENFOLD@HOTMAIL.COM

TUNING: STANDARD
------------------------------
INTRO
GTR. 1 LIGHT DISTORTION
e|--------------------------------------------------------|
B|--------------------------------------------------------|
G|--------------------------------------------------------|
D|--------------------------------------------------7-5---|
A|12x8--10x8--5x8--7x4--3-5-7-10--12x8--10x8--5x14--------|
E|--------------------------------------------------------|
GTR. 2 CLEAN
e|3-----3-----0----0--------------3-----3-----0-----------|
B|3-----3-----0----1----------1---3-----3-----0-----------|
G|0-----0-----0----0--------0-----0-----0-----0-----------|
D|2-----2-----2----2------2-------2-----2-----2-----------|
A|3-----2-----2----3----3---------3-----2-----2-----------|
E|------------0-------------------------------0-----------|

------------------------------
PRE-VERSE. PART 1
GTR. 1 LIGHT DISTORTION
e|---------------------------------------|
B|---------------------------------------|
G|---------------------------------------|
D|---------------------------------------|
A|---77/8\7----77/8\7----77/8\7-33---33--|
E|55--------55--------55-----------5-----|

----------
PRE-VERSE. PART 2
GTR. 1 HEAVY DISTORTION
e|------------------------------------------|
B|------------------------------------------|
G|---99109-----99109-----99109--55-2-55-----|
D|77-99109--77-99109--77-99109--55-2-55-----|
A|77-778-7--77-778-7--77-778-7--33-0-33-----|
E|55--------55--------55--------------------|
GTR. 2 HEAVY DISTORTION
e|------------------------------------------|
B|------------------------------------------|
G|---99109-----99109-----99109--55-2-5------|
D|77-99109--77-99109--77-99109--55-2-5------|
A|77-778-7--77-778-7--77-778-7--33-0-3------|
E|55--------55--------55---------------3/5--|

------------------------------
VERSE. PART 1
NOTE: KEEP STRIKING NOTE/CHORD IN RHYTHM TO LYRICS
GTR. 1 LIGHT DISTORTION
e|-----------------------------------------------------------------------|
B|-----------------------------------------------------------------------|
G|----------------------------------------------------------------7-5\---|
D|-------------------------------------------------------------7-5-------|
A|----------------------------------------------------------7-5----------|
E|---5-------------------------0------------------5------8-5-------------|
P.M. . . . . .. .. .. .

GTR. 2 HEAVY DISTORTION
e|-----------------------------------------------------------------------|
B|-----------------------------------------------------------------------|
G|-----------------------------------------------------------------------|
D|-----------------------------------------------------------------------|
A|-----------------------------------------------------------------------|
E|------------------------------------------------------------------10\3-|
P.M.

"I want your.. ..want your love" "..want your love"
----------
VERSE. PART 2
GTR. 1 HEAVY DISTORTION
e|-----------------------------------------------------------------------|
B|-----------------------------------------------------------------------|
G|-----------------------------------------------------------------------|
D|-----------------------------------------------------------------------|
A|---7-------------------------2------------------7----------------------|
E|---5-------------------------0------------------5-----------------10\3-|
P.M. . . .
GTR. 2 HEAVY DISTORTION
e|-----------------------------------------------------------------------|
B|-----------------------------------------------------------------------|
G|-----------------------------------------------------------------------|
D|-----------------------------------------------------------------------|
A|---7-------------------------2------------------7----------------------|
E|---5-------------------------0------------------5-----------------10\3-|
P.M. . . .

"I want your.. ..want your love" "..want your love"
------------------------------
PRE-CHORUS
NOTE: KEEP STRIKING P.M. CHORDS IN RHYTHM TO LYRICS
GTR. 1 LIGHT DISTORTION
e|--------------------------------------------------|
B|--------------------------------------------------|
G|--------------------------------------------------|
D|--------------------------------------------------|
A|---5-------------------------------7-9------------|
E|---3-------------------------------5-7------------|
P.M. .
GTR. 2 LIGHT DISTORTION
e|--------------------------------------------------|
B|--------------------------------------------------|
G|--------------------------------------------------|
D|--------------------------------------------------|
A|---5----------------------------------------------|
E|---3-------------------------------3/7------------|
P.M. .

"You know that.. ..bad romance"
------------------------------
CHORUS
GTR. 1 HEAVY DISTORTION
e|----------------------------------------------------------------------------|
B|----------------------------------------------------------------------------|
G|--------9---7--------9---7----------------------9---7--------9--------------|
D|---10---9---7---10---9---7---------7--5----10---9---7---10---9--------15\---|
A|---10---7---5---10---7---5---7--5----------10---7---5---10---7--------15\---|
E|---8------------8--------------------------8------------8-------------15\---|
GTR. 2 HEAVY DISTORTION
e|---8----12--10--8----12--10--------15-13---8----12--10--8----10-------------|
B|---8----12--10--8----12--10--15-13---------8----12--10--8----10-------------|
G|----------------------------------------------------------------------------|
D|----------------------------------------------------------------------15\---|
A|----------------------------------------------------------------------15\---|
E|----------------------------------------------------------------------15\---|

------------------------------
PRE-VERSE. PART 2

------------------------------
VERSE. PART 1

------------------------------
VERSE. PART 2

------------------------------
PRE-CHORUS

------------------------------
CHORUS

------------------------------
PRE-VERSE. PART 2 X2

------------------------------
BRIDGE
GTR. 1 HEAVY DISTORTION
e|----------------------------------------------------------------------------------|
B|----------------------------------------------------------------------------------|
G|----------------------------------------------------------------------------------|
D|------------------------------------5/7-------------------------------------------|
A|-----------------5/7-----------------------------------5/7----------------7/12b~ -|
E|---0-0-0-00-00-00-----0-0-0-00-00-00-----0-0-0-00-00-00-----0-0-0-00-00-00--------|
P.M. . . . .. .. .. . . . .. .. .. . . . .. .. .. . . . .. .. ..
GTR. 2 HEAVY DISTORTION
e|----------------------------------------------------------------------------------|
B|----------------------------------------------------------------------------------|
G|----------------------------------------------------------------------------------|
D|----------------------------------------------------------------------------------|
A|----------------------------------------------------------------------------------|
E|---0-0-0-00-00-0000---0-0-0-00-00-0000---0-0-0-00-00-0000---0-0-0-00-00-00--------|
P.M. . . . .. .. .... . . . .. .. .... . . . .. .. .... . . . .. .. ..

"Walk, walk.."
------------------------------
INTERLUDE. PART 1
GTR. 1 HEAVY DISTORTION
e|---------------------------------------------------------------------------|
B|---------------------------------------------------------------------------|
G|---------------------------------------------------------------------------|
D|---------------------------------------------------------------------------|
A|12b~ ---------------------------12b~ --------------------------------------|
E|---------------------------------------------------------------------------|
GTR. 2 CLEAN
e|3-----3-----0----0--------------3-----3-----0----0--------------|
B|3-----3-----0----1----------1---3-----3-----0----1----------1---|
G|0-----0-----0----0--------0-----0-----0-----0----0--------0-----|
D|2-----2-----2----2------2-------2-----2-----2----2------2-------|
A|3-----2-----2----3----3---------3-----2-----2----3----3---------|
E|------------0-------------------------------0-------------------|

"I want.." "..J'veux.."
----------
INTERLUDE. PART 2
GTR. 1 LIGHT DISTORTION
e|----------------------------------------------------------------------------|
B|----------------------------------------------------------------------------|
G|----------------------------------------------------------------------------|
D|----------------------------------------------------------------------------|
A|12x8--10x8--5x8--7x4--3-5-7-10--12x8--10x8--5x9--7----------------------3/7-|
E|----------------------------------------------------------------------------|
GTR. 2 CLEAN
e|3-----3-----0----0--------------3-----3-----0----0--------------------------|
B|3-----3-----0----1----------1---3-----3-----0----1--------------------------|
G|0-----0-----0----0--------0-----0-----0-----0----0--------------------------|
D|2-----2-----2----2------2-------2-----2-----2----2--------------------------|
A|3-----2-----2----3----3---------3-----2-----2----3--------------------------|
E|------------0-------------------------------0-------------------------------|

"Oh-oh-oh.. "Want your bad romance!"

------------------------------
CHORUS

------------------------------
PRE-VERSE. PART 2

------------------------------
END ON

e|------|
B|------|
G|--2---|
D|--2---|
A|--0---|
E|------|

e|------|
B|------|
G|--2---|
D|--2---|
A|--0---|
E|------|

------------------------------

************************************

x8 play indicated note 8 times
P.M. . palm mute
/ slide up
\ slide down
h hammer-on
p pull-off
~ vibrato
+ harmonic
x Mute note
b Bend

************************************
Tunning: Nashville (E A D G B E)
Song: Bad Romance
Artist: Lady Gaga
Album: The Fame Monster
Tuning: Standard, no capo

So, I’d like to say two things:
1) LADY GAGA IS FREAKING AWESOME.
2) When writing tabs, I try to explain each part the best I can. If there’s something that you
don’t get, just ask and I’ll try to explain it better. This is how I play it after hearing the
song many times.
I hope you find my tab helpful! Please rate! :)

Oh, and I wrote a tab for “Just Dance” awhile back that has been rated five stars. So you
should check that out! :)

INTRO:

“Oh, oh, oh, oh, oh, oh, oh…”
E|---------------------------------------------|
B|---------------------------------------------|
G|------7--9------10--9--9--10--9--7---------7-|
D|--10--------10----------------------9--10----|
A|---------------------------------------------|
E|---------------------------------------------|

“Caught in a bad romance.”
E|---------------------|
B|---------------------|
G|--9--9--9--9--7------|
D|-----------------10--|
A|---------------------|
E|---------------------|

You can repeat all of that again, or you can palm mute these chords:
E|-----------------|
B|-----------------|
G|-----------2--5--|
D|--3--5--2--2--5--|
A|--3--5--2--0--3--|
E|--1--3--0--------| Each chord is played about eight times.
Listen to the song for timing, you should be able to hear it.

After she says “caught in a bad romance,” the second time, play this:

E|--------|
B|-13-----|
G|-----12-|
D|--------|
A|--------|
E|--------|

There are too ways to play the next part of the intro, with the “rah rah rah’s.” I’ll
you both.

“Rah, rah, ah ah ah.
Rah, mah, rah, ma ma.
Gaga, ooh, la la.”
E|--------------------|
B|--------------------|
G|--------------------|
D|--------------------|
A|--------7--7--8--7--|
E|--5--5--------------| play that once for each of the three lines

Or you can go a couple octaves higher and play this:


E|----------12--12--13--12--|
B|--10--10------------------|
G|--------------------------|
D|--------------------------|
A|--------------------------|
E|--------------------------| that would be played once for each line, as well.

“Want your bad romance.”

E|--------------------|
B|--------------------|
G|--------------------|
D|--------------------|
A|--------------------|
E|--8--8--5--8--5--8--|

Played a few octaves higher, it would be like this:

E|--------------------------|
B|--13--13--10--13--10--13--|
G|--------------------------|
D|--------------------------|
A|--------------------------|
E|--------------------------|

You can pick whether you want to play the higher or the lower octave. I personally like
play the lower octave and then play the higher octave the second time around. Either
you’ll play this part twice.

VERSE:

Each chord is played about eight times; they’re palmed muted.

“I want your ugly. I want your disease.”
E|------------|
B|------------|
G|------------|
D|--7--10--5--|
A|--7--10--5--|
E|--5--8---3--|

“I want your everything as long as it’s free.”
E|------------|
B|------------|
G|------------|
D|--7--10--5--|
A|--7--10--5--|
E|--5--8---3--|

“I want your love.”
E|--------------|
B|--------------|
G|--------------|
D|-----------7--|
A|-----------7--|
E|--0--3--5--5--|

“Love, love, love.”
E|----------|
B|----------|
G|--9--5----|
D|--9--5--7-|
A|--7--3--7-|
E|--------5-|

“I want your love.”
E|--------------|
B|--------------|
G|--------------|
D|-----------7--|
A|-----------7--|
E|--0--3--5--5--|

“Hey!”
E|------|
B|--10--|
G|--9---|
D|--7---|
A|------|
E|------|

“I want your drama, the touch of your hand.”
E|------------|
B|------------|
G|------------|
D|--7--10--5--|
A|--7--10--5--|
E|--5--8---3--|

“I want your leather-studded kiss in the sand.”
E|------------|
B|------------|
G|------------|
D|--7--10--5--|
A|--7--10--5--|
E|--5--8---3--|

“I want your love.”
E|--------------|
B|--------------|
G|--------------|
D|-----------7--|
A|-----------7--|
E|--0--3--5--5--|

“Love, love, love.”
E|----------|
B|----------|
G|--9--5----|
D|--9--5--7-|
A|--7--3--7-|
E|--------5-|

“I want your love.”
E|--------------|
B|--------------|
G|--------------|
D|-----------7--|
A|-----------7--|
E|--0--3--5--5--|

“You know that I want you
And you know that I need you
I want it bad, your bad romance.”
E|-----|
B|-----|
G|-----|
D|--5--|
A|--5--|
E|--3--| If you listen, you’ll hear a beat being played in the background.
Play this chord along with the beat. Palm mute and play it quickly & repeatedly until
chorus starts.

CHORUS:
“I want your love and I want your revenge
You and me could write a bad romance.”
E|-----------------|
B|-----------------|
G|-----------2--5--|
D|--3--5--2--2--5--|
A|--3--5--2--0--3--|
E|--1--3--0--------|

“I want your love and all your lover’s revenge
You and me could write a bad romance.”
E|-----------------|
B|-----------------|
G|-----------2--5--|
D|--3--5--2--2--5--|
A|--3--5--2--0--3--|
E|--1--3--0--------|

I should mention that there is another way to play the chorus. You can play it as it is
above, OR you can play it like this, before going into the lead part that I will show
after this.
“I want your love and I want your revenge
You and me could write a bad romance.”
E|--------------------------|
B|--------------------------|
G|--14--12----------12------|
D|--14--12--12--14--12--10--|
A|--12--10--12--12--10--10--|
E|----------10--12------8---|

There are a few “oh’s” right after that, so you’d play:
E|---------------|
B|---------------|
G|------7--9-----|
D|--10--------10-|
A|---------------|
E|---------------| and then go back into the chorus:

“I want your love and all your lover’s revenge
You and me could write a bad romance.”
E|--------------------------|
B|--------------------------|
G|--14--12----------13------|
D|--14--12--12--14--13--10--|
A|--12--10--12--12--11--10--|
E|----------10--12------8---|
During this following part, you can play this as mentioned earlier in the chorus:
E|-----------------|
B|-----------------|
G|-----------2--5--|
D|--3--5--2--2--5--|
A|--3--5--2--0--3--|
E|--1--3--0--------| If you choose to play the chords, you will repeat this twice before
back into the verse.

OR, you can go into the lead part, which is this:
“Oh, oh, oh, oh, oh, oh, oh…”
E|---------------------------------------------|
B|---------------------------------------------|
G|------7--9------10--9--9--10--9--7---------7-|
D|--10--------10----------------------9--10----|
A|---------------------------------------------|
E|---------------------------------------------|

“Caught in a bad romance.”
E|---------------------|
B|---------------------|
G|--9--9--9--9--7------|
D|-----------------10--|
A|---------------------|
E|---------------------|

“Oh, oh, oh, oh, oh, oh, oh…”
E|---------------------------------------------|
B|---------------------------------------------|
G|------7--9------10--9--9--10--9--7---------7-|
D|--10--------10----------------------9--10----|
A|---------------------------------------------|
E|---------------------------------------------|

“Caught in a bad romance.”
“Caught in a bad romance.”
E|----------------------------|
B|---------------------13-----|
G|--9--9--9--9--7----------12-|
D|-----------------10---------|
A|----------------------------|
E|----------------------------|


Once again, you’ll play this part of the intro, the lower or higher octave, whichever
choose.

“Rah, rah, ah ah ah.
Rah, mah, rah, ma ma.
Gaga, ooh, la la.”

E|--------------------|
B|--------------------|
G|--------------------|
D|--------------------|
A|--------7--7--8--7--|
E|--5--5--------------| play that once for each of the three lines

OR

E|----------12--12--13--12--|
B|--10--10------------------|
G|--------------------------|
D|--------------------------|
A|--------------------------|
E|--------------------------| that would be played once for each line, as well.

“Want your bad romance.”

E|--------------------|
B|--------------------|
G|--------------------|
D|--------------------|
A|--------------------|
E|--8--8--5--8--5--8--|

Played a few octaves higher, it would be like this:

E|--------------------------|
B|--13--13--10--13--10--13--|
G|--------------------------|
D|--------------------------|
A|--------------------------|
E|--------------------------|

VERSE:

You can repeat the chords from the previous verse, or you can play this lead part. If
listen closely you’ll hear it in the song.


“I want your horror. I want your design.”
E|--------------------5--|
B|--------------5--5-----|
G|--5--5--5--5-----------|
D|-----------------------|
A|-----------------------|
E|-----------------------|

“Cause you’re a criminal and as long as you’re mine, I want your--”
E|--------------------------|
B|--------------5--5-----6--|
G|--5--5--5--5--------0-----|
D|--------------------------|
A|--------------------------|
E|--------------------------|

“Love.”
E|----|
B|----|
G|----|
D|-7--|
A|-7--|
E|-5--|

“Love, love, love.”
E|----------|
B|----------|
G|--9--5----|
D|--9--5--7-|
A|--7--3--7-|
E|--------5-|

“I want your love.”
E|--------------|
B|--------------|
G|--------------|
D|-----------7--|
A|-----------7--|
E|--0--3--5--5--|


“I want your psycho, your vertical stick.”
E|--------------------5--|
B|--------------5--5-----|
G|--5--5--5--5-----------|
D|-----------------------|
A|-----------------------|
E|-----------------------|

“Want you in my room when your baby is sick, I want your--”
E|--------------------------|
B|--------------5--5-----6--|
G|--5--5--5--5--------0-----|
D|--------------------------|
A|--------------------------|
E|--------------------------|

“Love.”
E|----|
B|----|
G|----|
D|-7--|
A|-7--|
E|-5--|

“Love, love, love.”
E|----------|
B|----------|
G|--9--5----|
D|--9--5--7-|
A|--7--3--7-|
E|--------5-|

“I want your love.”
E|--------------|
B|--------------|
G|--------------|
D|-----------7--|
A|-----------7--|
E|--0--3--5--5--|


“You know that I want you
And you know that I need you
I want it bad, your bad romance.”
E|-----|
B|-----|
G|-----|
D|--5--|
A|--5--|
E|--3--| If you listen, you’ll hear a beat being played in the background.
Play this chord along with the beat. Palm mute and play it quickly & repeatedly until
chorus starts.


CHORUS:
“I want your love and I want your revenge
You and me could write a bad romance.”
E|-----------------|
B|-----------------|
G|-----------2--5--|
D|--3--5--2--2--5--|
A|--3--5--2--0--3--|
E|--1--3--0--------|

“I want your love and all your lover’s revenge
You and me could write a bad romance.”
E|-----------------|
B|-----------------|
G|-----------2--5--|
D|--3--5--2--2--5--|
A|--3--5--2--0--3--|
E|--1--3--0--------|

OR, play the chorus like this:

“I want your love and I want your revenge
You and me could write a bad romance.”
E|--------------------------|
B|--------------------------|
G|--14--12----------12------|
D|--14--12--12--14--12--10--|
A|--12--10--12--12--10--10--|
E|----------10--12------8---|

There are a few “oh’s” right after that, so you’d play:
E|---------------|
B|---------------|
G|------7--9-----|
D|--10--------10-|
A|---------------|
E|---------------| and then go back into the chorus:

“I want your love and all your lover’s revenge
You and me could write a bad romance.”
E|--------------------------|
B|--------------------------|
G|--14--12----------13------|
D|--14--12--12--14--13--10--|
A|--12--10--12--12--11--10--|
E|----------10--12------8---|

During this following part, you can play this as mentioned earlier in the chorus:

E|-----------------|
B|-----------------|
G|-----------2--5--|
D|--3--5--2--2--5--|
A|--3--5--2--0--3--|
E|--1--3--0--------| If you choose to play the chords, you will repeat this twice before
back into the verse.

OR, you can go into the lead part, which is this:
“Oh, oh, oh, oh, oh, oh, oh…”
E|---------------------------------------------|
B|---------------------------------------------|
G|------7--9------10--9--9--10--9--7---------7-|
D|--10--------10----------------------9--10----|
A|---------------------------------------------|
E|---------------------------------------------|

“Caught in a bad romance.”
E|---------------------|
B|---------------------|
G|--9--9--9--9--7------|
D|-----------------10--|
A|---------------------|
E|---------------------|

“Oh, oh, oh, oh, oh, oh, oh…”
E|---------------------------------------------|
B|---------------------------------------------|
G|------7--9------10--9--9--10--9--7---------7-|
D|--10--------10----------------------9--10----|
A|---------------------------------------------|
E|---------------------------------------------|

“Caught in a bad romance.”
E|----------------------------|
B|---------------------13-----|
G|--9--9--9--9--7----------12-|
D|-----------------10---------|
A|----------------------------|
E|----------------------------|


“Rah, rah, ah ah ah.
Rah, mah, rah, ma ma.
Gaga, ooh, la la.”

E|--------------------|
B|--------------------|
G|--------------------|
D|--------------------|
A|--------7--7--8--7--|
E|--5--5--------------| play that once for each of the three lines

Or you can go a couple octaves higher and play this:

E|----------12--12--13--12--|
B|--10--10------------------|
G|--------------------------|
D|--------------------------|
A|--------------------------|
E|--------------------------| that would be played once for each line, as well.

“Want your bad romance.”

E|--------------------|
B|--------------------|
G|--------------------|
D|--------------------|
A|--------------------|
E|--8--8--5--8--5--8--|

Played a few octaves higher, it would be like this:

“Want your bad romance.”
E|--------------------------|
B|--13--13--10--13--10--13--|
G|--------------------------|
D|--------------------------|
A|--------------------------|
E|--------------------------|

BRIDGE:

“Walk, walk, fashion baby…”
E|-----|
B|-----|
G|-----|
D|--5--|
A|--5--|
E|--3--| Play this through the whole bridge, until it gets to this part:

Play each chord once and let it ring out until you go to the next chord.
“I want your love and I want your revenge.
I want your love. I don’t wanna be friends.”
E|-----------------|
B|-----------------|
G|-----------2--5--|
D|--3--5--2--2--5--|
A|--3--5--2--0--3--|
E|--1--3--0--------|

"J’veux ton amour, et je veux ton ravanche
J’veux ton amour. I don’t wanna be friends.”
E|-----------------|
B|-----------------|
G|-----------2--5--|
D|--3--5--2--2--5--|
A|--3--5--2--0--3--|
E|--1--3--0--------|

Start palm muting the chords, playing each about eight times:
“I don’t wanna be friends.
I don’t wanna be friends.
Want your bad romance.”
E|-----------------|
B|-----------------|
G|-----------2--5--|
D|--3--5--2--2--5--|
A|--3--5--2--0--3--|
E|--1--3--0--------| You play this once, and then begin to play it again. But you would
halfway through after the E power chord and when it gets to this part:

“WANT YOUR BAD ROMANCE!”
E|--------------------------|
B|--13--13--10--13--10--13--|
G|--------------------------|
D|--------------------------|
A|--------------------------|
E|--------------------------|

CHORUS:
“I want your love and I want your revenge
You and me could write a bad romance.”
E|-----------------|
B|-----------------|
G|-----------2--5--|
D|--3--5--2--2--5--|
A|--3--5--2--0--3--|
E|--1--3--0--------|

“I want your love and all your lover’s revenge
You and me could write a bad romance.”
E|-----------------|
B|-----------------|
G|-----------2--5--|
D|--3--5--2--2--5--|
A|--3--5--2--0--3--|
E|--1--3--0--------|

OR, play the chorus like this:

“I want your love and I want your revenge
You and me could write a bad romance.”
E|--------------------------|
B|--------------------------|
G|--14--12----------12------|
D|--14--12--12--14--12--10--|
A|--12--10--12--12--10--10--|
E|----------10--12------8---|

There are a few “oh’s” right after that, so you’d play:
E|---------------|
B|---------------|
G|------7--9-----|
D|--10--------10-|
A|---------------|
E|---------------| and then go back into the chorus:

“I want your love and all your lover’s revenge
You and me could write a bad romance.”
E|--------------------------|
B|--------------------------|
G|--14--12----------13------|
D|--14--12--12--14--13--10--|
A|--12--10--12--12--11--10--|
E|----------10--12------8---|

During this part with the “oh, oh, oh’s” you can play this:
E|-----------------|
B|-----------------|
G|-----------2--5--|
D|--3--5--2--2--5--|
A|--3--5--2--0--3--|
E|--1--3--0--------| If you choose to play the chords, you will repeat this twice.

Or you can play the lead part,

“Oh, oh, oh, oh, oh, oh, oh…”
E|---------------------------------------------|
B|---------------------------------------------|
G|------7--9------10--9--9--10--9--7---------7-|
D|--10--------10----------------------9--10----|
A|---------------------------------------------|
E|---------------------------------------------|

“Caught in a bad romance.”
E|-----------------------|
B|-----------------------|
G|--9--9--9--9--7--------|
D|-----------------10----|
A|-----------------------|
E|-----------------------|

“Oh, oh, oh, oh, oh, oh, oh…”
E|---------------------------------------------|
B|---------------------------------------------|
G|------7--9------10--9--9--10--9--7---------7-|
D|--10--------10----------------------9--10----|
A|---------------------------------------------|
E|---------------------------------------------|

“Caught in a bad romance.”
E|----------------------|
B|----------------------|
G|--9--9--9--9--7-------|
D|-----------------10---|
A|----------------------|
E|----------------------|

If you want, whenever she says, “want your bad romance,” you can play:
E|--------------------------|
B|--13--13--10--13--10--13--|
G|--------------------------|
D|--------------------------|
A|--------------------------|
E|--------------------------|

Once again, two ways to play during the “rah rah ah ah ah” thing at the end. Lower
or higher octave. Here’s both of them again:
End with this:

“Rah, rah, ah ah ah.
Rah, mah, rah, ma ma.
Gaga, ooh, la la.”
E|--------------------|
B|--------------------|
G|--------------------|
D|--------------------|
A|--------7--7--8--7--|
E|--5--5--------------| play that once for each of the three lines

Or you can go a couple octaves higher and play this:
E|----------12--12--13--12--|
B|--10--10------------------|
G|--------------------------|
D|--------------------------|
A|--------------------------|
E|--------------------------| that would be played once for each line, as well.

“Want your bad romance.”
E|--------------------|
B|--------------------|
G|--------------------|
D|--------------------|
A|--------------------|
E|--8--8--5--8--5--8--|

Played a few octaves higher, it would be like this:
E|--------------------------|
B|--13--13--10--13--10--13--|
G|--------------------------|
D|--------------------------|
A|--------------------------|
E|--------------------------|

That's it! :) enjoy!
Tunning: Standard (E A D G B e)
I left out some parts of the original song because this sounds better for
acoustic. This tab is played in standard tuning.


[ch]F[/ch]
Oh-oh-oh-oh-oooh!
[ch]G[/ch]
Oh-oh-oooh-oh-oh!
[ch]Am[/ch] [ch]C[/ch]
Caught in a bad romance
[ch]F[/ch]
Oh-oh-oh-oh-oooh!
[ch]G[/ch]
Oh-oh-oooh-oh-oh!
[ch]E[/ch] [ch]Am[/ch]
Caught in a bad romance


[ch]Am[/ch]
Rah-rah-ah-ah-ah!
[ch]C[/ch]
Rom-mah-rom-mum-mah!
[ch]F[/ch]
GaGa-oo-la-la!
[ch]C[/ch] [ch]G[/ch]
Want your bad romance
[ch]Am[/ch]
Rah-rah-ah-ah-ah!
[ch]C[/ch]
Rom-mah-rom-mum-mah!
[ch]F[/ch]
GaGa-oo-la-la!
[ch]C[/ch] [ch]G[/ch]
Want your bad romance


[ch]Am[/ch] [ch]C[/ch] [ch]F[/ch]
I want your ugly, I want your disease
[ch]Am[/ch] [ch]C[/ch] [ch]G[/ch]
I want your everything as long as it's free
[ch]Am[/ch]
I want your love
[ch]C[/ch]
Love-love-love
[ch]F[/ch] [ch]C[/ch] [ch]G[/ch]
I want your love


[ch]Am[/ch] [ch]C[/ch] [ch]F[/ch]
I want your drama, the touch of your head
[ch]Am[/ch] [ch]C[/ch] [ch]G[/ch]
I want your leather studded kiss in the scene
[ch]Am[/ch]
I want your love
[ch]C[/ch]
Love-love-love
[ch]F[/ch] [ch]C[/ch] [ch]G[/ch]
I want your love


[ch]F[/ch] [ch]G[/ch]
I want your loving and I want your revenge
[ch]Am[/ch] [ch]C[/ch]
You and me could write a bad romance
[ch]F[/ch] [ch]G[/ch]
I want your loving all your love is revenge
[ch]E[/ch] [ch]C[/ch]
You and me could write a bad romance


[ch]F[/ch]
Oh-oh-oh-oh-oooh!
[ch]G[/ch]
Oh-oh-oooh-oh-oh!
[ch]Am[/ch] [ch]C[/ch]
Caught in a bad romance
[ch]F[/ch]
Oh-oh-oh-oh-oooh!
[ch]G[/ch]
Oh-oh-oooh-oh-oh!
[ch]E[/ch] [ch]Am[/ch]
Caught in a bad romance


[ch]Am[/ch]
Rah-rah-ah-ah-ah!
[ch]C[/ch]
Rom-mah-rom-mum-mah!
[ch]F[/ch]
GaGa-oo-la-la!
[ch]C[/ch] [ch]G[/ch]
Want your bad romance


[ch]Am[/ch] [ch]C[/ch] [ch]F[/ch]
I want your horror, I want your design
[ch]Am[/ch] [ch]C[/ch] [ch]G[/ch]
'Cause you're a criminal as long as your mine
[ch]Am[/ch]
I want your love
[ch]C[/ch]
Love-love-love
[ch]F[/ch] [ch]C[/ch] [ch]G[/ch]
I want your love


[ch]Am[/ch] [ch]C[/ch] [ch]F[/ch]
I want your psycho, your vertical stick
[ch]Am[/ch] [ch]C[/ch] [ch]G[/ch]
Want you in my rear window, baby you're sick
[ch]Am[/ch]
I want your love
[ch]C[/ch]
Love-love-love
[ch]F[/ch] [ch]C[/ch] [ch]G[/ch]
I want your love


[ch]F[/ch] [ch]G[/ch]
I want your loving and I want your revenge
[ch]Am[/ch] [ch]C[/ch]
You and me could write a bad romance
[ch]F[/ch] [ch]G[/ch]
I want your loving all your love is revenge
[ch]E[/ch] [ch]C[/ch]
You and me could write a bad romance


[ch]F[/ch]
Oh-oh-oh-oh-oooh!
[ch]G[/ch]
Oh-oh-oooh-oh-oh!
[ch]Am[/ch] [ch]C[/ch]
Caught in a bad romance
[ch]F[/ch]
Oh-oh-oh-oh-oooh!
[ch]G[/ch]
Oh-oh-oooh-oh-oh!
[ch]E[/ch] [ch]Am[/ch]
Caught in a bad romance


[ch]Am[/ch]
Rah-rah-ah-ah-ah!
[ch]C[/ch]
Rom-mah-rom-mum-mah!
[ch]F[/ch]
GaGa-oo-la-la!
[ch]C[/ch] [ch]G[/ch]
Want your bad romance
Tunning: Standard (E A D G B e)
"Oh..."
----0---1-0-1-0---------0-0-0-0----|----0---1-0-1-0---------0-0-0-0----|
1-3---1---------3-0-1-3---------3-1|1-3---1---------3-0-1-3---------3-1|
-----------------------------------|-----------------------------------|
-----------------------------------|-----------------------------------|
-----------------------------------|-----------------------------------|
-----------------------------------|-----------------------------------|

"Ra ra ah ah ah...
----0-0-1-0-----0-0-1-0-----0-0-1-0------------|----0-0-1-0-----0-0-1-0-----0-0-1-0------------|
------------------------------------1-1---1---1|------------------------------------1-1---1---1|
2-2---------2-2---------2-2-------------2---2--|2-2---------2-2---------2-2-------------2---2--|
-----------------------------------------------|-----------------------------------------------|
-----------------------------------------------|-----------------------------------------------|
-----------------------------------------------|-----------------------------------------------|

"I want your ugly..."
---------------------|-----------------------|--------0------------|
------------1--------|--------------1--------|----------1-------2-2|
0-2-0-2-2-2---2-0-2-0|2-2-0-2-0-2-0---2-0-2-0|--0-2-2-----2---0----|
---------------------|-----------------------|2-------------2------|
---------------------|-----------------------|---------------------|
---------------------|-----------------------|---------------------|

"I want your drama..."
---------------------|-----------------------|--------0------------|
1-1---1-1---1-1-1-1--|1-1---1---1---1--------|----------1-------2-2|
----2-----2---------0|----2---2---2---2-2-2-0|--0-2-2-----2---0----|
---------------------|-----------------------|2-------------2------|
---------------------|-----------------------|---------------------|
---------------------|-----------------------|---------------------|

"You know that I want you..."
-----------------------------------------|
-----------------------------------------|
2-2-2-2-2-2-2-2-2-2-2-2-2-2-2-2-2-2-2-2-2|
-----------------------------------------|
-----------------------------------------|
-----------------------------------------|

"I want your love..."
5-5-5-5-5-3-3-3-3---------------3------|5-5-5-5-5-3-3-3-3---------------4------|
------------------3-3-3-5-5-5-5---3-3-1|------------------3-3-3-5-5-5-5---3-3-1|
---------------------------------------|---------------------------------------|
---------------------------------------|---------------------------------------|
---------------------------------------|---------------------------------------|
---------------------------------------|---------------------------------------|

"Oh..."
----0---1-0-1-0---------0-0-0-0----|----0---1-0-1-0---------0-0-0-0----|
1-3---1---------3-0-1-3---------3-1|1-3---1---------3-0-1-3---------3-1|
-----------------------------------|-----------------------------------|
-----------------------------------|-----------------------------------|
-----------------------------------|-----------------------------------|
-----------------------------------|-----------------------------------|

"Ra ra ah ah ah...
----0-0-1-0-----0-0-1-0-----0-0-1-0------------|
------------------------------------1-1---1---1|
2-2---------2-2---------2-2-------------2---2--|
-----------------------------------------------|
-----------------------------------------------|
-----------------------------------------------|

"I want your horror..."
---------------------|-----------------------|--------0------------|
------------1--------|--------------1--------|----------1-------2-2|
0-2-0-2-2-2---2-0-2-0|2-2-0-2-0-2-0---2-0-2-0|--0-2-2-----2---0----|
---------------------|-----------------------|2-------------2------|
---------------------|-----------------------|---------------------|
---------------------|-----------------------|---------------------|

"I want your psycho..."
---------------------|-----------------------|--------0------------|
1-1---1-1---1-1-1-1--|1-1---1---1---1--------|----------1-------2-2|
----2-----2---------0|----2---2---2---2-2-2-0|--0-2-2-----2---0----|
---------------------|-----------------------|2-------------2------|
---------------------|-----------------------|---------------------|
---------------------|-----------------------|---------------------|

"You know that I want you..."
-----------------------------------------|
-----------------------------------------|
2-2-2-2-2-2-2-2-2-2-2-2-2-2-2-2-2-2-2-2-2|
-----------------------------------------|
-----------------------------------------|
-----------------------------------------|

"I want your love..."
5-5-5-5-5-3-3-3-3---------------3------|5-5-5-5-5-3-3-3-3---------------4------|
------------------3-3-3-5-5-5-5---3-3-1|------------------3-3-3-5-5-5-5---3-3-1|
---------------------------------------|---------------------------------------|
---------------------------------------|---------------------------------------|
---------------------------------------|---------------------------------------|
---------------------------------------|---------------------------------------|

"Oh..."
----0---1-0-1-0---------0-0-0-0----|----0---1-0-1-0---------0-0-0-0----|
1-3---1---------3-0-1-3---------3-1|1-3---1---------3-0-1-3---------3-1|
-----------------------------------|-----------------------------------|
-----------------------------------|-----------------------------------|
-----------------------------------|-----------------------------------|
-----------------------------------|-----------------------------------|

"Ra ra ah ah ah..."
----0-0-1-0-----0-0-1-0-----0-0-1-0------------|----0-0-1-0-----0-0-1-0-----0-0-1-0------------|
------------------------------------1-1---1---1|------------------------------------1-1---1---1|
2-2---------2-2---------2-2-------------2---2--|2-2---------2-2---------2-2-------------2---2--|
-----------------------------------------------|-----------------------------------------------|
-----------------------------------------------|-----------------------------------------------|
-----------------------------------------------|-----------------------------------------------|

"Walk, walk fashion baby..."
-------------------------|-------------------------|
-------------------------|-------------------------|
-------------------------|-------------------------|
5-5-5-5-5-5-5-5-5-5-5-5-5|5-5-5-5-5-5-5-5-5-5-5-5-5|
-------------------------|-------------------------|
-------------------------|-------------------------|

"Walk, walk fashion baby..."
-------------------------|-------------------------|
-------------------------|-------------------------|
-------------------------|-------------------------|
5-5-5-5-5-5-5-5-5-5-5-5-5|5-5-5-5-5-5-5-5-5-5-5-5-5|
-------------------------|-------------------------|
-------------------------|-------------------------|

"I want your love..."
----------------------------0-0-0-0----|----------------------------0-0-0-0-0----|
1-0-----1-1-0-0----1-0--------------3-1|1-0-----1-1-0-0-----1-0---------------3-1|
----0-2---------0-------0-2------------|----0-2---------0-------0-2--------------|
------------------2--------------------|------------------2----------------------|
---------------------------------------|-----------------------------------------|
---------------------------------------|-----------------------------------------|

"I don't wanna be friends..."
0-0-0-0-3---8-8-8-8-7-5-3-1-8-8-5-8-5-8|0-0-0-0-----8-8-5-8-5-8|
----------1----------------------------|--------3-1------------|
---------------------------------------|-----------------------|
---------------------------------------|-----------------------|
---------------------------------------|-----------------------|
---------------------------------------|-----------------------|

"I want your love..."
5-5-5-5-5-5-3-3-3-3---------------8-7-5-3|5-5-5-5-5-5-3-3-3-3-----------4------|
--------------------3-3-3-5-5-5-5--------|--------------------3-3-3-5-5---5-3-5|
-----------------------------------------|-------------------------------------|
-----------------------------------------|-------------------------------------|
-----------------------------------------|-------------------------------------|
-----------------------------------------|-------------------------------------|

"Oh..."
----0---1-0-1-0---------0-0-0-0----|----0---1-0-1-0---------0-0-0-0----|
1-3---1---------3-0-1-3---------3-1|1-3---1---------3-0-1-3---------3-1|
-----------------------------------|-----------------------------------|
-----------------------------------|-----------------------------------|
-----------------------------------|-----------------------------------|
-----------------------------------|-----------------------------------|

"Ra ra ah ah ah..."
----0-0-1-0-----0-0-1-0-----0-0-1-0------------|
------------------------------------1-1---1---1|
2-2---------2-2---------2-2-------------2---2--|
-----------------------------------------------|
-----------------------------------------------|
-----------------------------------------------|
Song info
Bad Romance
Lady Gaga
2009
  • Electronic
  • Hip Hop
  • Pop
  • Electro
  • Hip Hop
  • Synth-pop
Similar songs
To France - Mike Oldfield
Kings and queens - Ava Max
Bulletproof - La Roux
Eiszeit - Eisbrecher

Hi! Hope you enjoy backing track experience.
If you want to help us in the development of the project, feel free to donate!