Poker Face - Lady Gaga
00:00 / 00:00
Tabs and lyrics
Tunning: Standard (E A D G B e)
-------------------------------------------------------------------------------
Poker Face – Lady Gaga
-------------------------------------------------------------------------------
Tabbed by: dapinayroxtar31

Tuning: standard

[Intro/Verse] (x7) “I wanna hold em...”
e|-------------------------------------------------|-------------------------|
B|-------------------------------------------------|-------------------------|
G|-------------------------------------------------|-------------------------|
D|---6-6-------------6-6-----4-4-------------------|-------------------------|
A|-----------6-6---------7-7-----------------------|-------------------------|
E|-------4-4-----4-4-------------2-2---------------|-------------------------|


[Pre-Chorus] “Luck and intuition...”
e|----------------|----------------|----------------|----------------|-------|
B|----------------|----------------|----------------|----------------|-------|
G|----------------|---8------------|----------------|---8------------|-------|
D|---6------------|---8------------|---6------------|---8------------|-------|
A|---6------------|---6------------|---6------------|---6------------|-------|
E|---4------------|----------------|---4------------|----------------|-------|
(x16) (x16) (x16) (x16)


e|----------------|----------------|-----------------------------------------|
B|----------------|----------------|-----------------------------------------|
G|----------------|---8------------|-----------------------------------------|
D|---6------------|---8------------|-----------------------------------------|
A|---6------------|---6------------|-----------------------------------------|
E|---4------------|----------------|-----------------------------------------|
(x16) (x9)

[Chorus]
e|----------------|----------------|----------------|------------------------|
B|----------------|----------------|----------------|------------------------|
G|----------------|---9------------|----------------|------------------------|
D|---6------------|---9------------|---9------------|---8--------------------|
A|---6------------|---7------------|---9------------|---8--------------------|
E|---4------------|----------------|---7------------|---6--------------------|
(x8) (x8) (x8) (x8)

e|----------------|----------------|----------------|------------------------|
B|----------------|----------------|----------------|------------------------|
G|----------------|---9------------|----------------|------------------------|
D|---6------------|---9------------|---9------------|---8--------------------|
A|---6------------|---7------------|---9------------|---8--------------------|
E|---4------------|----------------|---7------------|---6--------------------|
(x8) (x8) (x8) (x8)

Intro/Verse (x4)

[Pre-Chorus]

[Chorus]

[Intro/Verse] (x2)

[Bridge] (x6)
e|-------------------------|-------------------------------------------------|
B|-------------------------|-------------------------------------------------|
G|-------------------------|-------------------------------------------------|
D|-------------------------|-------------------------------------------------|
A|-----6\5-----6-5-6-5-----|-------------------------------------------------|
E|---4-----7-4---------2---|-------------------------------------------------|

Chorus (till the end)


************************************

| \ Slide down

************************************
Tunning: Standard (E A D G B e)
[Intro]
(music part A)
E E E E E E E E E E E E E E E E
e|---------------------------|---------------------------|
B|---------------------------|---------------------------|
G|*--------------------------|--------------------------*|
D|*--6--6--------------------|--6--6--------4--4--------*|
A|---------------6--6--------|--------7------------------|
E|---------4--4--------4--4--|-----------7--------2--2---|

(Music part B)
E E E E E E E E E E E E E E E E
e|---------------------------|--------------------------|
B|---------------------------|--------------------------|
G|*--4--4--4--4--4--4--4--4--|--4--4--4--4--6--4--6--4--|
D|*--------------------------|--------------------------|
A|---------------------------|--------------------------|
E|---------------------------|--------------------------|

E E E E E E E E E E E E E E E E
e|--------------------------|---------------------------|
B|--4--4--4--4--4--4--4--4--|--4--4--4--4--5--4--5--4---|
G|--------------------------|--------------------------*|
D|--------------------------|--------------------------*|
A|--------------------------|---------------------------|
E|--------------------------|---------------------------|

[Verse]
(Music part A is played twice alone - after that twice with part B)
I wanna hold em' like they do in Texas Plays.
Fold em' let em' hit me raise it baby stay with me (I love it).
Luck and intuition play the cards with Spades to start,
and after he's been hooked I'll play the one that's on his heart.

[Bridge]
(Music part A and B are played together 4 times)
Oh, oh, oh, oh, ohh-oh-uh-ohh-uh-oh
I'll get him hot, show him what I've got
Oh, oh, oh, oh, ohh-oh-uh-ohh-uh-oh,
I'll get him hot, show him what I've got

[Refrain]
G#m E
Can't read my, can't read my!
B
No he can't read my poker face.
F#
(She's got to love nobody)
G#m E
Can't read my, can't read my!
B
No he can't read my poker face.
F#
(She's got to love nobody)

[Refrain]
(Music part A are played twice):
Po-po-po-poker face, po-po-poker face.
Po-po-po-poker face, po-po-poker face.

[Verse]
(Music part A is played twice alone - after that twice with part B):
I wanna roll with him a hard pair we will be.
A little gambling is fun when you're with me (I love it).
Russian Roulette is not the same without a gun,
and baby when it's love if it's not rough it isn't fun, fun!

[Bridge]
(Music part A and B are played together 4 times):
Oh, oh, oh, oh, ohh-oh-uh-ohh-uh-oh
I'll get him hot, show him what I've got
Oh, oh, oh, oh, ohh-oh-uh-ohh-uh-oh,
I'll get him hot, show him what I've got

[Refrain]
G#m E
Can't read my, can't read my!
B
No he can't read my poker face.
F#
(She's got to love nobody)
G#m E
Can't read my, can't read my!
B
No he can't read my poker face.
F#
(She's got to love nobody)

[Refrain]
(Music part A are played twice)
Po-po-po-poker face, po-po-poker face.
Po-po-po-poker face, po-po-poker face.

(Music part C)
Q. E Q Q Q. E E E E E
e|-----------------------|-------------------------|
B|----------4--3---------|---------4--3--4--3------|
G|*-----------------4----|------------------------*|
D|*--6-------------------|--6------------------4--*|
A|-----------------------|-------------------------|
E|-----------------------|-------------------------|

C-part (Music part C and A are played together 4 times):
I won't tell you that I love you
kiss or hug you
'cause I'm bluffin' with my muffin.
I'm not lying I'm just stunnin' with my love-glue-gunning
just like a chick in the casino.
Take your bank before I pay you out.
I promise this, promise this
Check this hand cause I'm marvelous!

[Refrain] (x3)
G#m E
Can't read my, can't read my!
B
No he can't read my poker face.
F#
(She's got to love nobody)
G#m E
Can't read my, can't read my!
B
No he can't read my poker face.
F#
(She's got to love nobody)

[Refrai] (x3)
G#m E
Po-po-po-poker face, po-po-poker face.
B F#
Po-po-po-poker face, po-po-poker face.
G#m
(Muh muh muh mah)



************************************

| * Natural harmonic

************************************
Tunning: Standard (E A D G B e)
Song: Pokerface
Artist: Lady GaGa
Tuning: Standard

Intro:

Rhythm guitar
----------------------------|--------------------------|
----------------------------|--------------------------|
----------------------------|--------------------------| (x4)
-----6--6-------------------|-6--6--------4--4---------|
-----------------6--6-------|-------7------------------|
-----------4--4--------4--4-|----------7--------2--2---|


Lead guitar
----------------------------|---------------------------|
----------------------------|---------------------------|
----------------------------|---8(x11)--9h8--9h8--------| (x2)
----9(x11)--11h9--11h9------|---------------------------|
----------------------------|---------------------------|
----------------------------|---------------------------|


Verse 1
Verse 2

Rhythm guitar
----------------------------|--------------------------|
----------------------------|--------------------------|
----------------------------|--------------------------| (x4)
-----6--6-------------------|-6--6--------4--4---------|
-----------------6--6-------|-------7------------------|
-----------4--4--------4--4-|----------7--------2--2---|


Lead guitar
----------------------------|-------------------------------------|
----------------------------|--9----------------------------------|
----------------------------|-----8--7h8--9--8--7h8--9--8---------|
---9b(x12)------9b(x12)-----|------------------------------9--8b--|
----------------------------|-------------------------------------|
----------------------------|-------------------------------------|


Pre Chorus

Rhythm guitar
----------------------------|--------------------------|
----------------------------|--------------------------|
----------------------------|--------------------------| (x3)
-----6--6-------------------|-6--6--------4--4---------|
-----------------6--6-------|-------7------------------|
-----------4--4--------4--4-|----------7--------2--2---|


Lead guitar

----------------------------|
----------------------------|
----------------------------|
--------9b(x12)-------------|
----------------------------|
----------------------------|


---------------------------------------|----------------------------|
---------------------------------------|----------------------------|
-------8--7b---------8--7h8--7---------|----------------------------| (x2)
---6b---------9--6b-------------4--6---|--------9b(x12)-------------|
---------------------------------------|----------------------------|
---------------------------------------|----------------------------|


Chorus:

Rhythm guitar
----------------------------------------------------|
----------------------------------------------------|
----------------9-----------------------------------| (x2)
-----6----------9---------9----------8--------------|
-----6----------7---------9----------8--------------|
-----4--------------------7----------6--------------|


Lead guitar
---------------------------------------------------------------------------|
---------------------------------------------------------------------------|
---16-15------16-15--------------------------------------------------------|
----------16---------16--16-16-16--14-13-14s16-16b-------------------------|
----------------------------------------------------13h14-13----13h14-13---|
-------------------------------------------------------------14----------14|


---------------------------------------------------------------------------|
---------------------------------------------------------------------------|
---16-15------16-15--------------------------------------------------------|
----------16---------16--16-16-16--14-13-14s16-16b-------------------------|
----------------------------------------------------13h14-13----13h14-13---|
-------------------------------------------------------------14----------14|


Rhythm guitar
----------------------------|--------------------------|
----------------------------|--------------------------|
----------------------------|--------------------------| (x2)
-----6--6-------------------|-6--6--------4--4---------|
-----------------6--6-------|-------7------------------|
-----------4--4--------4--4-|----------7--------2--2---|


Lead guitar
----------------------------|--------------------------|
----------------------------|--------------------------|
----------------------------|--------------------------|
--------9b(x12)-------------|-------9b(12)-------------|
----------------------------|--------------------------|
----------------------------|--------------------------|


Bridge

Rhythm guitar
----------------------------|--------------------------|
----------------------------|--------------------------|
----------------------------|--------------------------| (x4)
-----6--6-------------------|-6--6--------4--4---------|
-----------------6--6-------|-------7------------------|
-----------4--4--------4--4-|----------7--------2--2---|


Lead guitar
---------------------------------------|
---------------------------------------|
-------8--7b---------8--7h8--7---------| (x6)
---6b---------9--6b-------------4------|
---------------------------------------|
---------------------------------------|


Chorus:

Rhythm guitar
----------------------------------------------------|
----------------------------------------------------|
----------------9-----------------------------------| (x8)
-----6----------9---------9----------8--------------|
-----6----------7---------9----------8--------------|
-----4--------------------7----------6--------------|


Lead guitar
---------------------------------------------------------------------------|
---------------------------------------------------------------------------|
---16-15------16-15--------------------------------------------------------|(x8)
----------16---------16--16-16-16--14-13-14s16-16b-------------------------|
----------------------------------------------------13h14-13----13h14-13---|
-------------------------------------------------------------14----------14|


Outro:

Rhythm guitar
----------------------------|--------------------------|
----------------------------|--------------------------|
----------------------------|--------------------------| (x6)
-----6--6-------------------|-6--6--------4--4---------|
-----------------6--6-------|-------7------------------|
-----------4--4--------4--4-|----------7--------2--2---|


Lead guitar
----------------------------|--------------------------|
----------------------------|--------------------------|
----------------------------|--------------------------| (x6)
--------9b(x12)-------------|-------9b(12)-------------|
----------------------------|--------------------------|
----------------------------|--------------------------|

Both guitars

-----------------------------|
-----------------------------|
-----------------------------|
---44--5--6------------------|
---44--5--6------------------|
---22--3--4------------------|


End
Song info
Poker Face
Lady Gaga
2008
  • Electronic
  • Pop
  • Electro
  • House
Alternative tracks
Similar songs
Day Of The Dead - Hollywood Undead
Grenade - Bruno Mars
Troubles Coming - Royal Blood
Just Dance - Lady Gaga
Everybody Backstreets Back - Backstreet Boys

Hi! Hope you enjoy backing track experience.
If you want to help us in the development of the project, feel free to donate!