Dazed And Confused - Led Zeppelin
00:00 / 00:00
Tabs and lyrics
Tunning: Standard (E A D G B e)
Led zeppelin - Dazed and confused


[Intro]

e|--------------------------------------|
B|--------------------------------------|
G|--------------------------------------|
D|---------5-4-3-2----------------------|
A|-------------------------5-4-3-2-1----|
E|--0----------------0------------------|

e|---------------------------------------------------------------------------|
B|---------------------------------------------------------------------------|
G|---------------------------------------------------------------------------|
D|---2---12--11--10--9-9--2--------------------------------------------------|
A|---2---10--9---8---7-7--2--12--11--10--9-9---------------------------------|
E|---0--------------------0--10--9---8---7-7---------------------------------|(x2)

e|--------------------------------------------------------------------|-------|
B|--------------------------------------------------------------------|-------|
G|--------------------------------------------------------------------|-------|
D|------------7h9-----------------7h9----------------7h9-------------2|-2-----|
A|---9-9--7h9-----7h9--9-9-9--7h9-----7h9-9-9-9--7h9-----7h9--9-9-9--2|-2-----|
E|---7-7---------------7-7-7--------------7-7-7---------------7-7-7--0|-0-----|


[Solo]

e|--------------------------------------------------|
B|--------------------------------------------------|
G|--------------12------------------------12-14-12--| this is played twice
D|--------12-14----14-12------------12-14-----------|
A|--12-14----------------14---12-14-----------------|
E|--------------------------------------------------|

Then
e|--------------------------------------------------|
B|--15--14--12--10--8--------7-------5--------------|
G|------------------10^(12)r-9^(10)r-7^(9)r---------|
D|--------------------------------------------------|
A|--------------------------------------------------|
E|--------------------------------------------------|


e|--------------------------------------------------|
B|---8--------7-------3------2----------------------|
G|---10^(12)r-9^(10)r-5^(7)r-4^(6)------------------|
D|--------------------------------------------------|
A|--------------------------------------------------|
E|--------------------------------------------------|

e|--------------------------------------------------|
B|-------12h15-------12h15-------12h15-------12h15--|
G|--12h14------12h14-------12h14-------12h14--------|
D|--------------------------------------------------|
A|--------------------------------------------------|
E|--------------------------------------------------|

e|--15p14p12-15p14p12-15p14p12-15p14p12-15p14p12----|
B|--------------------------------------------------|
G|--------------------------------------------------|
D|--------------------------------------------------|
A|--------------------------------------------------|
E|--------------------------------------------------|


e|-12h15^(17)r-15-12h15p12----------------------------------------------------|
B|------------------------15^(17)r-15-12h15p12--------------------------------|
G|--------------------------------------------14^(16)r-14-12h14p12------------|
D|----------------------------------------------------------------11-12-14-12-|
A|----------------------------------------------------------------------------|
E|----------------------------------------------------------------------------|

e|------------------------------------------------------------------------------|
B|------------------------------------------------------------------------------|
G|------------------------------------------------------------------------------|
D|14-14^(16)-14-12-11-12--------------------------------------------------------|
A|----------------------14p12p10-12-12^(14)r10-12-12^(14)r10-12-10-12-10-12^(14)|
E|------------------------------------------------------------------------------|

e|---15p14p12-15p14p12-15p14p12-15p14p12-15p14p12-15p14p12-15p14p12-15-15^(17)-|
B|-----------------------------------------------------------------------------|
G|-----------------------------------------------------------------------------|
D|-----------------------------------------------------------------------------|
A|-10--------------------------------------------------------------------------|
E|-----------------------------------------------------------------------------|

e|--15^(17)r-15-12-10-12---------------------------------------------------|
B|----------------------12^(14)r-10-8-7h8h10-8-7---------------7-----------|
G|-----------------------------------------------9p7-------7-9-------------|
D|---------------------------------------------------9-7-9----------7-5----|
A|---------------------------------------------------------------5-7-------|
E|-------------------------------------------------------------------------|

e|--15-15-15-15h12-----12-12--|
B|----------------15----------|
G|----------------------------|
D|----------------------------|
A|----------------------------|
E|----------------------------|

e|-19^(21)r-17-15-17---------15h17-------15h17-------15h17-------15h17-------|
B|------------------17h15----------15h17-------15h17-------15h17-------15h17-|
G|---------------------------------------------------------------------------|
D|---------------------------------------------------------------------------|
A|---------------------------------------------------------------------------|
E|---------------------------------------------------------------------------|

e|--15h17-------15h17-------15--17--15--17--15--17-----|
B|--------15h17-------15h17----------------------------|
G|-----------------------------------------------------|
D|-----------------------------------------------------|
A|-----------------------------------------------------|
E|-----------------------------------------------------|

e|--19----19-------21-------21-------19----15----12----5---3------------|
B|-----17----17-17----17-17----17-17----17----15----8----5---3--2^(3)-0-|
G|----------------------------------------------------------------------|
D|----------------------------------------------------------------------|
A|----------------------------------------------------------------------|
E|----------------------------------------------------------------------|


e|----------------------------------------------------------------------|
B|----------------------------------------------------------------------|
G|-2p0h2--2p0h2--2p0h2--2p0h2--2-4-2-4--4p2p0---------------------------|
D|---------------------------------------------2p0----------------------|
A|--------------------------------------------------2p0-----------------|
E|------------------------------------------------------3p0-------------|

Arghh!

ok now just after the solo this happens

Part 7.

Play (x3)

e|--------------------|
B|--9--7--5----9--12--|
G|--9--7--6----9--12--|
D|--9--7--7----9--12--|
A|--7--5--7----7--10--|
E|--------5-----------|



************************************

| h Hammer-on
| p Pull-off
| r release
| ^ bend

************************************
Tunning: Nashville (E A D G B E)
-----------------------------------------------------------------------------
Led Zeppelin - Dazed And Confused
-----------------------------------------------------------------------------

Transcribed by Victor Ochoa
Standard Tuning

12/8 time ~~~ ~~~~~~~~~~~~~~~~~~~~~ ~~
E|------------------------|12----------------------|
B|---------------------12-|----------------------5-|
G|------------------------|------------------------|
D|------------------------|------------------------|
A|------------------------|------------------------|
E|------------------------|------------------------|

~~~~~~~~~~~~~~~~~~~~~
E|5-----------------------|------------------------|
B|------------------------|------------------------|
G|---------------------12-|12---12--12----12-------|
D|------------------------|------------------------|
A|------------------------|------------------------|
E|------------------------|------------------------|

~~~~~~~~~~~~~~~~~~~~~~~~~~~~~~~~~~~~~~~~~~~~~
E|------12----------5-----|------------------------|
B|----12----------5-----5-|------------------------|
G|------------------------|5-----------------------|
D|------------------------|------------------------|
A|------------------------|------------------------|
E|------------------------|------------------------|

~~~~~~~~~~~~~
E|------------------------|------------------------|
B|12---------12-----------|------------------------|
G|12---------12-----------|------------------------|
D|------------------------|------------------------|
A|------------------------|------------------------|
E|------------------------|----------------------0-|

E|15----14----13----12----|------------------------|
B|------------------------|15----14----13----12----|
G|------------------------|------------------------|
D|------------------------|------------------------|
A|10----9-----8-----7-----|5-----4-----3-----2-----|
E|----------------------0-|----------------------0-|

E|15----14----13----12----|------------------------|
B|------------------------|15----14----13----12----|
G|------------------------|------------------------|
D|------------------------|------------------------|
A|10----9-----8-----7-----|5-----4-----3-----2-----|
E|----------------------0-|----------------------0-|

E|------------------------|------------------------|
B|------------------------|------------------------|
G|------------------------|------------------------|
D|------------------------|------------------------|
A|10----9-----8-----7-----|5-----4-----3-----2-----|
E|----------------------0-|----------------------0-|

9/8 time
E|------------------------|------------------|
B|------------------------|------------------|
G|------------------------|------------------|
D|------------------------|------------------|
A|10----9-----8-----7-----|5-----4-----3---2-|
E|----------------------0-|------------------|

6/8 time
E|------------|------------|------------|------------|
B|------------|------------|------------|------------|
G|4-4-4---24--|4-4-4---24--|4-4-4---24--|4-4-4---24--|
D|4-4-4-24--24|4-4-4-24--24|4-4-4-24--24|4-4-4-24--24|
A|2-2-2-------|2-2-2-------|2-2-2-------|2-2-2-------|
E|------------|------------|------------|------------|

12/8 time
E|------15----14----13----|12----------------------|
B|------------------------|------15----14----13----|
G|------------------------|------------------------|
D|2-----5-----4-----3-----|2-----------------------|
A|2-----------------------|------5-----4-----3-----|
E|0---0-------------------|----0-------------------|

E|------15----14----13----|12----------------------|
B|12----------------------|------15----14----13----|
G|------------------------|------------------------|
D|------5-----4-----3-----|2-----------------------|
A|2-----------------------|------5-----4-----3-----|
E|----0-------------------|----0-------------------|

E|------15----14----13----|12----------------------|
B|12----------------------|------15----14----13----|
G|------------------------|------------------------|
D|------5-----4-----3-----|2-----------------------|
A|2-----------------------|------5-----4-----3-----|
E|----0-------------------|----0-------------------|

E|------15----14----13----|12----------------------|
B|12----------------------|------15----14----12----|
G|------------------------|------------------------|
D|------5-----4-----3-----|2-----------------------|
A|2-----------------------|------5-----4-----2-----|
E|----0-------------------|----0-------------------|

6/8 time
E|------------|------------|------------|------------|
B|------------|------------|------------|------------|
G|4-4-4---24--|4-4-4---24--|4-4-4---24--|4-4-4---24--|
D|4-4-4-24--24|4-4-4-24--24|4-4-4-24--24|4-4-4-24--24|
A|2-2-2-------|2-2-2-------|2-2-2-------|2-2-2-------|
E|------------|------------|------------|------------|

(w/ bow)
E|------------|------------|------------|------------|
B|------------|------------|------------|------------|
G|44442-------|------------|------------|------------|
D|44442-------|------------|------------|------------|
A|22220-------|------------|------------|------------|
E|------------|3---0-------|3---0-------|3---0-------|

E|------------|------------|------------|------------|
B|------------|------------|------------|------------|
G|------------|------------|------------|------------|
D|------------|------------|------------|------------|
A|------------|------------|------------|------------|
E|7---10------|--7---------|7---10------|----------12|

E|------------|------------|------------|------------|
B|------------|------------|------------|------------|
G|------------|------------|------------|------------|
D|------------|------------|------------|------------|
A|------------|------------|------------|------------|
E|14-12101210-|----------12|14-12101210-|------------|

E|------------|------------|------------|------------|
B|------------|------------|------------|------------|
G|------------|------------|------------|------------|
D|------------|------------|------------|------------|
A|------------|------------|------------|------------|
E|-5----------|------------|------9-----|9-----------|

tremelo
E|------------|------------|14---10---12|------------|
B|------------|------------|14---10---12|------------|
G|------------|------------|------------|------------|
D|------------|------------|------------|------------|
A|------------|------------|------------|------------|
E|7-----------|1-----------|14----------|------------|

E|7---------10|14----------|7-----------|10----------|
B|7---------7-|12----------|7-----------|7-----------|
G|------------|------------|------------|------------|
D|------------|------------|------------|------------|
A|------------|------------|------------|------------|
E|------------|------------|------------|------------|

E|7-----------|10----------|7-----------|7-----------|
B|7-----------|7-----------|5-----------|5-----------|
G|------------|------------|------------|------------|
D|------------|------------|------------|------------|
A|------------|------------|------------|------------|
E|------------|------------|------------|------------|

E|10----------|12----121110|9-8-7-6-5-4-|3-2-1-1-----|
B|------------|------121110|9-8-7-6-5-4-|3-2-1-1-----|
G|------------|------------|------------|------------|
D|------------|------------|------------|------------|
A|------------|------------|------------|------------|
E|------------|------121110|9-8-7-6-5-4-|3-2-1-1-----|

E|1-----------|1-----------|1-----------|1-----------|
B|1-----------|1-----------|1-----------|1-----------|
G|------------|------------|------------|------------|
D|------------|------------|------------|------------|
A|------------|------------|------------|------------|
E|1-----------|1-----------|1-----------|1-----------|

4/4 time
E|------------|----------------||----------------|----------------|
B|------------|----------------||----------------|----------------|
G|------------|----------------||----------------|----------------|
D|------------|----------------||----------------|----------------|
A|------------|----------------||----------------|----------------|
E|0-----------|----------------||----------------|----------------|

E|12--------------|----------------|----------------|----------------|
B|12--------------|----------------|----------------|----------------|
G|----------------|----------------|--------121412--|--------121412--|
D|----------------|----------------|----1214------14|----1214--------|
A|----------------|----------------|1214------------|1214------------|
E|----------------|----------------|----------------|----------------|

E|----------------|----------------|----------------|----------------|
B|----------------|--------------15|--------------14|--------------12|
G|--------121412--|--------1214--19|--------------18|--------------16|
D|----1214------14|----1214----0---|----------------|----------------|
A|1214------------|1214------------|----------------|----------------|
E|----------------|----------------|----------------|----------------|

E|----------------|----------------|----------------|----------------|
B|--------------10|--------------8-|--------7-------|5--------------8|
G|--------------14|--------------12|--------10------|9-------------12|
D|----------------|----------------|----------------|----------------|
A|----------------|----------------|----------------|----------------|
E|----------------|----------------|----------------|----------------|

E|----------------|----------------|----------------|----------------|
B|-------7--------|--------3-------|2---------------|------------0---|
G|----------------|--------6-------|5---------------|--------16----14|
D|----------------|----------------|----------------|----------------|
A|----------------|----------------|----------------|----------------|
E|----------------|----------------|----------------|----------------|

/--3-\ /--3---\ /--3---\ /---3----\
E|--------------------------------------------------------------1512--
B|12--12-15-12-------12-15-12------1212-15-12-------12-15-12-12-------
G|15-----------14-16----------14-14-----------14-16-------------------
D|--------------------------------------------------------------------
A|--------------------------------------------------------------------
E|--------------------------------------------------------------------

/--3---\ /--3---\ /--3---\ /--3---\
E|---15-12----15-12----15-12----15-12-----12-17-15-12----12-----------
B|12-------12-------12-------12-------121212----------15-151512-------
G|-------------------------------------------------------------14-----
D|--------------------------------------------------------------------
A|--------------------------------------------------------------------
E|--------------------------------------------------------------------

/--3--\ /--3--\ /--3--\ /--3--\ /--3--\ /--3--\ /--3--\
E|--------------------------------------------------------------------
B|---------------------------15---------------------------------------
G|------12-14-12-14-12-14-17----17-14-12-14-12------------------------
D|---14----------------------------------------14-12-14-12-14-12----12
A|---------------------------------------------------------------14---
E|--------------------------------------------------------------------

~~~~~~~~~~~ /--3-\ /--3-\/--3-\
E|--------------------------------------------------------------------
B|--------------------------------------------------------------------
G|-------------9----9-----7-977-76-6-5-6764643-4-2-204-2-0------------
D|1412------0---------------------------------------------------------
A|--------------------------------------------------------------------
E|--------------------------------------------------------------------

/-----3-----\
E|--------------------------------------------------------------------
B|--------------------------------------------------------------------
G|--------------------------------------------------------------------
D|0---0---2------0-2--0-2--0-2---0-0--23---------0-2-0----------------
A|--------------------------------------------------------------------
E|--------------------------------------------------------------------

/--3-\
E|----------------------------------------------15--------------------
B|------------------------------------------12------------------------
G|--------------------------------------------------------------------
D|3-----3-0-2---0-3---0-2---0-2-----0---------------------------------
A|--------------------------------------------------------------------
E|--------------------------------------------------------------------

/---3---\/---3---\
E|-151512---15-------15-------15-1512---15--17-15-15--15-17---------17
B|-1212--12----12-12----12-12--------15-------------------------------
G|--------------------------------------------------------------------
D|--------------------------------------------------------------------
A|--------------------------------------------------------------------
E|--------------------------------------------------------------------
/---3---\/---3---\ /---3---\/---3--\/---3---\
E|15-12----12---------------------------------------------------------
B|------15---1512----------------------15-----------------------------
G|----------------14-12----12-14-12-16----14-14---12-14-12------------
D|----------------------14---------------------------------14---------
A|--------------------------------------------------------------------
E|--------------------------------------------------------------------
/---3---\
E|--------------------------------------------------------------------
B|------------------------------------------------20-----19-19-19-----
G|--------------------------------------------------------------------
D|1213-12---12-12-----------------------------------------------------
A|-------14----12-14121412----10--12-10-------------------------------
E|-------------------------12-----------------------------------------

/--3-\
E|---------------------21--191817-------------------------------------
B|----15-15------18-18------------20-2017---17-20172017---17-20-------
G|---------------------------------------19------------19-------------
D|--------------------------------------------------------------------
A|--------------------------------------------------------------------
E|--------------------------------------------------------------------

/--3-\ /--3-\ /--3-\
E|--------------------------------------------------------------------
B|172017---17-20-172017---17-20-172017---17-20--22---21--22---21-22---
G|------19-------------19-------------19------------------------------
D|--------------------------------------------------------------------
A|--------------------------------------------------------------------
E|--------------------------------------------------------------------
/--3-\
E|-----------------------------23--------------------23---------------
B|---------21-22-20--17-17-17-------17-17--17-17-17-------------------
G|--------------------------------------------------------------------
D|----00--------------------------------------------------------------
A|--------------------------------------------------------------------
E|--------------------------------------------------------------------

/---3-\
E|--------------------------------------------------------------------
B|--171717---17-22--------17-17-------17-----1515----15--15-----------
G|--------------------------------0---17------------------------------
D|--------------------------------------------------------------------
A|--------------------------------------------------------------------
E|--------------------------------------------------------------------

/--3--\
E|--------------------------------------------------------------------
B|--------------------------------------------------------------------
G|15-12-12-----14-12---12---9--9---9---11--11-9-7-------6-----4-------
D|----------------------------------------------0---------------------
A|--------------------------------------------------------------------
E|--------------------------------------------------------------------
/--3-\ /--3-\ /--3-\ /--3-\ ~~~~/3\ /--3-\/-3-\
E|---------------------------------------------------------------------------
B|------------------------------4-2-0-------------4---2420-------------------
G|4-2-0-2---4-2-0-2---4-2-0-2---4-2-0-2---2-4---2-4---24200--20202-----------
D|----------------------------------------------------------------4-2-0------
A|----------------------------------------------------------------------4-2-0
E|---------------------------------------------------------------------------

E|----------------|----------------|----------------|----------------|
B|9---------------|----------------|9-------------12|----------------|
G|9-------------7-|--6-------------|9-------------12|----------------|
D|9-------------7-|--7-------------|9-------------12|----------------|
A|7-------------5-|--7-------------|7-------------10|----------------|
E|0---------------|--5-------------|----------------|----------------|

E|----------------|----------------|----------------|----------------|
B|9---------------|----------------|9-------------12|----------------|
G|9-------------7-|--6-------------|9-------------12|----------------|
D|9-------------7-|--7-------------|9-------------12|----------------|
A|7-------------5-|--7-------------|7-------------10|----------------|
E|0---------------|--5-------------|----------------|----------------|

E|----------------|----------------|----------------|----------------|
B|9---------------|----------------|9-------------12|----------------|
G|9-------------7-|--6-------------|9-------------12|----------------|
D|9-------------7-|--7-------------|9-------------12|----------------|
A|7-------------5-|--7-------------|7-------------10|----------------|
E|0---------------|--5-------------|----------------|----------------|


6/8 time
E|------------|------------|------------|------------|
B|------------|------------|------------|------------|
G|4-4-4---24--|4-4-4---24--|4-4-4---24--|4-4-4---24--|
D|4-4-4-24--24|4-4-4-24--24|4-4-4-24--24|4-4-4-24--24|
A|2-2-2-------|2-2-2-------|2-2-2-------|2-2-2-------|
E|------------|------------|------------|------------|

12/8 time
E|15----14----13----12----|------------------------|
B|------------------------|15----14----13----12----|
G|------------------------|------------------------|
D|------------------------|------------------------|
A|10----9-----8-----7-----|5-----4-----3-----2-----|
E|----------------------0-|----------------------0-|

E|15----14----13----12----|------------------------|
B|------------------------|15----14----13----12----|
G|------------------------|------------------------|
D|------------------------|------------------------|
A|10----9-----8-----7-----|5-----4-----3-----2-----|
E|----------------------0-|----------------------0-|

E|------------------------|------------------------|
B|------------------------|------------------------|
G|------------------------|------------------------|
D|------------------------|------------------------|
A|10----9-----8-----7-----|5-----4-----3-----2-----|
E|----------------------0-|----------------------0-|

9/8 time
E|------------------------|------------------|
B|------------------------|------------------|
G|------------------------|------------------|
D|------------------------|------------------|
A|10----9-----8-----7-----|5-----4-----3---2-|
E|----------------------0-|------------------|

6/8 time
E|------------|------------|------------|------------|
B|------------|------------|------------|------------|
G|4-4-4---24--|4-4-4---24--|4-4-4---24--|4-4-4---24--|
D|4-4-4-24--24|4-4-4-24--24|4-4-4-24--24|4-4-4-24--24|
A|2-2-2-------|2-2-2-------|2-2-2-------|2-2-2-------|
E|------------|------------|------------|------------|

E|------------|------------|------------|------------|
B|------------|------------|------------|------------|
G|99997-------|------------|------------|------------|
D|99997-------|77775-------|99997-------|121212129---|
A|77775-------|------------|------------|------------|
E|------------|55553-------|77775-------|101010107---|

/3\ /3\ /3\ /3\ /3\ /3\ /3\
E|----------------|----------------|----------------|----------------|
B|----------------|----------------|----------------|----------------|
G|99997-----765---|----765----765--|----765----765--|----765----765--|
D|----------------|----------------|----------------|----------------|
A|77775-0000------|0000---0000-----|0000---0000-----|0000---0000-----|
E|----------------|----------------|----------------|----------------|

/3\ /3\
E|----------------|------------|------------|------------|
B|----------------|------------|------------|------------|
G|----765----765--|77777-77777-|77777-77777-|77777-77777-|
D|----------------|77777-77777-|77777-77777-|77777-77777-|
A|----------------|55555-55555-|55555-55555-|55555-55555-|
E|----------------|------------|------------|------------|

E|------------|------------|
B|------------|------------|
G|77777-77779-|9-----------|
D|77777-77779-|9-----------|
A|55555-55557-|7-----------|
E|----------0-|0-----------|
Tunning: Standard (E A D G B e)
-----------------------------------------------------------------------------
Led Zeppelin - Dazed And Confused (The Song Remains The Same Version)
-----------------------------------------------------------------------------
Transcribed by Victor Ochoa

Standard Tuning


s s s s e s s s s s s s s s s s s s s
E---||-----------r--r--------------------------------|-----------r------
B---||-----------e--e--------------------------------|-----------e------
G---||-----------s--s--------------------------------|-----------s------
D---||-----------t--t--------------------------------|-----------t------
A---||-----------------------------------------------|------------------
E---||--3--3--3--------3--3--3--3--3--3--3--3--3--3--|--3--3--3---------


q h s s s s e s s s s s s s s s s s s s
E---r--r--|-----------r--r--------------------------------|--3--3--3----
B---e--e--|-----------e--e--------------------------------|--6--6--6----
G---s--s--|-----------s--s--------------------------------|--4--4--4----
D---t--t--|-----------t--t--------------------------------|--3--3--3----
A---------|-----------------------------------------------|--5--5--5----
E---------|--3--3--3--------3--3--3--3--3--3--3--3--3--3--|--3--3--3----


s q h E E E E Q E E E E e e e e q e e
E---r--r--r--|-----------------|--------------------|--------0----------
B---e--e--e--|-----------------|--------------------|--------8----------
G---s--s--s--|-----------------|--------------------|--------7----------
D---t--t--t--|--5--4--3--4--5--|--7--6--5--6--7--5--|--------6----------
A------------|-----------------|--------------------|--------7----------
E------------|-----------------|--------------------|--0--0-----0--0----


q e e q e e q s s s s s s s s s s s s
E---0--|--------0--------0--|-------------------------------------------
B---8--|--------8--------8--|-------------------------------------------
G---7--|--------7--------7--|--------------------------------7--9-------
D---6--|--------6--------6--|--------------------5--7--7--9-------------
A---7--|--------7--------7--|-----------5--5--7-------------------------
E------|--0--0-----0--0-----|--3--5--7----------------------------------


s s e e e q s s e s s s s s
E---------------|-------------------------------------------|-----------
B-----------12--|^--17--15--12------12----------------------|-----------
G---12--14------|---------------14------12------------------|-----------
D---------------|---------------------------14--12--14--12--|-----------
A---------------|-------------------------------------------|--14-------
E---------------|-------------------------------------------|-----------


s s s s s s s s s s s s s s s e
E---------------------------------------------------------------|-------
B---------------------------------------------------------------|-------
G---------------------------------------------------------------|-------
D---14--12------12--14--12------12------------------------------|-------
A-----------14--------------14------14--12--10--12--10------10--|/14----
E-------------------------------------------------------12------|-------


s s s s s s s s s s s s s s e e
E---------------------------r----------r--------------r--|--------------
B---------------------------e----------e--------------e--|-----15-------
G-------------------12--14--s--12--14--s--12--14--12--s--|/16-----------
D---12--12--12--14----------t----------t--------------t--|--------------
A--------------------------------------------------------|--------------
E--------------------------------------------------------|--------------


e E q e e q q e e e s s s s
E-----^--19--17------|----^--19--17--15--17--15--|--15--16--17--15------
B---17---------------|--15-----------------------|----------------------
G----------------16--|---------------------------|----------------------
D--------------------|---------------------------|----------------------
A--------------------|---------------------------|----------------------
E--------------------|---------------------------|----------------------


s s s q s s s s s s s s s s s s s
E---16----------r---------r------------------|------12------r-----------
B-------17--15--e--17p14--e--14--12----------|----------15--e--15p12----
G---------------s---------s----------14--12--|--13----------s-----------
D---------------t---------t------------------|--------------t-----------
A--------------------------------------------|--------------------------
E--------------------------------------------|--------------------------


s s s s s s e e s s s s s s s s
E-----------r----------------------|------------------------------------
B-----------e----------------------|------------------------------------
G---14--12--s--14--12--14--12------|--14--14--12h14p12------14----------
D-----------t------------------14--|--------------------14------14------
A----------------------------------|------------------------------------
E----------------------------------|------------------------------------


s s s s s s e e e e E s s s s s
E-----------------------------|----------12--15-------------------------
B-----------------------------|------15---------------------------------
G---12h14p12------14------12--|--16--------------14--12------14---------
D-------------14------14------|--------------------------14------14-----
A-----------------------------|-----------------------------------------
E-----------------------------|-----------------------------------------


s s e e q s s s s s s s s e e
E-----------|----------r--r------------------------------|--------------
B-----------|----------e--e------------------------------|--------------
G---12--14--|--12------s--s--14--12------14------12--14--|--12----------
D-----------|------14--t--t----------14------14----------|------14------
A-----------|--------------------------------------------|--------------
E-----------|--------------------------------------------|--------------


q s s s s s s s s e e q s s s s
E---r--r------------------------------|----------r--r-------------------
B---e--e------------------------------|----------e--e-------------------
G---s--s--14--12------14------12--14--|--12------s--s--14--12-----------
D---t--t----------14------14----------|------14--t--t----------14-------
A-------------------------------------|---------------------------------
E-------------------------------------|---------------------------------


s s s s e e e E s s s s s e e
E-------------------|----------------------------------------|----------
B-------------------|----------------------------------------|----------
G---14------12--14--|--12------------------------------------|----------
D-------14----------|------14--12--14--12h14--12h14--12------|----------
A-------------------|------------------------------------14--|--10------
E-------------------|----------------------------------------|----------


e e E s s s s s s s e s s s s s
E-----------------------------------------|-----------------------------
B-----------------------------------------|-----------------------------
G-----------------------------------------|---------------------12------
D-----------------------------------------|-----12--12--12--14----------
A-------10--12--10h12--10h12--10------10--|/14--------------------------
E---12----------------------------12------|-----------------------------


s s s s s e s s t t s s s t t s s
E-------r----------r-------------|---------15------15---------15--------
B-------e----------e---------15--|--15h17------17------15h17------17----
G---14--s--12--14--s--12/16------|--------------------------------------
D-------t----------t-------------|--------------------------------------
A--------------------------------|--------------------------------------
E--------------------------------|--------------------------------------


s t t s s s t t s s s e q e s s
E---15---------15------15---------15------15--|----^--19--17--15--16----
B-------15h17------17------15h17------17------|--15---------------------
G---------------------------------------------|-------------------------
D---------------------------------------------|-------------------------
A---------------------------------------------|-------------------------
E---------------------------------------------|-------------------------


s s s s s s s s s s s s s s s s
E---17--15--16----------r--|--r---------r----------------------12-------
B---------------17--15--e--|--e--17p14--e--14--12-----------------------
G-----------------------s--|--s---------s----------14--12--13-----------
D-----------------------t--|--t---------t-------------------------------
A--------------------------|--------------------------------------------
E--------------------------|--------------------------------------------


s s e s s s s s s s s s s s s
E-----------------------|-----------------------------------------------
B---15p12---------------|-----------------------------------------------
G--------^--16--14--12--|------14--12------12--14--12------12-----------
D-----------------------|--14----------14--------------14------14-------
A-----------------------|-----------------------------------------------
E-----------------------|-----------------------------------------------


s s s s s s
E--------------------------||-------------------------------------------
B--------------------------||-------------------------------------------
G--------------------------||-------------------------------------------
D---12------14------12h14--||-------------------------------------------
A-------14------14---------||-------------------------------------------
E--------------------------||-------------------------------------------
Tunning: Standard (E A D G B e)
Dazed And Confused
Writen by Eulogy : Ultimal@Hotmail.com
Dec. 27th 2004


[Intro]

* * * * *
e|-------12---------------|------5-----------------|
B|----12------------------|----5-------------------|
G|------------------------|-----------12~----------|
D|------------------------|------------------------|
A|------------------------|------------------------|
E|------------------------|------------------------|

* * * * * *
e|-------12---------------|------5-----------------|
B|----12------------------|----5---5---------------|
G|------------------------|----------5~------------|
D|------------------------|------------------------|
A|------------------------|------------------------|
E|------------------------|------------------------|

*
e|------------------------|------------------------|
B|-12----------12---------|------------------------|
G|-12----------12---------|------------------------|
D|------------------------|------------------------|
A|------------------------|------------------------|
E|------------------------|------------------------|


[Riff 1a]

(Using Vibrato on each note except the open E's)
e|------------------------|------------------------|
B|------------------------|------------------------|
G|------------------------|------------------------|
D|------------------------|------------------------|
A|-------10--9--8br--7----|---5--4--3br--2---------|
E|0-0-0-------------------|0-----------------------|
. . .

e|------------------------|------------------------|
B|------------------------|------------------------|
G|------------------------|------------------------|
D|------------------------|------------------------|
A|---10--9--8br-7---------|---5--4--3br-2----------|
E|------------------------|0-----------------------|

e|------------------------|------------------------|
B|------------------------|------------------------|
G|------------------------|------------------------|
D|------------------------|------------------------|
A|---10--9--8br-7---------|---5--4--3br-2----------|
E|0-----------------------|0-----------------------|


[Riff 2]

e|------------------------|
B|------------------------|
G|--4-4-4-------2h4-------| X 4
D|--4-4-4--2h4-------2h4--|
A|--2-2-2-----------------|
E|------------------------|


[Riff 1b]

(Using Vibrato on each note except the open E's)
e|------------------------|------------------------|
B|------------------------|------------------------|
G|------------------------|------------------------|
D|-2----------------------|------------------------|
A|-2-----10--9--8br--7----|---5--4--3br--2---------|
E|-0--0-------------------|0-----------------------|
.

e|------------------------|------------------------|
B|------------------------|------------------------|
G|------------------------|------------------------|
D|------------------------|------------------------|
A|---10--9--8br-7---------|---5--4--3br-2----------|
E|0-----------------------|0-----------------------|

e|------------------------|------------------------|
B|------------------------|------------------------|
G|------------------------|------------------------|
D|------------------------|------------------------|
A|---10--9--8br-7---------|---5--4--3br-2----------|
E|0-----------------------|0-----------------------|

e|------------------------|------------------------|
B|------------------------|------------------------|
G|------------------------|------------------------|
D|------------------------|------------------------|
A|---10--9--8br-7---------|---5--4--3br-2----------|
E|0-----------------------|0-----------------------|


[Riff 2]

e|------------------------|
B|------------------------|
G|--4-4-4-------2h4-------| X 4
D|--4-4-4--2h4-------2h4--|
A|--2-2-2-----------------|
E|------------------------|


[Bow Section]

For the bow part I just play around with a metal slide,
I'll leave the violin bow to Jimmy here.
(-grins- Improv time)


[Pre-Solo]

e|------------------------|------------------------|
B|------------------------|------------------------|
G|-------------12-14-12---|--------------12-14-12~-|
D|-------12-14----------14|--------12-14-----------|
A|-12-14------------------|-12-14------------------|
E|------------------------|------------------------|

e|------------------------|------------------------|
B|------------------------|------------------------|
G|-------------12-14-12---|--------------12-14-----|
D|-------12-14----------14|--------12-14-------0---|
A|-12-14------------------|-12-14------------------|
E|------------------------|------------------------|

e|------------------------|------------------------|
B|--15----14----12----10--|--8---7---5-------------|
G|--19----18----16----14--|--12--10--9-------------|
D|------------------------|------------------------|
A|------------------------|------------------------|
E|------------------------|------------------------|

e|------------------------|------------------------|
B|-8---7---3--------------|--2---------------------|
G|-12--10--6--------------|--5---------------------|
D|------------------------|------------------------|
A|------------------------|------------------------|
E|------------------------|------------------------|


[Solo]

e|--------------------------------------------------------15\12----15\12---|
B|---12--12-15\12-------12-15\12---------12-12-15\12-X-12-------12-------12|
G|14b16-----------14b16----------14-14b16----------------------------------|
D|-------------------------------------------------------------------------|
A|-------------------------------------------------------------------------|
E|-------------------------------------------------------------------------|

e|15\12---15\12--15\12------12-15b17-15-12----12---------------------------|
B|------12-----12-----12-12-12-------------15-15-15\12---------------------|
G|-----------------------------------------------------14\12----12-14-12-14|
D|-----------------------------------------------------------14------------|
A|-------------------------------------------------------------------------|
E|-------------------------------------------------------------------------|

e|-------------------------------------------------------------------------|
B|--------15---------------------------------------------------------------|
G|12-14b16----16\14\12-14\12---------------------------------!9!b!11!--9b11|
D|--------------------------14-12-14-12/14\12----12/14\12--0---------------|
A|--------------------------------------------14---------------------------|
E|-------------------------------------------------------------------------|

e|-------------------------------------------------------------------------|
B|-------------------------------------------------------------------------|
G|--7-9-7-7-7\6-6\5-6-7\6-4-6\4\3-4-2-2\0-4-2\0--0-0-0b2--0-0b2-0-0b2-0-0b2|
D|-------------------------------------------------------------------------|
A|-------------------------------------------------------------------------|
E|-------------------------------------------------------------------------|

e|-------------------------------------------------------15\12-15-15b12----|
B|----------------------------------------------------12-------12-12----12-|
G|-0-0-0b4-0-0b2--0-0b4b4-0-0b2-0-0b4-0-0b3-0-0-b4r0-----------------------|
D|-------------------------------------------------------------------------|
A|-------------------------------------------------------------------------|
E|-------------------------------------------------------------------------|

e|15\12----15\12----15--15\12-----15--15b17-15-17-15b17-15b17-15-12----12--|
B|------12-------12------------12-----------------------------------15-----|
G|-------------------------------------------------------------------------|
D|-------------------------------------------------------------------------|
A|-------------------------------------------------------------------------|
E|-------------------------------------------------------------------------|

e|-------------------------------------------------------------------------|
B|15\12------------------------15------------------------------------------|
G|------14\12---12-14-12-14/16----16\14\12-14\12---------------------------|
D|------------14---------------------------------14-12/14\12----12-12------|
A|-----------------------------------------------------------14----12/14\12|
E|-------------------------------------------------------------------------|

e|------------------------------------------------------------------19b21--|
B|--------------------------17b20---17b19-17b20--17b19-15-15--17-17--------|
G|-------------------------------------------------------------------------|
D|-------------------------------------------------------------------------|
A|/14\12---------10--12-10-------------------------------------------------|
E|------------12-----------------------------------------------------------|

e|19\18--17----------------------------------------------------------------|
B|----------20-20\17----17-20--17/20\17----17-20-17/20\17----17-20-17/20\17|
G|-------------------19-----------------19----------------19---------------|
D|-------------------------------------------------------------------------|
A|-------------------------------------------------------------------------|
E|-------------------------------------------------------------------------|

e|-------------------------------------------------------------------------|
B|----17-20-17/20\17----17-20-20b22--19b21-21b22-19b20-19b20b22------20b22b|
G|-19----------------19----------------------------------------------------|
D|--------------------------------------------------------------0-0--------|
A|-------------------------------------------------------------------------|
E|-------------------------------------------------------------------------|

e|-------------------------------------19b22r19---------19b22r19-----------|
B|24r20\17--17-17--20b24r20-17-17-17-17---------17-17-17---------17-17-17--|
G|-------------------------------------------------------------------------|
D|-------------------------------------------------------------------------|
A|-------------------------------------------------------------------------|
E|-------------------------------------------------------------------------|

e|-------------------------------------------------------------------------|
B|--17-20b23r20--17-17----17b20r17-15-15--15b17r15-------------------------|
G|---------------------0--17-----------------------12-12---12b14r12-9-9--9-|
D|-------------------------------------------------------------------------|
A|-------------------------------------------------------------------------|
E|-------------------------------------------------------------------------|

e|-------------------------------------------------------------------------|
B|----------------------------------------------------4\2\0-------------!4!|
G|9b11-9b11r9--7--4b6r4-4--4\2\0-2--4\2\0-2--4\2\0-2--4\2\0-2--2--4--2---4-|
D|-------------0-----------------------------------------------------------|
A|-------------------------------------------------------------------------|
E|-------------------------------------------------------------------------|

e|---------------------------------------|
B|----2/4\2\0----------------------------|
G|----2/4\2\0--0--2\0/2\0/2--------------|
D|--------------------------4\2\0--------|
A|--------------------------------4\2\0--|
E|---------------------------------------|
End Solo


[Riff 3]

e|-------------------------|------------------------|
B|-9-----------------------|-9--12------------------|
G|-9---7--6----------------|-9--12------------------|X3
D|-9---7--7----------------|-9--12------------------|
A|-7---5--7----------------|-7--10------------------|
E|-0------5----------------|-0----------------------|


[Riff 2]

e|------------------------|
B|------------------------|
G|--4-4-4-------2h4-------| X 4
D|--4-4-4--2h4-------2h4--|
A|--2-2-2-----------------|
E|------------------------|


[Riff 1b]

(Using Vibrato on each note except the open E's)
e|------------------------|------------------------|
B|------------------------|------------------------|
G|------------------------|------------------------|
D|-2----------------------|------------------------|
A|-2-----10--9--8br--7----|---5--4--3br--2---------|
E|-0--0-------------------|0-----------------------|
.

e|------------------------|------------------------|
B|------------------------|------------------------|
G|------------------------|------------------------|
D|------------------------|------------------------|
A|---10--9--8br-7---------|---5--4--3br-2----------|
E|0-----------------------|0-----------------------|

e|------------------------|------------------------|
B|------------------------|------------------------|
G|------------------------|------------------------|
D|------------------------|------------------------|
A|---10--9--8br-7---------|---5--4--3br-2----------|
E|0-----------------------|0-----------------------|

e|------------------------|------------------------|
B|------------------------|------------------------|
G|------------------------|------------------------|
D|------------------------|------------------------|
A|---10--9--8br-7---------|---5--4--3br-2----------|
E|0-----------------------|0-----------------------|


[Riff 2]

e|------------------------|
B|------------------------|
G|--4-4-4-------2h4-------| X 4
D|--4-4-4--2h4-------2h4--|
A|--2-2-2-----------------|
E|------------------------|

E|------------|------------|------------|-------------|
B|------------|------------|------------|-------------|
G|9-9-9-9-7---|------------|------------|-------------|
D|9-9-9-9-7---|7-7-7-7-5---|9-9-9-9-7---|12-12-12-12-9|
A|7-7-7-7-5---|------------|------------|-------------|
E|------------|5-5-5-5-3---|7-7-7-7-5---|10-10-10-10-7|

e|------------------------|
B|------------------------|
G|9-9-9-9-7---------------|
D|------------------------|
A|7-7-7-7-5---------------|
E|------------------------|

e|---------------------------| |---------------------------|
B|---------------------------| |---------------------------|
G|-----------7p6p5-----------|X7 |---------------------------|
D|---------------------------| |---------------------------|
A|--0-0-0-0------------------| |--0-0-0-0------------------|
E|---------------------------| |---------------------------|
. . . . . . . .

e|------------------------| |------------------------|
B|------------------------| |------------------------|
G|-7-7-7-7-7--------------|X7 |-7-7-7-7-9-9------------|
D|-7-7-7-7-7--------------| |-7-7-7-7-9-9------------|
A|-5-5-5-5-5--------------| |-5-5-5-5-7-7------------|
E|------------------------| |---------0-0------------|
.


************************************

| h Hammer-on
| p Pull-off
| r Release
| b Bend
| br Bend release
| / Slide up
| \ Slide down
| ~ Vibrato

************************************

-Dazed and confused is copywrited by Led Zeppelin, and Jimmy Page,
they retain all rights and ownership.
Tunning: Standard (E A D G B e)
DAZED AND CONFUSED
As recorded by Led Zeppelin
(From the 1969 Album LED ZEPPELIN)

Words and Music by Jimmy Page
Transcribed by www.mikesguitarsite.co.uk

Gtr I (E A D G B E) - 'Jimmy Page - Rhythm w/dist'
Gtr II (E A D G B E) - 'Jimmy Page - Rhythm w/dist'
Gtr III (E A D G B E) - 'Jimmy Page - Lead w/dist & octavia one octave above'
Gtr IV (E A D G B E) - 'Jimmy Page - Lead w/dist heavy reverb & violin bow'

Intro
Q.=52
12/8
Gtr I
|----|-----------------|-------()---()------|-------()---()-------|
|----|-------------|-----------------------------|------------------------------|
|----|-----------------|--------------------------------|--------------------------|
|----|-----------------|--------------------------------|------------------------------|
|----|-----------------|--------------------------------|------------------------------|
|----|-----------------|--------------------------------|------------------------------|


|-------------------------------------------------------------------------------------||
|-------------------------------------------------------------------------------------||
|-()b14===()r()b14==()r()b14==()r()b14==()r=()----||
|-------------------------------------------------------------------------------------||
|-------------------------------------------------------------------------------------||
|-------------------------------------------------------------------------------------||


Verse 1
|-----------()------------|
|--------------------------|
|------------------------------------|
|------------------------------------|
|------------------------------------|
|------------------------------------|


|-----------------------------|------------------|
|-----------------------------|-----------|
|-b9====()r==()------|-----------|
|-----------------------------|------------------|
|-----------------------------|------------------|
|-----------------------------|------------------|


Gtr III
~~ ~~ ~~ ~~
|--------------------|-14b15---14---12b13r=(12)-12----|--------------------------------|
|--------------------|--------------------------------|-14b15---14---12b13r=(12)-12----|
|--------------------|--------------------------------|--------------------------------|
|--------------------|--------------------------------|--------------------------------|
|--------------------|--------------------------------|--------------------------------|
|--------------------|--------------------------------|--------------------------------|
|
| Gtr I Gtrs I, II
| ~~~~~~~~~~ ~~ ~~~~~~~~~~ ~~
|--------------------|--------------------------------|--------------------------------|
|-()--------------|--------------------------------|--------------------------------|
|-()--------------|--------------------------------|--------------------------------|
|--------------------|--4b5-----4----2b3r===(2)--2----|--------------------------------|
|--------------------|--------------------------------|--4b5-----4----2b3r===(2)--2----|
|---------------0--0-|------------------------------0-|------------------------------0-|


~~ ~~ ~~ ~~
|-14b15---14---12b13r=(12)-12----|--------------------------------||
|--------------------------------|-14b15---14---12b13r=(12)-12----||
|--------------------------------|--------------------------------||
|--------------------------------|--------------------------------||
|--------------------------------|--------------------------------||
|--------------------------------|--------------------------------||
|
| ~~~~~~~~~~ ~~ ~~~~~~~~~~ ~~
|--------------------------------|--------------------------------||
|--------------------------------|--------------------------------||
|--------------------------------|--------------------------------||
|--4b5-----4----2b3r===(2)--2----|--------------------------------||
|--------------------------------|--4b5-----4----2b3r===(2)--2----||
|------------------------------0-|------------------------------0-||


Verse 2
Gtr I
~~~~~~~~~~~~~~~~~~ ~~~~~~~~ ~
|----------------------|-------------------------|
|----------------------|-------------------------|
|----------------------|-------------------------|
|-4b5---4---2b3---2----|-------------------------|
|----------------------|-4b5---4---2b3r=(2)-2----|
|--------------------0-|-----------------------0-|


9/8
~~~~~~~~~~~~~~~~~~ ~~~~~~~~
|----------------------|---------------------|
|----------------------|---------------------|
|----------------------|---------------------|
|-4b5---4---2b3---2----|---------------------|
|----------------------|-4b5---4---2b3r=(2)--|
|--------------------0-|---------------------|


12/8
Gtr III
|-------------------------------------------------------|
|-------------------------------------------------------|
|----------------14-16----------------------14-16-------|
|-16-16-16-14-16-------14-16-16-16-16-14-16-------14-16-|
|-14-14-14-------------------14-14-14-------------------|
|-------------------------------------------------------|
|
| Gtrs I, II
|-------------------------------------------------------|
|-------------------------------------------------------|
|-----------------2--4-----------------------2--4-------|
|--4--4--4--2--4--------2--4--4--4--4--2--4--------2--4-|
|--2--2--2--------------------2--2--2-------------------|
|-------------------------------------------------------|


|-------------------------------------------------------|
|-------------------------------------------------------|
|----------------14-16----------------------14-16-------|
|-16-16-16-14-16-------14-16-16-16-16-14-16-------14-16-|
|-14-14-14-------------------14-14-14-------------------|
|-------------------------------------------------------|
|
|-------------------------------------------------------|
|-------------------------------------------------------|
|-----------------2--4-----------------------2--4-------|
|--4--4--4--2--4--------2--4--4--4--4--2--4--------2--4-|
|--2--2--2--------------------2--2--2-------------------|
|-------------------------------------------------------|


~~ ~~ ~~
|------14b15---14---12b13===(12)r(12)-|-12-----------------------------|
|-------------------------------------|-------14b15---14---12b13r=(12)-|
|-------------------------------------|--------------------------------|
|-------------------------------------|--------------------------------|
|-------------------------------------|--------------------------------|
|-------------------------------------|--------------------------------|
|
| ~~~~~~~~~~~~~~~~~~~~~~~~~~~~~~~~~~~ ~~~~~~~~~~
|-------------------------------------|--------------------------------|
|-------------------------------------|--------------------------------|
|-------------------------------------|--------------------------------|
|-------4b5-----4----2b3--------------|--2-----------------------------|
|-------------------------------------|--------4b5-----4----2b3r===(2)-|
|-0--0--------------------------------|-----0--------------------------|


~~ ~~ ~~
|-------14b15---14---12b13r=(12)-|-12-----------------------------------||
|-12-----------------------------|-------14b15r=(14)-14---12b13r=(12)---||
|--------------------------------|--------------------------------------||
|--------------------------------|--------------------------------------||
|--------------------------------|--------------------------------------||
|--------------------------------|--------------------------------------||
|
| ~~ ~~~~~~~~~~~~~~~~~~~~~~~~~~~~~ ~~~~~~~~~~~~~~
|--------------------------------|--------------------------------------||
|--------------------------------|--------------------------------------||
|--------------------------------|--------------------------------------||
|--------4b5-----4----2b3--------|--2-----------------------------------||
|--2-----------------------------|--------4b5---------4----2b3r===(2)---||
|-----0--------------------------|-----0--------------------------------||


Verse 3
~~ ~~
|-------14b15---14---12b13r=(12)-|
|-12-----------------------------|
|--------------------------------|
|--------------------------------|
|--------------------------------|
|--------------------------------|
|
| ~~~~~~~~~~~~~~~~~~~~~~~~~
|--------------------------------|
|--------------------------------|
|--------------------------------|
|--------4b5-----4----2b3--------|
|--2-----------------------------|
|-----0--------------------------|


~~ ~~ ~~ ~~
|-12---------------------------------|-------14b15---14---12b13r=(12)--|
|-------14b15r=(14)-14---12b13r=(12)-|-12------------------------------|
|------------------------------------|---------------------------------|
|------------------------------------|---------------------------------|
|------------------------------------|---------------------------------|
|------------------------------------|---------------------------------|
|
|~~~~ ~~~~~~~~~~~~~~ ~~~~~~~~ ~~~~~~~~~~~~~~~~~~~
|------------------------------------|---------------------------------|
|------------------------------------|---------------------------------|
|------------------------------------|---------------------------------|
|--2---------------------------------|--------4b5-----4----2b3---------|
|--------4b5---------4----2b3r===(2)-|--2------------------------------|
|-----0------------------------------|-----0---------------------------|


~~ ~~
|-12-----------------------------|------------------------------------------------------|
|-------14b15---14---12b13r=(12)-|------------------------------------------------------|
|--------------------------------|----------------14-16-------4-------------14-16-------|
|--------------------------------|-16-16-16-14-16-------14-16-4-16-16-14-16-------14-16-|
|--------------------------------|-14-14-14-------------------2-14-14-------------------|
|--------------------------------|------------------------------------------------------|
|
| ~~
|--------------------------------|------------------------------------------------------|
|--------------------------------|------------------------------------------------------|
|--------------------------------|-----------------2--4----------------------2--4-------|
|--2-----------------------------|--4--4--4--2--4--------2--4-4--4--4--2--4--------2--4-|
|--------4b5-----4----2b3r===(2)-|--2--2--2-------------------2--2--2-------------------|
|-----0--------------------------|------------------------------------------------------|


|------------------------------------------------------||
|------------------------------------------------------||
|----------------14-16-------4-------------14-16-------||
|-16-16-16-14-16-------14-16-4-16-16-14-16-------14-16-||
|-14-14-14-------------------2-14-14-------------------||
|------------------------------------------------------||
|
|------------------------------------------------------||
|------------------------------------------------------||
|-----------------2--4----------------------2--4-------||
|--4--4--4--2--4--------2--4-4--4--4--2--4--------2--4-||
|--2--2--2-------------------2--2--2-------------------||
|------------------------------------------------------||


Interlude
Gtr I
|-------------------------------|-----------------|--------------------|
|-------------------------------|-----------------|--------------------|
|-------------------------------|-----------------|--------------------|
|-2-2-2-2-0----12-12-12-12------|-----------------|--------------------|
|-2-2-2-2-0----10-10-10-10-7----|-----------------|--------------------|
|--------------------------0----|-----------------|--------------------|
|
| Gtr II
| --2-4p2p0-|-0-2p0h2p0-------------|
|---------------------|-----------4p2p0-------|
|---------------------|-----------------4p2p0-|
|---------------------|-----------------------|


Gtr I
|-----------|----------------|------------|-------------------|-------------|
|-9-------7-|-(7)-5---(5)----|------------|-------------------|---------7---|
|-9-------7-|-(7)------------|------------|-------------------|-9-------7---|
|-9-------7-|-(7)-7---(7)----|-9-------12-|-(12)-------(12)-9-|-9-------7---|
|-7-------5-|-(5)------------|-7-------10-|-(10)-------(10)-7-|-7-------5---|
|-0---------|-----5---(5)----|-0--------0-|--(0)--------(0)---|-0-----------|


|----------------|------------|--------------|-----------|
|-(7)-5---(5)----|------------|--------------|---------7-|
|-(7)------------|------------|--------------|-9-------7-|
|-(7)-7---(7)----|-9-------12-|-(12)-------9-|-9-------7-|
|-(5)------------|-7-------10-|-(10)-------7-|-7-------5-|
|-----5---(5)----|-0--------0-|--(0)---------|-0---------|


|----------------|------------|-------------||
|-(7)-5---(5)----|-0----------|-------------||
|-(7)------------|-9-------12-|-(12)--------||
|-(7)-7---(7)----|-9-------12-|-(12)--------||
|-(5)------------|-7-------10-|-(10)--------||
|-----5---(5)----|-0--------0-|--(0)--------||


A Tempo Q.=52
12/8
Gtr III
|------------------------------------------------------|
|------------------------------------------------------|
|----------------14-16-------4-------------14-16-------|
|-16-16-16-14-16-------14-16-4-16-16-14-16-------14-16-|
|-14-14-14-------------------2-14-14-------------------|
|------------------------------------------------------|
|
| Gtrs I, II
|------------------------------------------------------|
|------------------------------------------------------|
|-----------------2--4----------------------2--4-------|
|--4--4--4--2--4--------2--4-4--4--4--2--4--------2--4-|
|--2--2--2-------------------2--2--2-------------------|
|------------------------------------------------------|


|------------------------------------------------------||
|------------------------------------------------------||
|----------------14-16-------4-------------14-16-------||
|-16-16-16-14-16-------14-16-4-16-16-14-16-------14-16-||
|-14-14-14-------------------2-14-14-------------------||
|------------------------------------------------------||
|
|------------------------------------------------------||
|------------------------------------------------------||
|-----------------2--4----------------------2--4-------||
|--4--4--4--2--4--------2--4-4--4--4--2--4--------2--4-||
|--2--2--2-------------------2--2--2-------------------||
|------------------------------------------------------||


~~ ~~
|------14b15---14---12b13---|-12-----------------------------|
|---------------------------|-------14b15---14---12b13r=(12)-|
|---------------------------|--------------------------------|
|---------------------------|--------------------------------|
|---------------------------|--------------------------------|
|---------------------------|--------------------------------|
|
| ~~~~~~~~~~~~~~~~~~~~~~~~~ ~~~~~~~~~~ ~~~~
|---------------------------|--------------------------------|
|---------------------------|--------------------------------|
|---------------------------|--------------------------------|
|-------4b5-----4----2b3----|--2-----------------------------|
|-2-------------------------|--------4b5-----4----2b3r===(2)-|
|-0--0----------------------|-----0--------------------------|


~~ ~~ ~~~ ~~
|-------14b15---14---12b13r=(12)-|-12-------------------------------------||
|-12-----------------------------|--------14b15r=(14)-14---12b13r=(12)----||
|--------------------------------|----------------------------------------||
|--------------------------------|----------------------------------------||
|--------------------------------|----------------------------------------||
|--------------------------------|----------------------------------------||
|
|~~~~ ~~~~~~~~~~~~~~~~~~~ ~~~
|--------------------------------|----------------------------------------||
|--------------------------------|----------------------------------------||
|--------------------------------|----------------------------------------||
|--------------------------------|----------------------------------------||
|--2-----9b10----9----7b8r===(7)-|--7\-----4b5---------4----2b3r===(2)----||
|-----0--------------------------|------0---------------------------------||


Verse 4
|------------------------------------------------|--------------------------------------------------|
|-12\--------------------------------------------|--------------------------------------------------|
|------------------------------------------------|--------------------------------------------------|
|------------------------------------------------|--------------------------------------------------|
|------------------------------------------------|--------------------------------------------------|
|------------------------------------------------|--------------------------------------------------|
|
| Gtr I Gtrs I, II
| ~~~ ~ ~~~~~~~~
|------------------------------------------------|--------------------------------------------------|
|------------------------------------------------|--------------------------------------------------|
|------------------------------------------------|--------------------------------------------------|
|--------4b5r=(4)-4---2b3==(2)r(2)b3==(2)r(2)b4==|=(2)r----4b5---4----------------------------------|
|--2---------------------------------------------|-------0-----------2b3==(2)r(2)b3==(2)r(2)b4==(2)r|
|------0-----------------------------------------|--------------------------------------------------|


|------------------------------------------|--------------------------|
|------------------------------------------|--------------------------|
|------------------------------------------|--------------------------|
|------------------------------------------|--------------------------|
|------------------------------------------|--------------------------|
|------------------------------------------|--------------------------|
|
| ~~~~~~~~ ~ ~~~
|------------------------------------------|--------------------------|
|------------------------------------------|--------------------------|
|------------------------------------------|--------------------------|
|--------4b5---4---2b3==(2)r(2)b3==(2)r(2)-|-2------------------------|
|-(2)--------------------------------------|------4b5---4---2b3r=(2)--|
|------0-----------------------------------|----0---------------------|


|------------------------------------------------------|
|------------------------------------------------------|
|----------------14-16-------4-------------14-16-------|
|-16-16-16-14-16-------14-16-4-16-16-14-16-------14-16-|
|-14-14-14-------------------2-14-14-------------------|
|------------------------------------------------------|
|
|------------------------------------------------------|
|------------------------------------------------------|
|--4--4--4--------2--4----------------------2--4-------|
|--4--4--4--2--4--------2--4-4--4--4--4--2--------2--4-|
|--2--2--2-------------------2--2--2-------------------|
|------------------------------------------------------|


|--------------------------------------------------------||
|--------------------------------------------------------||
|----------------14-16-------4-------------14-16---------||
|-16-16-16-14-16-------14-16-4-16-16-14-16-------14-16---||
|-14-14-14-------------------2-14-14---------------------||
|--------------------------------------------------------||
|
|--------------------------------------------------------||
|--------------------------------------------------------||
|-----------------2--4----------------------2--4---------||
|--4--4--4--2--4--------2--4-4--4--4--2--4--------2--4---||
|--2--2--2-------------------2--2--2---------------------||
|--------------------------------------------------------||


Outro
Gtr I
|---------------------------|--------------------------------|
|---------------------------|--------------------------------|
|---------------------------|--------------------------------|
|-2-2-2-2-0----7-7-7-7-5----|-9-9-9-9-7----12-12-12-12-9\----|
|-2-2-2-2-0----x-x-x-x-x----|-x-x-x-x-x-----x--x--x--x-x-----|
|--------------5-5-5-5-3----|-7-7-7-7-5----10-10-10-10-7\----|


PM--------------------------------------|
|--------------------------------------------------------|
|--------------------------------------------------------|
|-9-9-9-9-7-7-7-7-7-7p6p5-7-7-7-7-7p6p5-7-7-7-7-7p6p5----|
|-x-x-x-x-x-0-0-0-0-0-----0-0-0-0-0-----0-0-0-0-0--------|
|-7-7-7-7-5----------------------------------------------|
|--------------------------------------------------------|


PM---------------------------------------------------------
|-----------------------------------------------------------|
|-----------------------------------------------------------|
|-7-7-7-7-7p6p5-7-7-7-7-7p6p5-(5)-7-7-7-7p6p5-7-7-7-7-7p6p5-|
|-0-0-0-0-0-----0-0-0-0-0------0--0-0-0-0-----0-0-0-0-0-----|
|-----------------------------------------------------------|
|-----------------------------------------------------------|


Gtrs I, II
---------------------------|
|--------------------------------------------------|
|--------------------------------------------------|
|-7-7-7-7-7p6p5-7-7-7-7-7p6p5----7-7-7-7-7-7-7-7-7-|
|-0-0-0-0-0-----0-0-0-0-0--------x-x-x-x-x-x-x-x-x-|
|------------------------------0-5-5-5-5-5-5-5-5-5-|
|--------------------------------------------------|


|------------------------------------------|----------------------------*|
|-----------7-7-7-7-7--7-7-7-7-7-7-7-7-7-7-|-7-7-7-7-7------------------*|
|-7-7-7-7-7-7-7-7-7-7--7-7-7-7-7-7-7-7-7-7-|-7-7-7-7-7-7-7-7-9-9-(9)----*|
|-7-7-7-7-7-7-7-7-7-7--7-7-7-7-7-7-7-7-7-7-|-7-7-7-7-7-7-7-7-9-9-(9)----*|
|-5-5-5-5-5-5-5-5-5-5--5-5-5-5-5-5-5-5-5-5-|-5-5-5-5-5-5-5-5-7-7-(7)----*|
|------------------------------------------|-------------------0-(0)----*|


Tablature Legend
----------------
h - hammer-on
p - pull-off
b - bend
pb - pre-bend
r - bend release (if no number after the r, then release immediately)
/\ - slide into or out of (from/to "nowhere")
s - legato slide
S - shift slide
- natural harmonic
[n] - artificial harmonic
n(n) - tapped harmonic
~ - vibrato
tr - trill
T - tap
TP - trem. picking
PM - palm muting
\n/ - tremolo bar dip; n = amount to dip
\n - tremolo bar down
n/ - tremolo bar up
/n\ - tremolo bar inverted dip
= - hold bend; also acts as connecting device for hammers/pulls
- volume swell (louder/softer)
x - on rhythm slash represents muted slash
o - on rhythm slash represents single note slash

Misc Legend
-----------
| - bar
|| - double bar
||o - repeat start
o|| - repeat end
*| - double bar (ending)
: - bar (freetime)
$ - Segno
& - Coda
Tempo markers - = BPM(8/16=s8/s16), where s8 = swing 8ths, s16 = swing 16ths


***************************************************************************************
* Generated using Power Tab Editor by Brad Larsen - http://powertab.guitarnetwork.org *
***************************************************************************************
Tunning: Standard (E A D G B e)
[Intro]
(pickups set to Treble)
Guitar(all guitar here is natural harmonics)
(With wah)
e|-------------------------*12*--------------|
B|----------------------*12*-----------------|
G|-------------------------------------------|
D|-------------------------------------------|
A|-------------------------------------------|
E|-------------------------------------------|

[Bass]
G|-------------------------------------------|
D|-------------------------------------------|
A|------10~~9~~8~~7~~\-----5~~4~~3~~2~~------|
E|-0-----------------------------------------|

(Guitar )
e|----*5*------------------------------------|
B|-*5*---------------------------------------|
G|--------------------*12*~~~~---------------|
D|-------------------------------------------|
A|-------------------------------------------|
E|-------------------------------------------|

[Bass]
G|-------------------------------------------|
D|-------------------------------------------|
A|------10~~9~~8~~7~~\-----5~~4~~3~~2~~------|
E|-0-----------------------------------------|

(Guitar)
e|----------*12*-----*5*---------------------|
B|-------*12*------*5*-*5*-------------------|
G|-----------------------*5*-----------------|
D|-------------------------------------------|
A|-------------------------------------------|
E|-------------------------------------------|

[Bass]
G|-------------------------------------------|
D|-------------------------------------------|
A|------10~~9~~8~~7~~\-----5~~4~~3~~2~~------|
E|-0-----------------------------------------|

(Guitar)
e|-------------------------------------------|
B|------------------------*5*----------------|
G|----*12*----------------*5*----------------|
D|-------------------------------------------|
A|-------------------------------------------|
E|-------------------------------------------|

(Bass)
G|-------------------------------------------|
D|-------------------------------------------|
A|------10~~9~~8~~7~~\-----5~~4~~3~~2~~------|
E|-0-----------------------------------------|

[Verse]
(The Verse Riff is actually two guitar parts)
(played together)
(Guitar 1)
e|-14b-14-12b-12-------------------|
B|---------------14b-14-12b-12-----|
G|---------------------------------|
D|---------------------------------|
A|---------------------------------|
E|---------------------------------|

(Guitar 2)
e|---------------------------------------------|
B|---------------------------------------------|
G|---------------------------------------------|
D|---------------------------------------------|
A|------10--9--8--7\----5--4--3--2-------------|
E|-0------------------0------------------------|
Jimmy plays only Guitar 2 in the live versions. Here are some
variations of that riff that he uses when Live.

e|---------------------------------------------|
B|---------------------------------------------|
G|---------------------------------------------|
D|---------------------------------------------|
A|--9b(10)--9--7b(8)--7\---4b(5)--4--2b(3)--2--|
E|-0---------------------0---------------------|

e|---------------------------------------------|
B|---------------------------------------------|
G|---------------------------------------------|
D|---------------------------------------------|
A|--9b(10)--9--7b(8)--7\------4b(5)--4--3tr2-2-|
E|-0-----------------------0-------------------|

e|-------------------------------------------|
B|-------------------------------------------|
G|-------------------------------------------|
D|-------------------------------------------|
A|------14--13--12--10\----5--4--3--2--------|
E|-0---------------------0-------------------|

e|----------------------------------------------|
B|----------------------------------------------|
G|----------------------------------------------|
D|----------------------------------------------|
A|--9b(10)--9--7b(8)--7\---2b(5)=r(4)=r(3)=r=2--|
E|-0---------------------0----------------------|

[Main riff]
e|--------------------|
B|--------------------|
G|-4-4-4-----2h4------|
D|-4-4-4-2h4-----2h4--|
A|-2-2-2--------------|
E|--------------------|

e|-------------------------------------------|
B|-------------------------------------------|
G|-------------------------------------------|
D|-----------5-5-5---------------------------|
A|-7-7-7--5--------7-------------------------|
E|-------------------------------------------|

(keep doing this only move up)
e|--------------------------------------------------------------|
B|--------------------------------------------------------------|
G|--------------------------------------------------------------|
D|-------------0h2-3-2-------------0h2-4-3--5-4----7-5---9-7----|
A|-------0h2h3----------------0h2h3-----------------------------|
E|-0h2h3-----------------0h2h3----------------------------------|

(if you’re good enough to play this song your probably good enough to improvise or figure
out by ear so just do that for the solo.)

e|-0-0-0-0--5--|
B|-0-0-0-0--5--|
G|-0-0-0-0--6--|
D|-4-3-2-2--7--|
A|-5-4-3-3--5--|
E|-3-2-1-0--5--|

(play these first two parts slightly
mutedand all three parts with a lot of distortion)
e|------------------------------|
B|------------------------------|
G|------------------------------|
D|---7--7-7-5----7-7---7-7-5----|
A|-7----------7--------------7--|
E|------------------------------|

e|------------------------------|
B|------------------------------|
G|------------------------------|
D|---9--9-9-7----9-9---9-9-7----|
A|-9----------9--------------9--|
E|------------------------------|

e|------------------------------------------------------|
B|----------10------------10-----------10-----------10--|
G|----------10------------10-----------10-----------10--|
D|----------10------------10-----------10-----------10--|
A|----------8-------------8------------8------------8---|
E|--10-8-10-----8-10-8-10----8-10-8-10----8-10-8-10-----|

(It’s a really neat riff)

(this is another riff)
e|-------------------------------------------------|
B|-------------------------------------------------|
G|-------------------------------------------------|
D|-----------5----------5----------5--7-7-5-6-5----|
A|----------5----------5----------5------------7---|
E|--3-3-5/7----3-3-5/7----3-3-5/7------------------|

e|---------------15--------------15---------------15--17-17-15-16-15-----|
B|-------------15--------------15---------------15-------------------17--|
G|-12-12-14/16-----12-12-14/16------12-12-14/16--------------------------|
D|-----------------------------------------------------------------------|
A|-----------------------------------------------------------------------|
E|-----------------------------------------------------------------------|

(this part is crazy Plant sings this and Page plays it and its really fast
I couldn’t get the whole thing but I think it’s just a repeat anyway.)
e|------------------------------------------------|
B|------------------------------------------------|
G|------------------------------------------------|
D|------2-4----------2-5-------2-5-----2-5-2-0----|
A|--2-5-----0--2-4-5-----2-4-5-----2-5------------|
E|---------------------------------------------3--|

(yet another riff)
e|---------------------------------------------|
B|-14-14-x-x--14-12-14-x-x-14-12-14-12-14-15---|
G|-14-14-x-x--14-12-14-x-x-14-12-14-12-14-15---|
D|-14-14-x-x--14-12-14-x-x-14-12-14-12-14-15---|
A|---------------------------------------------|
E|---------------------------------------------|

(Do the Crunge)
e|-12-12-12-13-12--12-x-x-x-12-13--|
B|-12-12-12-13-12--12-x-x-x-12-13--|
G|-12-12-12-13-12--12-x-x-x-12-13--|
D|---------------------------------|
A|---------------------------------|
E|---------------------------------|

Violin Bow Solo
(Here, Instead of trying to tab out the studio version (an amalgam of overdubs)
I am going to tab out most of what Page Played at Led Zeppelins performance at
the Royal Albert Hall on January 9th 1970. You can find this on the main feature
on disc one of their DVD. This is not exact so there are probably a lot of errors
and there are parts, which I did not tab so here goes. Forget about rhythm this is in
time.)
Delay is used a lot (feedback 0, 1 second delay).

e|---12====--10====--5===--7===--|
B|---12====--10====--5===--7===--|
G|---14====--12====--7===--9===--|
D|---14====--12====--7===--9===--|
A|---12====--10====--5===--7===--|
E|---12====--10====--5===--7===--|

e|------12/15---17\0--|------12/15-17-19-17h19p17-15-12-12/14-12/14-12\0-------|
B|--------------------|--------------------------------------------------------|
G|-*12*---------------|-*12*---------------------------------------------------|
D|--------------------|--------------------------------------------------------|
A|--------------------|--------------------------------------------------------|
E|--------------------|--------------------------------------------------------|

W/Delay * * * *
e|----------12------10------5-----7------------|
B|----------12------10------5-----7------------|
G|----------12------12------7-----9------------|
D|----------14------12------7-----9------------| (2x)
A|----------14------10------5-----7------------|
E|----------12------10------5-----7------------|

* * * * * * * *
e|-------------------------------------|
B|-------------------------------------|
G|-14--14----12--12----7--7----9--9----|
D|-14--14----12--12----7--7----9--9----| (3x)
A|-12--12----10--10----5--5----7--7----|
E|-12--12----10--10----5--5----7--7----|

* * * * * * * * * * * * *
e|----------------------------------------5---|
B|----------------------------------------5---|
G|-11-11-12-12-14-14-16-14-12-11-9-7------5---|
D|-11-11-12-12-14-14-16-14-12-11-9-7------5---|
A|-9--9--10-10-12-12-14-12-10-9--7-5----------|
E|-9--9--10-10-12-12-14-12-10-9--7-5----------|

e|------------------|--------------|-------------|
B|------------------|--------------|-------------|
G|------------------|--------------|-------------|
D|--5/9===\0----9\0-|--------------|-------------|
A|--5/9===\0----9\0-|--------------|-------------|
E|--3/7===\0----7\0-|-7\1/7\6===\0-|-1/7\6/14\13-|

`’`’`’`’`’`’`
e|---------------------------------------------|
B|---------------------------------------------|
G|---------------------------------------------|
D|---------------------------------------*12*--|
A|---------------------------------------*12*--|
E|-1/7\6/12\11/14\13/14/15~~~~b(17)15----------|

`’`’`’`’`’`
e|-------------------------------|-----------------|------------|
B|-------------------------------|-----------------|-----I------|
G|-------------------------------|-----------------|-----Missed-|
D|-------------------------------|-----------------|-something--|
A|-------------------------------|-----------------|-----here---|
E|-14h15-17-15-14-15-17b(19)17---|---17\0----17\0--|------------|

^ ^ ^ ^ ^ ^
e|--------*5*--|-----------------------|-------------|-------------|
B|--------*5*--|-----------------------|-------------|-------------|
G|-*12*---*5*--|-----------------------|-------------|-------------|
D|-*12*---*5*--|-----------------------|-------------|-------------|
A|-*12*--------|---5\0------------7\0--|-------------|-------------|
E|-*12*--------|---3\O------------5\O--|-1P0-1P0-1P0-|-3P0-3P0-3P0-|

(JUDY JUDY JUDY!) (Everybody…knows…)
* * * * * * * * * * * * *
e|-7-7-6--7-7-6=/10========---------7-7-5--7-7-5—-3========------------|
B|-7-7-6--7-7-6=/10========---------7-7-5--7-7-5—-3========------------|
G|-7-7-6--7-7-6=/10========---------7-7-5--7-7-5—-3========------------|
D|-9-9-8--9-9-8=/12========---------9-9-7--9-9-7—-5========------------|
A|-9-9-8--9-9-8=/12========---------9-9-7--9-9-7-—5========------------|
E|-7-7-6--7-7-6=/10========---------7-7-5--7-7-5—-3========------------|

Repeat a lot
* * * * * * * * * * * * * * * * * * * * * * * * * * *
e|-7-7-5--7-7-5-------------------------------------------------------------|------------|
B|-7-7-5--7-7-5-------------------------------------------------------------|o----------o|
G|-7-7-5--7-7-5-------------------------------------------------------------|------------|
D|-9-9-7--9-9-7---12-12-11-12-12-11--14-14-12--14-14-12--16-16-14--17-17-16-|--16-17-17--|
A|-9-9-7--9-9-7---12-12-11-12-12-11--14-14-12--14-14-12--16-16-14--17-17-16-|o-16-17-17-o|
E|-7-7-5--7-7-5---10-10-9--10-10-9---12-12-10--12-12-10--14-14-12--15-15-14-|--14-15-15--|

^ ^ ^ ^ (Be on my side I’ll be on yours)
e|---------------|--------------------------------------------|
B|---------------|--------------------------------------------|
G|---------------|--------------------------------------------|
D|-16\\\\\\\\\\0-|-4-4----------------------------------------|
A|-14\\\\\\\\\\0-|-2-2--2-2-----------------------------------|
E|-14\\\\\\\\\\0-|------0-0-----------------------------------|

^ ^ ^ ^ ^ (Ahhhhhhhhhhhhhhh)
e|---------------------------------------|
B|---------------------------------------|
G|---------------------------------------|
D|---------------------------------------|
A|-2-2----2-2-----2=======---------------|
E|-0-0----0-0-----0=======---------------|

(Lots of Random Wah Wah here to get a “swoosh” effect)
`’`’`’`’`’`’`’`’`’`’`’`’`’`’`’`’`’`’`’`’`’`’`’`’`’`’`’`’`’`’`’`’`’`’`’`’`’`’`’`’`’
e|----------------------------------------------------------------------------------|
B|----------------------------------------------------------------------------------|
G|----------------------------------------------------------------------------------|
D|----------------------------------------------------------------------------------|
A|3-3-3-3-3-3-3-3-3-3-3-3-3-3-3-3-3-3-3-3-3-3-3-3-3-3-3-3-3-3-3-3-3-3-3-3-3-3-3-3-3-|
E|1-1-1-1-1-1-1-1-1-1-1-1-1-1-1-1-1-1-1-1-1-1-1-1-1-1-1-1-1-1-1-1-1-1-1-1-1-1-1-1-1-|

(?) Indicates just behind the neck pick up
`’`’`’`’`’`’`’`’`’`’`’`’`’`’`’`’`’`’`’`’`’ (Very Rapidly)
e|-------------------------------------------|----------|
B|-------------------------------------------|o--------o|
G|-------------------------------------------|----------|
D|-------------------------------------------|--14/(?)--|
A|-3/////////////////////////////////////(?)-|o-14/(?)-o|
E|-1/////////////////////////////////////(?)-|--12/(?)--|

Single sweep up with bow `’`’`’`’`’`’`’`’`’`’`’`’`’`’` (End Bow Solo)
e|-----------------------|-----------|----------------------------------#########|
B|-----------------------|-----------|-------------------------------------------|
G|-----------------------|-----------|-------------------------------------------|
D|-(?)\\\\\\\\\\\\\\\\\0-|-5/7---5/7-|-3-3-3-3-3-3-3-3-3-3-3-3-3-3-/14========---|
A|-(?)\\\\\\\\\\\\\\\\\0-|-----------|-------------------------------------------|
E|-(?)\\\\\\\\\\\\\\\\\0-|-3/5---3/5-|-1-1-1-1-1-1-1-1-1-1-1-1-1-1-/12========---|

e|--------------------|
B|o------------------o|
G|--------------------|
D|-14-12======--14\0--| (3x)
A|o14-12======--12\0-o|
E|-12-10======--12\0--|

[Pre-solo]
e|-|----------------------------------------------|-----------------------------|
B|-|----------------------------------------------|15-14-12-10-8-7-5-8-7-3-2----|
G|-|-------------12-14-12----------------12-14-12-|--------------------------3/-|
D|-|-------12-14----------14-------12-14----------|-----------------------------|
A|-|-12-14-------------------12-14----------------|-----------------------------|
E|-|----------------------------------------------|-----------------------------|

[Solo]
(Now here’s the solo. If you can master this, Holy Sh*t.)
e|----------------------------------------------------------15p12----1512------|
B|---12--12-15p12--------12-15p12----------12-12-15p12-X-12-------12-------12--|
G|14b16------------14b16----------14-14b16-------------------------------------|
D|-----------------------------------------------------------------------------|
A|-----------------------------------------------------------------------------|
E|-----------------------------------------------------------------------------|


e|15p12---15p12—15p12-------12-15b17-15-12----12-----------------------------|
B|------12-----12-----12-12-12-------------15-15-15p12-----------------------|
G|-----------------------------------------------------14p12----12-14-12-14--|
D|-----------------------------------------------------------14--------------|
A|---------------------------------------------------------------------------|
E|---------------------------------------------------------------------------|


e|---------------------------------------------------------------------------|
B|--------15-----------------------------------------------------------------|
G|12-14b16----16p14p12-14p12---------------------------------!9!b!11!--9b11--|
D|--------------------------14-12-14-12h14p12----12h14p12--0-----------------|
A|--------------------------------------------14-----------------------------|
E|---------------------------------------------------------------------------|

e|---------------------------------------------------------------------------|
B|---------------------------------------------------------------------------|
G|---7-9-7-7-7\6-6\5-6-7\6-4-6\4\3-4-2-2\0-4-2\0---0-0-0b2--0-0b2-0-0b2-0-0b2|
D|---------------------------------------------------------------------------|
A|---------------------------------------------------------------------------|
E|---------------------------------------------------------------------------|

e|---------------------------------------------------------15p12-15-15b12----|
B|------------------------------------------------------12-------12-12----12-|
G|--0-0-0b4-0-0b2--0-0b4b4-0-0b2-0-0b4-0-0b3-0-0-b4r0------------------------|
D|---------------------------------------------------------------------------|
A|---------------------------------------------------------------------------|
E|---------------------------------------------------------------------------|

e|15p12----15p12----15—15p12-----15--15b17-15-17---15b17-15b17-15-12-----12----|
B|------12-------12------------12-------------------------------------15-------|
G|-----------------------------------------------------------------------------|
D|-----------------------------------------------------------------------------|
A|-----------------------------------------------------------------------------|
E|-----------------------------------------------------------------------------|

e|---------------------------------------------------------------------------|
B|15p12--------------------------15------------------------------------------|
G|-------14p12----12-14-12-14h16----16p14p12-14p12---------------------------|
D|-------------14----------------------------------14-12h14p12----12-12------|
A|-------------------------------------------------------------14----12h14p12|
E|---------------------------------------------------------------------------|

e|--------------------------------------------------------------------19b21--|
B|----------------------------17b20---17b19-17b20--17b19-15-15--17-17--------|
G|---------------------------------------------------------------------------|
D|---------------------------------------------------------------------------|
A|h14p12---------10--12-10---------------------------------------------------|
E|------------12-------------------------------------------------------------|

e|19p18--17------------------------------------------------------------------|
B|----------20-20p17----17-20—17h20p17-----17-20-17h20p17-----17-20-17h20p17-|
G|-------------------19------------------19-----------------19---------------|
D|---------------------------------------------------------------------------|
A|---------------------------------------------------------------------------|
E|---------------------------------------------------------------------------|

e|---------------------------------------------------------------------------|
B|----17-20-17h20p17----17-20-20b22--19b21-21b22-19b20-19b20b22--------20b22b|
G|-19----------------19------------------------------------------------------|
D|----------------------------------------------------------------0-0--------|
A|---------------------------------------------------------------------------|
E|---------------------------------------------------------------------------|

e|-------------------------------------19b22r19----------19b22r19------------|
B|24r20p17--17-17--20b24r20-17-17-17-17----------17-17-17----------17-17-17--|
G|---------------------------------------------------------------------------|
D|---------------------------------------------------------------------------|
A|---------------------------------------------------------------------------|
E|---------------------------------------------------------------------------|

e|---------------------------------------------------------------------------|
B|---17-20b23r20--17-17----17b20r17-15-15--15b17r15--------------------------|
G|----------------------0--17-----------------------12-12----12b14r12-9-9--9-|
D|---------------------------------------------------------------------------|
A|---------------------------------------------------------------------------|
E|---------------------------------------------------------------------------|

e|---------------------------------------------------------------------------|
B|-----------------------------------------------------4p2p0-------------!4!-|
G|----9b11-9b11r9--7--4b6r4--4—4p2p0-2—4p2p0-2—4p2p0-2—4p2p0-2--2--4--2---4--|
D|-------------0-------------------------------------------------------------|
A|---------------------------------------------------------------------------|
E|---------------------------------------------------------------------------|

e|---------------------------------------|
B|----2/4\2\0----------------------------|
G|----2/4\2\0---0—2p0h2p0h2--------------|
D|--------------------------4p2p0--------|
A|--------------------------------4p2p0--|
E|---------------------------------------|

(These riffs and licks are yet again taken from the how the west was won solo. Just fool
with it.)
(play these first two parts slightly muted and all three parts with a lot of distortion)
e|------------------------------|
B|------------------------------|
G|------------------------------|
D|---7--7-7-5----7-7---7-7-5----|
A|-7----------7--------------7--|
E|------------------------------|

e|------------------------------|
B|------------------------------|
G|------------------------------|
D|---9--9-9-7----9-9---9-9-7----|
A|-9----------9--------------9--|
E|------------------------------|

e|------------------------------------------------------|
B|----------10------------10-----------10-----------10--|
G|----------10------------10-----------10-----------10--|
D|----------10------------10-----------10-----------10--|
A|----------8-------------8------------8------------8---|
E|--10-8-10-----8-10-8-10----8-10-8-10----8-10-8-10-----|

(this is another riff)
e|-------------------------------------------------|
B|-------------------------------------------------|
G|-------------------------------------------------|
D|-----------5----------5----------5--7-7-5-6-5----|
A|----------5----------5----------5------------7---|
E|--3-3-5/7----3-3-5/7----3-3-5/7------------------|

e|---------------15--------------15---------------15--17-17-15-16-15-----|
B|-------------15--------------15---------------15-------------------17--|
G|-12-12-14/16-----12-12-14/16------12-12-14/16--------------------------|
D|-----------------------------------------------------------------------|
A|-----------------------------------------------------------------------|
E|-----------------------------------------------------------------------|

(this part is crazy Plant sings this and Page plays it and its really fast
I couldn’t get the whole thing but I think it’s just a repeat anyway.)
e|------------------------------------------------|
B|------------------------------------------------|
G|------------------------------------------------|
D|------2-4----------2-5-------2-5-----2-5-2-0----|
A|--2-5-----0--2-4-5-----2-4-5-----2-5------------|
E|---------------------------------------------3--|

(yet another riff)
e|---------------------------------------------|
B|-14-14-x-x--14-12-14-x-x-14-12-14-12-14-15---|
G|-14-14-x-x--14-12-14-x-x-14-12-14-12-14-15---|
D|-14-14-x-x--14-12-14-x-x-14-12-14-12-14-15---|
A|---------------------------------------------|
E|---------------------------------------------|

(Do the Crunge)
e|-12-12-12-14-12--12-x-x-x-12-14--|
B|-12-12-12-14-12--12-x-x-x-12-14--|
G|-12-12-12-14-12--12-x-x-x-12-14--|
D|---------------------------------|
A|---------------------------------|
E|---------------------------------|

[Post-solo]
e|-|------------------------------|
B|-|------------------------------|
G|-|-9======-7-----9=======12===--|
D|-|-9======-7-7===9=======12===--| (3x)
A|-|-7======-5-7===7=======10===--|
E|-|-----------5===---------------|

[Outro]
e|------------|------------|------------|------------|---------------|
B|------------|------------|------------|------------|---------------|
G|99997-------|------------|------------|------------|---------------|
D|99997-------|77775-------|99997-------|121212129---|1414141412-----|
A|77775-------|------------|------------|------------|---------------|
E|------------|55553-------|77775-------|101010107---|1212121210-----|

e|-------------|
B|-------------|
G|-----7p6p5---|
D|-------------| (9x)
A|-0000--------|
E|-------------|

e|---------------------------|
B|---------------------------|
G|-7-7-7---------7-7-7-9-----|
D|-7-7-7—8-times-7-7-7-9-----|
A|-5-5-5---------5-5-5-7-----|
E|---------------------0-----|


************************************

| * Natural harmonic
| ~ Vibrato
| b Bend
| \ Slide down
| tr Trill
| h Hammer-on
| / Slide up
| x Dead note
| p Pull-off
| r Release

************************************
Tunning: Standard (E A D G B e)
''Dazed and confused live (royal albert hall)''
play this with a fuzz pedal and wah and echo for the solo.
tabbed by.brian91145
Heres the video i tabbed from...Led zeppelin DVD
-----------------------------------------------------------------

play the intro with the wah pedal.(watch for timing)

* * * * * * *
e|-------12----------12-------5---------------------x//--------------------|
B|---12----------12--------5------------------------x//--------------------|
G|-----------------------------------12bbbbb~~------x//-string noise.------|
D|--------------------------------------------------x//--------------------|
A|-------------------------------------------------------------------------|
E|-------------------------------------------------------------------------|

* * * * * * * * *
e|----7------------7--------------------12---------------------------------|
B|-------7-------------7-------------12-12---------------------------------|
G|----------5bb~----------5bbb~------12---------12bbb~~--------------------|
D|-------------------------------------------------------------------------|
A|-------------------------------------------------------------------------|
E|-------------------------------------------------------------------------|

Been dazed and confused so long its not true....
*
e|-xx///-----------------------------------------------------5------------|
B|-xx///-----------------------------------------------------5------------|
G|-xx///--------------------------------------------------very soft^^-----|
D|-xx///------------------------------------------------------------------|
A|------------------------------------------------------------------------|
E|------------------------------------------------------------------------|
Woman woman woman,..

wah off.
e|------------------------------------------------------------------------|
B|------------------------------------------------------------------------|
G|------------------------------------------------------------------------|
D|------------------------------------------------------------------------|
A|----------/10~~--9~~--8b~~-8~--7~~-----------------5~~--4~~--3b~-3~-2---|
E|--0---0--------------------------------//\\-----0-----------------------|

e|------------------------------------------------------------------------|
B|------------------------------------------------------------------------|
G|------------------------------------------------------------------------|
D|------------------------------------------------------------------------|
A|----------------14~~--13~~--12~---12~--10------------5~--4~--2b~~~---2--|
E|---///\\\---0-----------------------------------0-----------------------|

Ive worked.........sweet little baby you pushed me away.

e|-------------------------------------------------------------------------|
B|xx//---------------------------------------------------------------------|
G|xx//----------------------14--12--14~--14b~---14b----14--14b---14-12/----|
D|xx//---------------------------------------------------------------------|
A|xx//---------------------------------------------------------------------|
E|-------------------------------------------------------------------------|

repeat this 4 x.
e|--------------------------------------|-----------------------------------|
B|--------------------------------------|-----------------------------------|
G|--------------------------------------|---------------2-4-----------------|
D|--14b16--14b16--14b16--14p12--12t14/--|--4-4-4---2--4-----2-4-------------|
A|------------------------------------14|--2-2-2----------------------------|
E|--------------------------------------|-----------------------------------|

e|------------------------------------------------------------------------|
B|------------------------------------------------------------------------|
G|------------------------------------------------------------------------|
D|------------------------------------------------------------------------|
A|----------/10~~--9~~--8b~~-8~--7~~-----------------5~~--4~~--3b~-3~-2---|
E|--0---0--------------------------------//\\-----0-----------------------|

e|------------------------------------------------------------------------|
B|------------------------------------------------------------------------|
G|------------------------------------------14/---------------------------|
D|------------------------------------------------------------------------|
A|----------------14~~--13~~--12~---12~--10------------5~--4~--2b~~~---2--|
E|---///\\\---0-----------------------------------0-----------------------|

I said come hear baby...
-------------------------

slide with pick. (neck pickup)
e|--1/21------------------------------------------------------------------|
B|------------------------------------------------------------------------|
G|--------------12--14--14b~~--14-14-12/----------------------------------|
D|----------------------------------------14b16--14-12/-------------------|
A|------------------------------------------------------12t14/------------|
E|------------------------------------------------------------------------|

e|-------------------------------|
B|-------------------------------|
G|---------------2--4------------|4x
D|--4-4-4---2--4------2-4--------|
A|--2-2-2------------------------|
E|-------------------------------|

palm mute. neck pickup.
e|-----------------------------------------------------------------------------|
B|-----------------------------------------------------------------------------|
G|------------------------------------------------------------12---------------|
D|-----------------------------------------------------12--14----14~---14/-----|
A|---5--5--5----5---2------5---5---5----5---2------/14-------------------------|
E|---3--3--3----3---0------3---3---3----3---0----------------------------------|

e|----------------------------------------------------------------------------------|
B|--------------15------------------------------------------------------------------|
G|--12--14--14b----14b--14--12------------------------------------------------------|
D|------------------------------14--14~---------------------------------------------|
A|---------------------------------------12hphp14/11--11t12-11-----11t12-12-11~-----|
E|----------------------------------------------------------------------------------|

e|--------------------------------------------------------------------|
B|--------------------------------------------------------------------|
G|--------------------------------------------------------------------|
D|----------------------------------------------------9---------------|
A|-11hphphph12----------11hphphph12-------------------7---------------|
E|--------------12~/------------------12~/------------0---------------|

violin bow! neck pickup.
e|--0---------------------------------------------------------------------|
B|--0---------------------------------------------------------------------|
G|--0---------------------------------------------------------------------|
D|--14-------14----12----7---9-------14~--12~--7~--9~---------------------|
A|--12-------12----10----5---7-------12~--10~--5~--7~---------------------|
E|--0---------------------------------------------------------------------|

turn the delay on now.
* *
e|----12-----12-12--14--15~/17----12---12--12--14--15--15/17~--15--14--15--14hp15-|
B|----12--------------------------12----------------------------------------------|
G|----12--------------------------12----------------------------------------------|
D|--------------------------------------------------------------------------------|
A|--------------------------------------------------------------------------------|
E|--------------------------------------------------------------------------------|

*
e|--12---12hp14-------12~~----12----12--14--15--15/17~--15--14-15-14hp15-12-14-12hp14-|
B|----------------15----------12------------------------------------------------------|
G|----------------------------12------------------------------------------------------|
D|------------------------------------------------------------------------------------|
A|------------------------------------------------------------------------------------|
E|------------------------------------------------------------------------------------|

* *
e|-12~-10-12--10hp12-8-10--8hp10--7~------5----12-----------------------|
B|----------------------------------------5----12-----------------------|
G|----------------------------------------5----12-----------------------|
D|----------------------------------------5----12-----------------------|
A|----------------------------------------5----12-----------------------|
E|----------------------------------------5----12-----------------------|

echo now repeats twice.(bridge pickup)
e|----------------------------------------------------------------------------|
B|----------------------------------------------------------------------------|
G|----------------------------------------------------------------------------|
D|--14-14~---12-12~---7-7~---9-9~----14-14-14~---12-12-12~---7-7-7~---9-9-9~--|
A|--12-12~---10-10~---5-5-~--7-7~----12-12-12~---10-10-10~---5-5-5~---7-7-7~--|
E|----------------------------------------------------------------------------|

e|-------------------------------------------------------------------|
B|-------------------------------------------------------------------|
G|-------------------------------------------------------------------|
D|-14-14---12--12---7-7-7---9-9------14-14---12-12---7-7-7---9-9-----|
A|-12-12---10--10---5-5-5---7-7------12-12---10-10---5-5-5---7-7-----|
E|-------------------------------------------------------------------|

e|----------------------------------------------------------------------------|
B|----------------------------------------------------------------------------|
G|----------------------------------------------------------------------------|
D|-11-11-11-11---12-12---14-14-14---16-16---17~--19--17-17-16-15-14-----------|
A|-9--9--9--9----10-10---12-12-12---14-14---15~--17--15-15-14-13-12-----------|
E|----------------------------------------------------------------------------|

neckpickup.
e|-------------------------------------------------------------------|
B|-------------------------------------------------------------------|
G|----------------------------------5~-------------------------------|
D|-12-12/11-11/12-12/11-11/12~------5~-------------------------------|
A|-10-10/9--9/-10-10/9--9/-10~------3~---------9/0----9/0----9/4/9---|
E|---------------------------------------------7/0----7/0----7/2/7---|

*
e|---------------------------------------------------------------------12----|
B|---------------------------------------------------------------------12----|
G|---------------------------------------------------------------------12----|
D|---------------------------------------------------------------------------|
A|/10/8/4/8~------/9\8---/16/15----/9/8---/14/13/16/15~~---------------------|
E|/8//6/2/6~------/7\6---/14/13----/7/6---/12/11/14/13~~----15~-15b~---------|

e|----------------------------------------------------------------------------|
B|----------------------------------------------------------------------------|
G|----------------------------------------------------------------------------|
D|----------------------------------------------------------------------------|
A|----------------------------------------------------------------------------|
E|----14~--15-16-17--15-14-15--17b~--17-15-14---12~/0--12/0-12/0--12/0--------|

* *
e|-----------12------5---------------------3/0---------------------------------|
B|-----------12------5---------------------3/0---------------------------------|
G|-----------12------5---------------------4/0---------------------------------|
D|-9---------12------5---------------------5/0---------------------------------|
A|-7---------12------5------5/0------------5/0-------------------------2-------|
E|-0------------------------3/0------------3/0-----------3-2-3-2-3-2-3-0-------|
ahhahh ah. ahah oh.

e|-------------------------------------------------------------------|
B|-------------------------------------------------------------------|
G|-------------------------------------------------------------------|
D|----------------------------------------------------------------5~-|
A|-----------------2--2--------9/8/9/8/9/8/9/12~----9/8/9/8/9/8/9/5~-|
E|---------3-3-5-5----0--------7/6/7/6/7/6/7/10~----7/6/7/6/7/6/7/3~-|
hmmm oh, oh oh Judy,judy...

e|------------------------------------------------------------------------|
B|------------------------------------------------------------------------|
G|------------------------------------------------------------------------|
D|------------------------------------------------------------------------|
A|-8/9/8/9/8/9~----11/12/11/12/11/12~---14/15/14/15/14/15~---17/19/17/19~-|
E|-6/7/6/7/6/7~----9-/10/9-/10/9/-10~---12/13/12/13/12/13~---15/17/15/17~-|

e|-------------------------------------------1----///xx-----------------------|
B|-------------------------------------------1----///xx-----------------------|
G|-------------------------------------------2----///xx-----------------------|
D|-------------------------------------------3----///xx---slide-like crazy.---|
A|-17/0--------------------------------------3----///xx-----------------------|
E|-15/0----0--0--------------------0---0-----1----///xx-----------------------|
Be on my side... lots of random wah here!

(18:19)
e|------------------------------------------------------------------|
B|------------------------------------------------------------------|
G|---------9~~~~~~--------------------------------------------------|
D|--9--------------------7~-----7----9~---9--7-7--7----9~-----------|
A|--7--------------------5~-----5----7~---7--5-5--5----7~-----------|
E|--0---------------------------------------------------------------|

e|-------------------------------------------------------------------|
B|-------------------------------------------------------------------|
G|-----------------12--14--12------------------------12--14----12~---|4X
D|----------12--14-------------14~------------12--14-----------------|
A|---12--14----------------------------12--14------------------------|
E|-------------------------------------------------------------------|

e|----------------------------------------------------------------------------|
B|---15-------14------13-------10--------8-------7------3------8--------------|
G|---17b19~---16b18~--15b17~---12b14~----10b12~--9b11~--5b7~---10b12~---------|
D|----------------------------------------------------------------------------|
A|----------------------------------------------------------------------------|
E|----------------------------------------------------------------------------|

e|--------------------------------------------------------------------------|
B|-7------3-----2----------8---------10-------15------17-----20b~ 20b~ 20b~-|
G|-9b11~--5b7~--4b6~-------10b12~~---12b14~~--17b17~--19b21~----------------|
D|--------------------------------------------------------------------------|
A|--------------------------------------------------------------------------|
E|--------------------------------------------------------------------------|

[SOLO](sorry guys i cant tab the live solo. to hard to tab. just improvise something like this.)
e|--------------------------------------------------------15\12----15\12---|
B|---12--12-15\12-------12-15\12---------12-12-15\12-X-12-------12-------12|
G|14b16-----------14b16----------14-14b16----------------------------------|
D|-------------------------------------------------------------------------|
A|-------------------------------------------------------------------------|
E|-------------------------------------------------------------------------|

e|15\12---15\12--15\12------12-15b17-15-12----12---------------------------|
B|------12-----12-----12-12-12-------------15-15-15\12---------------------|
G|-----------------------------------------------------14\12----12-14-12-14|
D|-----------------------------------------------------------14------------|
A|-------------------------------------------------------------------------|
E|-------------------------------------------------------------------------|

e|-------------------------------------------------------------------------|
B|--------15---------------------------------------------------------------|
G|12-14b16----16\14\12-14\12---------------------------------!9!b!11!--9b11|
D|--------------------------14-12-14-12/14\12----12/14\12--0---------------|
A|--------------------------------------------14---------------------------|
E|-------------------------------------------------------------------------|

e|-------------------------------------------------------------------------|
B|-------------------------------------------------------------------------|
G|--7-9-7-7-7\6-6\5-6-7\6-4-6\4\3-4-2-2\0-4-2\0--0-0-0b2--0-0b2-0-0b2-0-0b2|
D|-------------------------------------------------------------------------|
A|-------------------------------------------------------------------------|
E|-------------------------------------------------------------------------|

e|-------------------------------------------------------15\12-15-15b12----|
B|----------------------------------------------------12-------12-12----12-|
G|-0-0-0b4-0-0b2--0-0b4b4-0-0b2-0-0b4-0-0b3-0-0-b4r0-----------------------|
D|-------------------------------------------------------------------------|
A|-------------------------------------------------------------------------|
E|-------------------------------------------------------------------------|

e|15\12----15\12----15--15\12-----15--15b17-15-17-15b17-15b17-15-12----12--|
B|------12-------12------------12-----------------------------------15-----|
G|-------------------------------------------------------------------------|
D|-------------------------------------------------------------------------|
A|-------------------------------------------------------------------------|
E|-------------------------------------------------------------------------|

e|-------------------------------------------------------------------------|
B|15\12------------------------15------------------------------------------|
G|------14\12---12-14-12-14/16----16\14\12-14\12---------------------------|
D|------------14---------------------------------14-12/14\12----12-12------|
A|-----------------------------------------------------------14----12/14\12|
E|-------------------------------------------------------------------------|

e|------------------------------------------------------------------19b21--|
B|--------------------------17b20---17b19-17b20--17b19-15-15--17-17--------|
G|-------------------------------------------------------------------------|
D|-------------------------------------------------------------------------|
A|/14\12---------10--12-10-------------------------------------------------|
E|------------12-----------------------------------------------------------|

e|19\18--17----------------------------------------------------------------|
B|----------20-20\17----17-20--17/20\17----17-20-17/20\17----17-20-17/20\17|
G|-------------------19-----------------19----------------19---------------|
D|-------------------------------------------------------------------------|
A|-------------------------------------------------------------------------|
E|-------------------------------------------------------------------------|

e|-------------------------------------------------------------------------|
B|----17-20-17/20\17----17-20-20b22--19b21-21b22-19b20-19b20b22------20b22b|
G|-19----------------19----------------------------------------------------|
D|--------------------------------------------------------------0-0--------|
A|-------------------------------------------------------------------------|
E|-------------------------------------------------------------------------|

e|-------------------------------------19b22r19---------19b22r19-----------|
B|24r20\17--17-17--20b24r20-17-17-17-17---------17-17-17---------17-17-17--|
G|-------------------------------------------------------------------------|
D|-------------------------------------------------------------------------|
A|-------------------------------------------------------------------------|
E|-------------------------------------------------------------------------|

e|-------------------------------------------------------------------------|
B|--17-20b23r20--17-17----17b20r17-15-15--15b17r15-------------------------|
G|---------------------0--17-----------------------12-12---12b14r12-9-9--9-|
D|-------------------------------------------------------------------------|
A|-------------------------------------------------------------------------|
E|-------------------------------------------------------------------------|

e|-------------------------------------------------------------------------|
B|----------------------------------------------------4\2\0-------------!4!|
G|9b11-9b11r9--7--4b6r4-4--4\2\0-2--4\2\0-2--4\2\0-2--4\2\0-2--2--4--2---4-|
D|-------------0-----------------------------------------------------------|
A|-------------------------------------------------------------------------|
E|-------------------------------------------------------------------------|

e|---------------------------------------|
B|----2/4\2\0----------------------------|
G|----2/4\2\0--0--2\0/2\0/2--------------|
D|--------------------------4\2\0--------|
A|--------------------------------4\2\0--|
E|---------------------------------------|
==============================================

(19:32)
e|----------------------------------------------------------------17---------------|
B|---15--17b19-17b19-17b19-17b19--17-15~--15-17-17b19-17b19-17b19---17b19--17--15~~|
G|---------------------------------------------------------------------------------|2x
D|---------------------------------------------------------------------------------|
A|---------------------------------------------------------------------------------|
E|---------------------------------------------------------------------------------|

e|-------------------------------------------------------------------------|
B|------------------------------------------------------10-----------------|
G|--7--9b11-9b11-9b11--9b11--9~--7~----7--9b11-9b11-9b11---9b11--9--7~~----|
D|-------------------------------------------------------------------------|
A|-------------------------------------------------------------------------|
E|-------------------------------------------------------------------------|

(improvise in Em pentitonic scale)
========================================

(19:57)
e|----------------------------------------------------------|
B|----------------------------------------------------------|
G|---5--7b9-5~---7b9--5----5~-7-9-7-5hp7--5~----------------|2x
D|----------------------------------------------------------|
A|----------------------------------------------------------|
E|----------------------------------------------------------|

e|-------------------------------------------------------------------|
B|-------------------------------------------------------------------|
G|---4~---4p2p0--2~----2p0--0------2p0-------------------------------|
D|-------------------------------------4~-----2p0---2~~--------------|
A|-------------------------------------------------------------------|
E|-------------------------------------------------------------------|

|--------------------------------------------------|
|--------------------------------------------------|
|-------------9---9-------------------9--9---------|3x
|-5-----7-----7---7-------------------7--7---------|
|-3-----5-----0---0-------------------0--0---------|
mama mama mama

e|-------------------------------------------------------------------|
B|-------------------------------------------------------------------|
G|--0--0--0--0bbb~~~~-------------0--0--0--0bb~~-----0 2h0---4~~-----|
D|-------------------------------------------------------------------|
A|-------------------------------------------------------------------|
E|-----------------------0x------------------------------------------|


e|---------------------------------------------------------19-trem pick-|
B|-----------------------------------15 trem pick to 22-----------------|
G|-2p0--7~~----2p0--9~~---2p0--12~~-------------------------------------|
D|----------------------------------------------------------------------|
A|----------------------------------------------------------------------|
E|----------------------------------------------------------------------|

(improvise) till (21:43)

e|-------------------------------------------------------------------|
B|-------------------------------------------------------------------|
G|-------------------------------------------------------------------|
D|-------------------------------------------------------------------|
A|--9---7---4----7~------7/11----11/7/--7/4--------------------------|
E|--7---5---2----5~------5/9-----9/-5/--5/2--------------------------|
(neck pickup)

e|-------------------------------------------------------------------|
B|-------------------------------------------------------------------|
G|-------------------------------------------------------------------|
D|-2--------2----/9/8~--------2------2----/9/8~----12/15/14~---------|
A|-0--------0----/7/6-~-------0------0----/7/6~----10/13/12~---------|
E|-------------------------------------------------------------------|

e|---------------------------------------------------------------------|
B|---------------------------------------------------------------------|
G|--------------------------------------------------------------14-----|
D|-2----/9/8~~---12/15/14~~~------14---9---8~~-----8/9/8-9/8/15/--~~---|
A|-0----/7/6~~---10/13/12~~~------12---7---6~~-----6/7/6/7/6/13/12~~---|
E|---------------------------------------------------------------------|

(bridge pickup)
e|---0--0----0---0--0-0---0--0--0--0--0--0--0--0--0----0--0----0-----------|
B|-------------------------------------------------------------------------|
G|---2--2----2---4--5-5---5--4--5--7--7--9--9--11-11--12--14---12--14~~~~--|
D|-------------------------------------------------------------------------|
A|-------------------------------------------------------------------------|
E|-------------------------------------------------------------------------|

e|---------------------------------------------------------------------|
B|---------------------------------------------------------------------|
G|-17~~----17b19---17~~----17b19 17~-----this-note with feedback--(17)!|
D|---------------------------------------------------------------------|
A|---------------------------------------------------------------------|
E|---------------------------------------------------------------------|

e|------------------------------------------------------------|
B|------------------------------------------------------------|
G|------------------------------------------------------------|
D|-9~----7~-----------7~-/--9~--------9~---12~----------------|x3
A|-7~----5~---7~------5~-/--7~--------7~---10~----------------|
E|-0----------5~----------------------------------------------|

e|-------------------------------|
B|-------------------------------|
G|---------------2--4------------|4x
D|--4-4-4---2--4------2-4--------|
A|--2-2-2------------------------|
E|-------------------------------|

e|------------------------------|
B|-15b17-15--12-----------------|
G|---------------14b-14-12------|Little riff after this plays^^
D|-------------------------14~--|
A|------------------------------|
E|------------------------------|

(heavy fuzz)
e|------------------------------------------------------------------------|
B|------------------------------------------------------------------------|
G|------------------------------------------------------------------------|
D|------------------------------------------------------------------------|
A|----------/10~~--9~~--8b~~-8~--7~~-----------------5~~--4~~--3b~-3~-2---|
E|--0---0--------------------------------//\\-----0-----------------------|

e|------------------------------------------------------------------------|
B|------------------------------------------------------------------------|
G|------------------------------------------14/---------------------------|
D|------------------------------------------------------------------------|
A|----------------14~~--13~~--12~---12~--10------------5~--4~--2b~~~---2--|
E|---///\\\---0-----------------------------------0-----------------------|

(neck)
e|---------------------xx//-------------------------------------------------------|
B|---------------------xx//-----------------------------------15b-15b-------------|
G|---------------------xx//------------------14b--14p12---------------14b 14p12---|
D|---------------------xx//-----------------------------14-14-------------------14|
A|---------------------xx//-------------------------------------------------------|
E|---------------------xx//-------------------------------------------------------|
every day i work.. try to love...

(bridge)pickup
e|-------------------------------|
B|-------------------------------|
G|---------------2--4------------|4x
D|--4-4-4---2--4------2-4--------|
A|--2-2-2------------------------|
E|-------------------------------|

e|--------------------------------------------------------------|
B|--------------------------------------------------------------|
G|---------------------7-7-7-5~----9-9-9-7~--12-12-12-11~-------|
D|---5-5-5-5-----------7-7-7-5~----9-9-9-7~--12-12-12-11~-------|
A|------------2-------------------------------------------------|
E|---3-3-3-3--0-------------------------------------------------|

(neck Pickup)
e|-------------------------------------------------------------------|
B|-------------------------------------------------------------------|
G|-14-14-14-13~------------------------------------------------------|
D|-14-14-14-13~-----------12p11p10------12p11p10---12p11p10--12p11p10|
A|-------------------------------------------------------------------|
E|------------------0-0-0----------0-0-0-----------------------------|

e|--------------------------------------------------------------------|
B|--------------------------------------------------------------------|
G|---------------------12p11p10--------------------------11~~---------|
D|-12p11p10--12p11p10-------------12p11p10---12p11p10-----------------|
A|--------------------------------------------------------------------|
E|--------------------------------------------------------------------|

e|-------------------------------------------------------------------|
B|-------------------------------------------------------------------|
G|------------12~--10~--11~-------------------12~-10~-11~---11/14~---|
D|--12p11p10------------------------12p11p10-------------------------|
A|-------------------------------------------------------------------|
E|-------------------------------------------------------------------|

e|-----------------------------------------------10----------------------|
B|--------------------------------------------10-----13b---10------------|
G|---12-10-11~----------------------------12b------------------12b-12-10~|
D|-------------12-10------------12-12~-----------------------------------|
A|--------------------12-10-9--------------------------------------------|
E|-----------------------------------------------------------------------|

e|----------------------------------------------------------------|
B|-------------10----------------10------------------8------------|
G|-12~~----12b----13-12~~----12b----13--12~---10--/9---9----------|
D|----------------------------------------------------------------|
A|----------------------------------------------------------------|
E|----------------------------------------------------------------|

e|---------------------------------------10---------------------------|
B|-------------------------------------10------------15-10------------|
G|-10~--------------------------12b14--------12b14------------12b--10-|
D|------12--10--/14--12~----------------------------------------------|
A|--------------------------------------------------------------------|
E|--------------------------------------------------------------------|

e|-------------------------------------------------------------------------|
B|-------------------------------------------------------------------------|
G|---12----10hp12------10hp12----10hp12------------------------------------|
D|-----------------12---------12--------12----12~-----10hp12---------------|
A|------------------------------------------------------------//12~~-------|
E|-------------------------------------------------------------------------|

e|--------------------------------------------------------------------------|
B|--10--10--10--10--10----------------------------12---15~-15~-15~-15~------|
G|--9b--9b--9b--9b--9b---7---9p7--------7~~---------------------------------|
D|---------------------------------9p7--------------------------------------|
A|--------------------------------------------------------------------------|
E|--------------------------------------------------------------------------|

e|----------------------------------------------------------------------------------|
B|-15~--15~--15~---12--15hp12-------------------------------------------------------|
G|-----------------------------14--12hp14---------------------------------11--------|
D|------------------------------------------10--12~--12--10--12-10----/12----11--12~|
A|----------------------------------------------------------------------------------|
E|----------------------------------------------------------------------------------|

e|------------13--------------------------------------------------------------|
B|---------13-----15~---15-----13hph15~---13hph15~---13hph15~----13hph15~-----|
G|---//14~--------------------------------------------------------------------|
D|----------------------------------------------------------------------------|
A|----------------------------------------------------------------------------|
E|----------------------------------------------------------------------------|

e|----------------------------------------------------------------------------|
B|----------------------------------------------------7-7-7-7-7---------------|
G|----------------------------------------------------7-7-7-7-7---------------|
D|----------------------------------------------------7-7-7-7-7---------------|
A|----------------------------------------------------5-5-5-5-5---------------|
E|--12/14/10~------12/9~-----12/14/9~------12/0-------------------------------|

e|--------------------------------------------------------------------------|
B|---7--7-7--7--7----------7-7-7-7-7------7-7-7-7-7-------7-7-7-7-7---------|
G|---7--7-7--7--7----------7-7-7-7-7------7-7-7-7-7-------7-7-7-7-7---------|
D|---7--7-7--7--7----------7-7-7-7-7------7-7-7-7-7-------7-7-7-7-7---------|
A|---5--5-5--5--5----------5-5-5-5-5------5-5-5-5-5-------5-5-5-5-5---------|
E|--------------------------------------------------------------------------|
ahhhh...
e|-----------------------------------------------------------------------|
B|--7-7-7-7-7-------7-7-7-7-7------7-7-7-7-7------7-7-7-7-7----7-7-7-7-7-|
G|--7-7-7-7-7-------7-7-7-7-7------7-7-7-7-7------7-7-7-7-7----7-7-7-7-7-|
D|--7-7-7-7-7-------7-7-7-7-7------7-7-7-7-7------7-7-7-7-7----7-7-7-7-7-|
A|--5-5-5-5-5-------5-5-5-5-5------5-5-5-5-5------5-5-5-5-5----5-5-5-5-5-|
E|-----------------------------------------------------------------------|

e|------------------------------12------------------------------------------|
B|------8-8-8----------------12----13b15--13-10-----------------------------|
G|------7-7-7----------12b14---------------------12b14--12-------12p10p0----|
D|------6-6-6----------------------------------------------12-12------------|
A|------7-7-7---------------------------------------------------------------|
E|--0-----------------------------------------------------------------------|

e|-------------------------------------------------------------------|
B|-------------------------------------------------------------------|
G|--12p10p0--12p10p0--12p10p0---12---10--12--11~~~/------------------|
D|----------------------------------------------------x--------------|
A|-------------------------------------------------------------------|
E|-------------------------------------------------------------------|
Thats it please rate high.(do not copy and post tabs of this. i worked very hard)


******************************

| b bend
| h hammer on
| p pull off
| bb bend behind nut
| hp hammeron pulloff
| * harmonic.
| ~ vibrato
| x muted
| xx/ pick slide

******************************
Song info
Dazed And Confused
Led Zeppelin
2001
  • Blues
  • Rock
  • Blues Rock
  • Classic Rock
Alternative tracks
Similar songs
Time Machine - Joe satriani
Hollywood Nights - Bob Seger
Spirit In The Sky - Norman Greenbaum
Beast Of Burden - The Rolling Stones

Hi! Hope you enjoy backing track experience.
If you want to help us in the development of the project, feel free to donate!