Stairway To Heaven - Led Zeppelin
00:00 / 00:00
Tabs and lyrics
Tunning: Nashville (E A D G B E)
[Intro]
E|-------5-7-----7-|-8-----8-2-----2-|-0---------0-----|-----------------|
B|-----5-----5-----|---5-------3-----|---1---1-----1---|-0-1-1-----------|
G|---5---------5---|-----5-------2---|-----2---------2-|-0-2-2-----------|
D|-7-------6-------|-5-------4-------|-3---------------|-----------------|
A|-----------------|-----------------|-----------------|-2-0-0---0--/8-7-|
E|-----------------|-----------------|-----------------|-----------------|

E|---------7-----7-|-8-----8-2-----2-|-0---------0-----|-----------------|
B|-------5---5-----|---5-------3-----|---1---1-----1---|-0-1-1-----------|
G|-----5-------5---|-----5-------2---|-----2---------2-|-0-2-2-----------|
D|---7-----6-------|-5-------4-------|-3---------------|-----------------|
A|-0---------------|-----------------|-----------------|-2-0-0-------0-2-|
E|-----------------|-----------------|-----------------|-----------------|

E|-------0-2-----2-|-0-----0----------|---------3-----3-|-3^2-2-2---------|
B|-----------3-----|---1-----0h1------|-1-----1---0-----|-----3-3---------|
G|-----0-------2---|-----2-------2----|---0---------0---|-----------------|
D|---2-----0-------|-3----------------|-----2-----------|-0---0-0---------|
A|-3---------------|---------0----0-2-|-3---------------|-------------0-2-|
E|-----------------|------------------|---------3-------|-----------------|

E|---------2-----2-|-0-----0----------|---------------2-|-0-0-0-----------|
B|-------1---3-----|---1-----0-1------|-------1-----3---|-1-1-1-----------|
G|-----0-------2---|-----2-------2----|-----0-----2-----|-2-2-2-----------|
D|---2-----0-------|-3----------------|---2-----0-------|-3-3-3-----------|
A|-3---------------|---------0----0-2-|-3---------------|-----------------|
E|-----------------|------------------|-----------------|-----------------|

[Verse]
E|-------5-7-----7-|-8-----8-2-----2-|-0---------0-----|-----------------|
B|-----5-----5-----|---5-------3-----|---1---1-----1---|-0-1-1-----------|
G|---5---------5---|-----5-------2---|-----2---------2-|-0-2-2-----------|
D|-7-------6-------|-5-------4-------|-3---------------|-----------------|
A|-----------------|-----------------|-----------------|-2-0-0-----------|
E|-----------------|-----------------|-----------------|-----------------|
Theres a lady whos glitter buying a heaven When she

E|-------5-7-----7-|-8-----8-2-----2-|-0---------0-----|-----------------|
B|-----5-----5-----|---5-------3-----|---1---1-----1---|-0-1-1-----------|
G|---5---------5---|-----5-------2---|-----2---------2-|-0-2-2-----------|
D|-7-------6-------|-5-------4-------|-3---------------|-----------------|
A|-----------------|-----------------|-----------------|-2-0-0-------0-2-|
E|-----------------|-----------------|-----------------|-----------------|
gets there stores are ord she can get came for

E|---------2-----2-|-0-----0---------------|---------3-----3-|-3p2-2-2-------|
B|-------1---3-----|---1----1--0-1---------|-1---1-1---0-----|-3---3-3-------|
G|-----0-------2---|-----2---------2-------|---0-0-------0---|-2-----2-------|
D|---2-----0-------|-3---------------------|-----2-----------|-0-----0-------|
A|-3---------------|-----------0------0-2--|-3---------------|-----------0-2-|
E|-----------------|-----------------------|---------3-------|---------------|
Oooh oooh and shes buying a heaven Theres

E|-------0-2-----2-|-0-----------------|---------2-----2-|-0-0-0-----------|
B|-----------3-----|---1--1--0 1-------|-1-----1---3-----|-1-1-1-----------|
G|-----0-------2---|-----2-------2-----|---0---------2---|-2-2-2-----------|
D|---2-----0-------|-3-----------------|-----2---0-------|-3-3-3-----------|
A|-3---------------|---------------0-2-|-3---------------|-----------------|
E|-----------------|-------------------|-----------------|-----------------|
sign on she wants you know two meanings In a

E|-------5-7-----7-|-8-----8-2-----2-|-0---0-----0-----|-----------------|
B|-----5-----5-----|---5-------3-----|---1---1-----1---|-0-1-1-----------|
G|---5---------5---|-----5-------2---|---------------2-|-0-2-2-----------|
D|-7-------6-------|-5-------4-------|-3---------------|-----------------|
A|-----------------|-----------------|-----------------|-2-0-0---0--/8-7-|
E|-----------------|-----------------|-----------------|-----------------|
tree theres a song times all of our mis given

E|--------5-7---7---|----8-------2------|----0-------0----|-----------------|
B|-----------5-5-5--|---5-5-----3-3-----|---1--1----1-1---|-0-1-1-------3---|
G|------5-----5---5-|--5---5---2---2--2-|--2----2--2---2--|-0-2-2-------0---|
D|----7-----6-------|-5-----5-4-----4---|-3-------3-----3-|-------------0---|
A|-0-0--------------|-------------------|-----------------|-2-0-0-------2---|
E|------------------|-------------------|-----------------|-----------------|

[Chorus]
E|-3---3-3-3--3--0-0-|-2-------2-------|-3--3-3-3--3--0-0---7-|--5---3---5----|
B|-1---1-1-1--1--1-3-|-3--3--3---3-0-0-|-1--1-1-1--1--1-1---8-|--7---5---7----|
G|-2---2-2-2--2--2-2-|-2-----------0-0-|-2--2-2-2--2--2-2---9-|--7---5---7----|
D|-2---2-2-2--2--2---|---0-------------|-2--2-2-2--2--2-2---0-|-------------0-|
A|-------------------|-----------------|----------------------|-------------0-|
E|-------------------|-----------------|----------------------|---------------|
Oooh it makes me wonder

E|-3---3-3-3--3--0-0-|-2-------2-------|-3--3-3-3--3--0-0---7-|--5---3---5----|
B|-1---1-1-1--1--1-3-|-3--3--3---3-0-0-|-1--1-1-1--1--1-1---8-|--7---5---7----|
G|-2---2-2-2--2--2-2-|-2-----------0-0-|-2--2-2-2--2--2-2---9-|--7---5---7----|
D|-2---2-2-2--2--2---|---0-------------|-2--2-2-2--2--2-2---0-|-------------0-|
A|-------------------|-----------------|----------------------|-------------0-|
E|-------------------|-----------------|----------------------|---------------|
oooh makes me wonder theres a

E|------------------|------------------------|-----------------0--|--0--------|
B|---------1------3-|-0h1----------1---------|-------1---------0--|--1--------|
G|-------0------0---|-----2-------2----------|-----0--------0--2--|--2--------|
D|-----2------0-----|---------2--------------|---2--------0----3--|--2--------|
A|-0h3------2-------|-------0----------0--2--|-3--------2------3--|--0---0-2--|
E|------------------|------------------------|-----------------1--|-----------|
feeling when look to my spirit leaving in my
whispered all call the tune then the piper will to reason &

E|----------------|--------------------|----------------0-|--0------|---------|
B|-------1------3-|-0h1---------1------|-------1--------1-|--1------|----1---3|
G|-----0------0---|-----2-----2--------|-----0-------0--2-|--2------|---0---0-|
D|---2------0-----|---------2----------|---2-------0----3-|--2------|--2---0--|
A|-3------2-------|-------0------0--2--|-3-------2------3-|--0--0-2-|-3---2---|
E|----------------|--------------------|----------------1-|---------|---------|
thoughts I smoke through voices of looking [goto %]
new day those who forests will laugh - ter

E|-3--3-3-3--3--0-0---7-|--5---3---5----|-3--3-3-3--3--0-0-|-2-----2-2-2-2-0-0-|
B|-1--1-1-1--1--1-1---8-|--7---5---7----|-1--1-1-1--1--1-3-|-3-----3-3-3-3-0-0-|
G|-2--2-2-2--2--2-2---9-|--7---5---7----|-2--2-2-2--2--2-0-|-2-----2-2-2-2-0-0-|
D|-2--2-2-2--2--2-2---0-|----------0----|-2--2-2-2--2--2---|----0--0-----------|
A|----------------------|-------------0-|------------------|-------------------|
E|----------------------|---------------|------------------|-------------------|
whoah
E|-3--3-3-3--3--0-0---7-|--5---3---5----|
B|-1--1-1-1--1--1-1---8-|--7---5---7----|
G|-2--2-2-2--2--2-2---9-|--7---5---7----|
D|-2--2-2-2--2--2-2---0-|----------0----|
A|----------------------|-------------0-|
E|----------------------|---------------|

[Verse]
E|------------------|------------------------|-----------------0--|--0--------|
B|---------1------3-|-0h1----------1---------|-------1---------1--|--1--------|
G|-------0------0---|-----2-------2----------|-----0--------0--2--|--2--------|
D|-----2------0-----|---------2--------------|---2--------0----3--|--2--------|
A|-0h3------2-------|-------0----------0--2--|-3--------2------3--|--0---0-2--|
E|------------------|------------------------|-----------------1--|-----------|
If theres a bust 'edge row dont its just a Queen
Yes there are go by but and theres still your on

E|----------------|-3--3-3-3--3--0-0-|-2-----2-2-2-2-----|-3--3-3-3--3--0-7-|
B|-------1------0-|-1--1-1-1--1--1-3-|-3-----3-3-3-3-0-0-|-1--1-1-1--1--1-8-|
G|-----0------0---|-2--2-2-2--2--0-0-|-2--2--2-2-2-2-0-0-|-0--0-2-0--0--0-9-|
D|---2------0-----|-2--2-2-2--2------|----0--0-----------|-2--2-2-2--2------|
A|-3------2-------|------------------|-------------------|------------------|
E|----------------|------------------|-------------------|------------------|
and it won der

E|-5--3--5--|-3--3-3-3--3--0-0-|-2-----2-2-2-2-0-0-|-3--3-3-3--3--0-7-|-5--3--5-|
B|-7--5--7--|-1--1-1-1--1--1-3-|-3--3--3-3-3-3-0-0-|-1--1-1-1--1--1-8-|-7--5--7-|
G|-7--5--7--|-2--2-2-2--2--0-0-|-2--2--2-2-2-2-0-0-|-0--0-2-0--0--0-9-|-7--5--7-|
D|----------|-2--2-2-2--2------|-------------------|-2--2-2-2--2------|---------|
A|--------0-|------------------|-------------------|------------------|--------0|
E|----------|------------------|-------------------|------------------|---------|
oooh

E|------------------|------------------------|-----------------0--|--0--------|
B|---------1------3-|-0h1----------1---------|-------1---------1--|--1--------|
G|-------0------0---|-----2-------2----------|-----0--------0--2--|--2--------|
D|-----2------0-----|---------2--------------|---2--------0----3--|--2--------|
A|-0h3------2-------|-------0----------0--2--|-3--------2------3--|--0---0-2--|
E|------------------|------------------------|-----------------1--|-----------|
Your head is wont go the pipers him
Dear lady can blow your stairw whispering wind

E|-----3--------3---|--2---------0-2--|-3----0-2--3--0-2--|---3-3-2---------|
B|---5--------3---4-|--3-------3-3-3--|-3--3-3-3--3--3-3--|---3-3-3-3-------|
G|-5-----5--4-------|--2-------2-2-2--|-2--2-2-2--2--2-2--|---2-2-2-0-------|
D|------------------|-----------------|-0--0-0-0--0--0-0--|---0-0-0-2-------|
A|------------------|-----------------|-------------------|---------3-------|
E|------------------|-----------------|-------------------|-----------------|

E|---2-2-2---|---2--2-2--0-0-0-2-|-3-0-2--0-2-|-3-3-3-3-|---2--2-2-0-0-|-0-2-2-0-|
B|-3-3-3-3-1-|-1-3--3-3--3-3-3-3-|-3-3-3--3-3-|-3-3-3-3-|-3-3--3-3-3-3-|-3-3-3-3-|
G|-0-0-0-0-0-|-0-0--0-0------2-2-|-2-2-2--2-2-|-2-2-2-0-|-0-0--0-0-0-0-|-0-0-0-0-|
D|---------2-|-----------0-0-0-0-|-0-0-0--0-0-|-0-0-0-2-|-2------------|---------|
A|---------3-|-------------------|------------|-------3-|--------------|---------|
E|-----------|-------------------|------------|---------|--------------|---------|

[Solo]
Am Am7 Fmaj7
E|----------5---------------|------------------8--8-|
B|------------8-5-----------|-------------8b10------|
G|---7b9----------7-5---7p5-|-----------------------|
D|--------------------7-----|-7p5-------------------|
A|--------------------------|----8------------------|
E|--------------------------|-----------------------|

Am Am7 Fmaj7
E|--8b10---8--5-------8--10-|-8-----------------------5-------|
B|---------------8b10-------|---10-8----8h10------------8-5---|
G|--------------------------|--------10-----------7b9-------7-|
D|--------------------------|---------------------------------|
A|--------------------------|---------------------------------|
E|--------------------------|---------------------------------|

Am Am7 Fmaj7
E|----------------------------|----5------------------------|
B|----------------------------|------8-5--------------------|
G|-5---7p5------------5---5-5-|----------7-5--7p5-----------|
D|---7-----7-5---5-7----7-----|-5------------7----7p5-7p5---|
A|-------------7--------------|---------------------------8-|
E|----------------------------|-----------------------------|

Am Am7
E|---------------------------------------------|
B|------------------------------------------13-|
G|---------10-------------------12----12-14----|
D|------10----12-10----10-12/14----14----------|
A|-8/12-------------12-------------------------|
E|---------------------------------------------|

Fmaj7
E|------------------------15b17-15-12----------------|
B|--15b17-15-13--15-13-13-------------15b17-15-13----|
G|------------------------------------------------14-|
D|---------------------------------------------------|
A|---------------------------------------------------|
E|---------------------------------------------------|

Am Am7
E|----------------------------------------------------------------------------|
B|-13-15b17b15p13----13-15b17b15p13----13---15b17b15p13----13--15b17b15p13----|
G|----------------14----------------14------------------14-----------------14-|
D|----------------------------------------------------------------------------|
A|----------------------------------------------------------------------------|
E|----------------------------------------------------------------------------|

Fmaj7
E|----------------------------------------------------------------------------|
B|-13-15b17b15p13----13--15b17b15p13----13--15b17b15p13----13--15b17b15p13----|
G|----------------14-----------------14-----------------14-----------------14-|
D|----------------------------------------------------------------------------|
A|----------------------------------------------------------------------------|
E|----------------------------------------------------------------------------|

Am Am7
E|------------------------------------------15b17--|
B|-13--15b17b15p13----13---15b17b15p13----13-------|
G|-----------------14------------------14----------|
D|-------------------------------------------------|
A|-------------------------------------------------|
E|-------------------------------------------------|

Fmaj7
E|-b17b15-12---12--------------------------------15--|
B|-----------15---15--13----13-15-13---13--15b17-----|
G|-----------------------14----------14--------------|
D|---------------------------------------------------|
A|---------------------------------------------------|
E|---------------------------------------------------|

Am Am7 Fmaj7
E|-----------------------------|-----------17----------------------------------|
B|-15b17b15p13----13/12--13/10-|--------20----20-20----------------------------|
G|-------------14--------------|--19b21-21----------19b21b19p17---19--17----19-|
D|-----------------------------|--------------------------------19-------19----|
A|-----------------------------|-----------------------------------------------|
E|-----------------------------|-----------------------------------------------|

Am Am7 Fmaj7 Am Am7
E|--------------------|--------------------------------|--------------|
B|--------------------|--------------------------------|--------------|
G|-19b21--13/12 13/10-|--14b17--14b17-14--12--14--12-12|b14-----------|
D|--------------------|--------------------------------|--------------|
A|--------------------|--------------------------------|--------------|
E|--------------------|--------------------------------|--------------|

Fmaj7 Am Am7
E|-----------------------------------|----------8/7--8/5--|
B|-----------------------------------|--------------------|
G|-10b14----10b12b10-9-7----7--------|-7-9-7--------------|
D|-----------------------10----10----|-------10-7---------|
A|-----------------------------------|--------------------|
E|-----------------------------------|--------------------|

Fmaj7
E|----20-p17------20-p17------20-p17------20-p17------20-p17-----20b22-|
B|-17--------17----------17----------17----------17----------17--------|
G|---------------------------------------------------------------------|
D|---------------------------------------------------------------------|
A|---------------------------------------------------------------------|
E|---------------------------------------------------------------------|

[Chorus/Outro]
Am G F G Am G F G
E|-5------------3----------------|-1--3-|-5------------3-------------|--1--3-|
B|-5------------3----------------|-1--3-|-5------------3-------------|--1--3-|
G|-5------------4----------------|-2--4-|-5------------4-------------|--2--4-|
D|-7------------5----------------|-3--5-|-7------------5-------------|--3--5-|
A|-7------------5----------------|-3--5-|-7------------5-------------|--3--5-|
E|-5------------3----------------|-1--4-|-5------------3-------------|--1--4-|
And as we wind on down the road Our shadows taller than our soul

Am G F G Am G
E|-5------------3-------------|-1--3--|-5------------3----------|
B|-5------------3-------------|-1--3--|-5------------3----------|
G|-5------------4-------------|-2--4--|-5------------4----------|
D|-7------------5-------------|-3--5--|-7------------5----------|
A|-7------------5-------------|-3--5--|-7------------5----------|
E|-5------------3-------------|-1--4--|-5------------3----------|
there walks a lady we all know who shines w' light and to

F G Am G
E|--1-----------------------3--|-------------------------------|
B|--1-----------------------3--|-------------------------------|
G|--2-----------------------4--|-------------------------------|
D|--3-----------------------5--|-------------------------------|
A|--3----------3--5h7--5--3-5--|-------------------------------|
E|--1----1-3h5--------------3--|-5---5--------3--3-------------|
show how everything still turns to

Am G F G Am G
E|---------------------5------------3-------------|-1--3--|-5------3----------|
B|---------------------5------------3-------------|-1--3--|-5------3----------|
G|---------------------5------------4-------------|-2--4--|-5------4----------|
D|---------------------7------------5-------------|-3--5--|-7------5----------|
A|-------3--5h7--5--3--7------------5-------------|-3--5--|-7------5----------|
E|-1-3h5---------------5------------3-------------|-1--4--|-5-5----3--3-------|
gold and if you listen very hard the tune will come to u at

F G Am G F
E|--1------------------------|----------0-|---0-0-0-0-----|
B|--1------------------------|----------1-|---1-1-1-1-----|
G|--2------------------------|----------2-|---2-2-2-2-----|
D|--3------------------------|----------3-|---3-3-3-3-----|
A|--3----------3--5h7--5--3--|------------|---------------|
E|--1----1-3h5---------------|-5-5--3-3-1-|-1----------5-5|
last when all __ yeah

Am G Fmaj7 Am Am7/G Fmaj7
E|-----------0-|-0-0-0-0------|--------8-10-----|-------------------------|
B|-----------1-|-1-1-1-0------|-8/10--------10--|--8h10p10----------3-3---|
G|-----------2-|-2-2-2-0------|-----------------|-----------------5b7-2---|
D|-----------3-|-3-3-3-0------|-----------------|---------------------3---|
A|-------------|--------------|-----------------|-------------------------|
E|-5-5--3-3--1-|--------------|-----------------|-------------------------|
to be a rock roll__

Am Am7/G Fmaj7 Am Am7/G
E|----------------------0--|-------------------|-------------------------|
B|----5-------8------10-3--|-----13-------12---|-----13------12------13__|
G|--7b9----10b12--12b14-0--|--15b17----14b16---|--15b17---14b16---15b17__|
D|----------------------0--|-------------------|-------------------------|
A|-------------------------|-------------------|-------------------------|
E|-------------------------|-------------------|-------------------------|

Fmaj7
E|-----------------------------------------|
B|-13------12-------13------15-------------|
G|_17---14b16----15b17---17b19-------------|
D|-----------------------------------------|
A|-----------------------------------------|
E|-----------------------------------------|

Am Am7/G Fmaj7
E|----------------------|-0---------------------------------------------|
B|----13------12-----15-|-1----13---------------------------------------|
G|-15b17---14b16--17b19-|-2-15b17---------------------------------------|
D|----------------------|-3---------------------------------------------|
A|----------------------|-----------------------------------------------|
E|----------------------|-----------------------------------------------|
And shes buying a stairway to heaven



***********************************

| / Slide up
| h Hummer-on
| p Pull-off
| b Bend

***********************************
Tunning: Standard (E A D G B e)
Words and Music by Jimmy Page and Robert Plant

STAIRWAY TO HEAVEN (Live)
As recorded by Led Zeppelin
(From the 1972 Double Album/DVD "THE SONG REMAINS THE SAME")


Arranged by Jimmy Page


Gtr I (E A D G B E) - '6 strings'
Gtr II (E A D G B E) - '12 strings 1'
Gtr III (E A D G B E) - '12 strings 2'
Gtr IV (E A D G B E) - 'Solo'
Gtr V (E A D G B E) - '12 strings over. I'
Gtr VI (E A D G B E) - '12 strings over. II'


[Intro]

Slowly Q=76
Am Amadd9/G# C/G D/F#
4/4
Gtr I
E E E E E E E E E E E E E E E E
e|-5-----5-7-----7-|-8-----8\-2-----2-|
B|---5-------5-----|---5--------3-----|
G|-----5-------5---|-----5--------2---|
D|-7-------6-------|-5--------4-------|
A|-----------------|------------------|
E|-----------------|------------------|
H H H H


Fmaj7 G/Am
|-3-|
E E E E +E E E S S S E E Q +E E E E
e|-0-----------/5-3-1h3p1-|--------------------|
B|---1---1-(1)------------|-0-1-1--(1)---------|
G|-----2-------/5-3-2-----|-0-2-2--(2)---------|
D|-3----------------------|-----2--(2)---------|
A|------------------------|-2-0-0--(0)-0-/8-7--|
E|------------------------|--------------------|
H H


Amadd9/G# C/G D/F#
E E E E E E E E E E E E E E E E
e|---------7-----7-|-8-----8\-2-----2-|
B|-------5---5-----|---5--------3-----|
G|-----5-------5---|-----5--------2---|
D|---7-----6-------|-5--------4-------|
A|-0---------------|------------------|
E|-----------------|------------------|
H H H H


Fmaj7 (GAm)
E E E E +E E E T T T T E E H E E
e|-0-----------/5-3-1h3p1p0-|---------------|
B|---1---1-(1)--------------|-0-1-1---------|
G|-----2-------/5-3-2-------|-----2---------|
D|-3------------------------|-----2---------|
A|--------------------------|-2-0-0----0-2--|
E|--------------------------|---------------|
H H


C D Fmaj7 Am
E E E E E E E E E E E E S S Q E
e|-------0-2-----2-|-0---(0)-0-----------|
B|-1---1-----3-----|---1-------0h1-------|
G|---0---------2---|------2--------2-----|
D|---------0-------|-3-------------------|
A|-3---------------|-----------0-----0-2-|
E|-----------------|---------------------|
H H H Q E E


C G D
|-3-|
E E E E E E E E S S E E S S S Q Q
e|-------0-3-----3-|-3p2------------------|
B|-1---1-----0-----|----------------------|
G|---0---------0---|-----0-2-0h2p0--------|
D|-----------------|---------------4------|
A|-3---------------|-0----------------0-2-|
E|---------3-------|----------------------|
H H H Q E E


C D Fmaj7 Am
E E E E E E E E E E E E S S Q E
e|-------0-2-----2-|-0-----0-----------|
B|-1---1-----3-----|---1-----0h1-------|
G|---0---------2---|-----2-------2-----|
D|---------0-------|-3-----------------|
A|-3---------------|---------0-----0-2-|
E|-----------------|-------------------|
H H H Q E E


C D Fmaj7
|-3-| |-3-|
E E E E E E E E E E E S S S S S S Q.
e|-------0-2-----2-|-------------------------||
B|-1---1-----3-----|-1-0-1-3p1p0-3p1p0-1-----||
G|---0---------2---|-------------------------||
D|---------0-------|-3-----------------------||
A|-3---------------|-------------------------||
E|-----------------|-------------------------||
H H H H


[1st Verse]

Am Amadd9/G# C/G D/F#
E E E E E S S E E E E E E E E E E
e|-5-----5-(7)-7-----7-|-8-----8\-2-----2-|
B|---5-----------5-----|---5--------3-----|
G|-----5-----------5---|-----5--------2---|
D|-7--------6----------|-5--------4-------|
A|---------------------|------------------|
E|---------------------|------------------|
H H H H


Fmaj7 G/Am
|-3-|
E E E E +E E E S S S E E Q +E E E E
e|-0-----------/5-3-1h3p1-|--------------------|
B|---1---1-(1)------------|-0-1-1--(1)---------|
G|-----2-------/5-3-2-----|-0-2-2--(2)---------|
D|-3----------------------|-----2--(2)---------|
A|------------------------|-2-0-0--(0)-0-/8-7--|
E|------------------------|--------------------|
H H


Amadd9/G# C/G D/F#
E E E E E E E E E E E E E E E E
e|-----------7-----7-|-8-----8\-2-----2-|
B|-------(5)---5-----|---5--------3-----|
G|-----5---------5---|-----5--------2---|
D|---7-------6-------|-5--------4-------|
A|-0-----------------|------------------|
E|-------------------|------------------|
H H H H


Fmaj7 (GAm)
E E E E +E E E T T T T E E H E E
e|-(0)-----------/5-3-1h3p1p0-|-----------------|
B|-----1---1-(1)--------------|-0-(1)-1---------|
G|-------2-------/5-3-2-------|-----------------|
D|--3-------------------------|-----------------|
A|----------------------------|-2--0--0----0-2--|
E|----------------------------|-----------------|
H H


C D Fmaj7 Am C G D
|-3-|
E E E E E E E E E E E E S S Q E E E E E E E E E S S E E S S S Q Q
e|-------0-2-----2-|-0-----0-----------|-------0-3-----3-|-3p2------------------|
B|-1---1-----3-----|---1-----0h1-------|-1---1-----0-----|-----3----------------|
G|---0---------2---|-----2-------2-----|---0---------0---|-------2-0h2p0--------|
D|---------0-------|-3-----------------|-----------------|-0-------------4------|
A|-3---------------|---------0-----0-2-|-3---------------|------------------0-2-|
E|-----------------|-------------------|---------3-------|----------------------|
H H H Q E E H H H Q E E


C D Fmaj7 Am
E E E E E E E E E E E E S S Q E
e|-------0-2-----2-|-0-----0-----------|
B|-1---1-----3-----|---1-----0h1-------|
G|---0---------2---|-----2-------2-----|
D|---------0-------|-3-----------------|
A|-3---------------|---------0-----0-2-|
E|-----------------|-------------------|
H H H Q E E


C D Fmaj7
|-3-| |-3-|
E E E E E E E E E E E S S S S S S Q.
e|-------0-2-----2-|---------------------------|
B|-1---1-----3-----|-1-0--1--3p1p0-3p1p0-1-----|
G|---0---------2---|---------------------------|
D|---------0-------|-3-3-(3)-------------------|
A|-3---------------|---------------------------|
E|-----------------|---------------------------|
H H E E +H.


Am Amadd9/G# C/G D/F#
E E E E E E E E E E E E E E E E
e|-5-----5-7-----7-|-8-----8\-2-----2-|
B|---5-------5-----|---5--------3-----|
G|-----5-------5---|-----5--------2---|
D|-7-------6-------|-5--------4-------|
A|-----------------|------------------|
E|-----------------|------------------|
H H H H


Fmaj7 (GAm7
E E E E +E E E T T T T E E Q +E E E E
e|-0-----------/5-3-1h3p1p0-|---3-3--(3)---------|
B|---1---1-(1)--------------|-0-1-1--(1)---------|
G|-----2-------/5-3-2-------|--------------------|
D|-3------------------------|--------------------|
A|--------------------------|-2-0-0--(0)-0-/8-7--|
E|--------------------------|--------------------|
H H


Am Amadd9/G# C/G Dadd9/F#
E E E E S S S S S S S S S S S S S S S S S S S S S S S S
e|---------------7-------(7)-|-------8-------x-------0---------|
B|-------5-----5---5---------|-----5---5-----------3---3-----x-|
G|-----5-----5-------5-------|---5-------5-------2-------2-----|
D|---7-----6-----------6-----|-5-----------5---4-----------4---|
A|-0-------------------------|---------------------------------|
E|---------------------------|---------------------------------|


Fmaj7 G/Am G/B
Gtrs II, III
S S S S +S S E S S S S S S E E E H Q
e|-------0-(0)-----------0-------|----------^3---||
B|-----1-------1-------1---1-----|-0-1-1----^3---||
G|---2-----------2---2-------2---|-0-2-2----^0---||
D|-3---------------3-----------3-|----------^0---||
A|-------------------------------|-2-0-0----^2---||
E|-------------------------------|---------------||


[1st Interlude]

Am7 Am Dsus4 D Dsus4 Dadd9
E S S E E E E E E E E S S S S S S S S S S S S
e|---3-3-3-3---0---3-|---2---3-----2-----0-----2p0-|
B|---1-1-1-1---1---3-|---3-3---3-----3-------3-----|
G|---2-2-2-2---2---2-|---2-2-----2-----2---2-------|
D|---2-2-2-2---2---0-|---0-0-----------------------|
A|-0-----------0-----|-----------------------------|
E|-------------------|-----------------------------|


Am7 Am Em/D D C/D D
E S S E E E E E E E E E E E E S S S S
e|---3-3-3-3---0---7-|---5---3---5-----------|
B|---1-1-1-1---1---8-|---7---5---7---7-------|
G|---2-2-2-2---2---9-|---7---5---7-7---------|
D|---2-2-2-2---2-0-0-|---0-0-0---0-7---------|
A|-0-----------0-----|-----0-----------6-7---|
E|-------------------|-----------------------|


Am7 Am Dsus4 D Dsus4 Dadd9
E S S E E E E E E E E S S S S S S S S S S S S
e|---3-3-3-3---0---3-|---2---3-----2-----0-----2p0-|
B|---1-1-1-1---1---3-|---3-3---3-----3-------3-----|
G|---2-2-2-2---2---2-|---2-2-----2-----2---2-------|
D|---2-2-2-2---2---0-|---0-0-----------------------|
A|-0-----------0-----|-----------------------------|
E|-------------------|-----------------------------|


Am7 Am Em/D D C/D D
E S S E E E E E E E E E E E E E E
e|---3-3-3-3-----0---7-|---5-----3---5------||
B|---1-1-1-1-(0)-1---8-|---7-----3---7------||
G|---2-2-2-2-----2---9-|---7-(0)-5-x-7------||
D|---2-2-2-2-----2-x-0-|---0-----0-x-0------||
A|-0-------------0-x---|---------------0-2--||
E|---------------------|--------------------||


[2nd Verse]

C G/B Am C G/B F Am
E E E E E E E E E E E S S E E S S S S E E E E E E E E E Q. +Q E E
e|-----------------|-----------------------|---------------1-|---0----(0)-------|
B|-----------------|-------1p0-------------|---------------1-|---1----(1)-------|
G|-----0-------0---|-----2-----2-----------|-----0-------0-2-|---2----(2)-------|
D|---2-------0---0-|---2-----------2-2-----|---2-------0---3-|---2----(2)-------|
A|-3-----3-2-------|-0-----------0-----0-2-|-3-----3-2-------|---0----(0)--0-2--|
E|-----------------|-----------------------|-----------------|------------------|


C G/B Am
E E E E E E E E E E E S S E E S S S S
e|-----------------|---------------0-------|
B|-----------------|-------1p0-------3-----|
G|-----0-------0---|-----2-----2-----------|
D|---2-------0---0-|---2-------------------|
A|-3-----3-2-------|-0-----------0-----0-2-|
E|-----------------|-----------------------|


C G/B F Am C G/B
E E E E E E E E E Q. +Q E E E E E E E E E E
e|---------------1-|---0----(0)------|-----------------||
B|---------------1-|---1----(1)------|-----------------||
G|-----0-------0-2-|---2----(2)------|-----0-------0---||
D|---2-------0---3-|---2----(2)------|---2-------0---0-||
A|-3-----3-2-------|---0----(0)--0-2-|-3-----3-2-------||
E|-----------------|-----------------|-----------------||


[2nd Interlude]

Am7 Am Dsus4 D Dsus4 Dadd9
E S S E E E E E E E E S S S S S S S S S S S S
e|---3-3-3-3---0---3-|---2---3-----2-----0-----2p0-|
B|---1-1-1-1---1---3-|---3-3---3-----3-------3-----|
G|---2-2-2-2---2---2-|---2-2-----2-----2---2-------|
D|---2-2-2-2---2---0-|---0-0-----------------------|
A|-0-----------0-----|-----------------------------|
E|-------------------|-----------------------------|


Am7 Am Em/D D C/D
E S S E E E E E E E E E E S S S S S S S S
e|---3-3-3-3---0---7-|---5---3-----------------|
B|---1-1-1-1---1---8-|---7---5-----------------|
G|---2-2-2-2---2---9-|---7---5-----------------|
D|---2-2-2-2---2---0-|---0---0---------------7-|
A|-0-----------0-----|---------0-6-7-6-7-6-7---|
E|-------------------|-------------------------|


Am7 Am Dsus4 D Dadd9
E S S S S E E E E E S S S S +S S S S S S S S S S S S
e|---3-3-3-3-3---0-----|-------3-------2-----0-----2p0-------|
B|---1-1-1-1-1---1---3-|-----3---3-(3)---3-----3-------3-----|
G|---2-2-2-2-2---2-0-2-|-(0)---------------2-----2-------2---|
D|---2-2-2-2-2---2---0-|-(0)-------------------------------0-|
A|-0-------------0-----|-------------------------------------|
E|---------------------|-------------------------------------|


Am7 Am Em/D D C/D D
E S S E E E E E E E E E E +E a E E E
e|---3-3-3-3---0-----7-|---5-(0)-3-(3)-3s5-----||
B|---1-1-1-1---1-----8-|---7-(0)-5-(5)-5s7-----||
G|---2-2-2-2---2-(0)-9-|---7-(0)-5-(5)-5s7-----||
D|---2-2-2-2---2-(0)-0-|---0-----0-(0)-0-------||
A|-0---------0-0-------|-0-----------------0-2-||
E|---------------------|-----------------------||


[3rd Verse]

C G/B Am
E E E E S S S S S S E S S S S S S S S S S S S S S S S
e|-------0---------0-----|---5-----7-----8-----7-----7-----|
B|-----------3---3---3---|-----5-----5-------5---5---------|
G|-----0-------0-------0-|---------------------------------|
D|---2-------------------|-7-----7-----7---7-------7-------|
A|-3-------2-------------|-----------------------------0-2-|
E|-----------------------|---------------------------------|


Cadd9 G/B F Am
S S S S S S S S S S S S E E E Q. +Q E E
e|---------0-----------------1-|---0----(0)--------|
B|-------3---3---------------1-|---1----(1)--------|
G|-----0-------0-------0-----2-|---2----(2)--------|
D|---2---------------0-----0-3-|---2----(2)--0-----|
A|-3-------------3-2-----2-----|---0----(0)----2---|
E|-----------------------------|-------------------|


C G/B Am
S S S S S S S S S S S S S S S S S S S S S S S S S S S S S S S T T
e|---0-----0---------------0-------|---5-----7-----8-----7---5---------|
B|-------1---3-1-------------------|-----5-----5-------5---5-----------|
G|-----0---------0-----0-----0---0-|-----------------------------------|
D|-------------------0---------0---|-------7-----7---7---------7-------|
A|-3---------------2-----2---------|-0-----------------------------0-2-|
E|---------------------------------|-----------------------------------|


C G/B F Am C G/B
E E S S E S S S S E E E Q. +Q E E E E E E E E E E
e|-------0-------------1-|---0----(0)------|------------------||
B|-----x-------3-----3-1-|---1----(1)------|------------------||
G|---------0-----0-----2-|---2----(2)------|-----0-------0----||
D|-----------------0---3-|---2----(2)------|---2-------0------||
A|-3-3-------2-----------|---0----(0)--0-2-|-3-----3-2-----2--||
E|-----------------------|-----------------|------------------||


[3rd Interlude]

Am7 Am Dsus4 D Dsus4 Dadd9
E S S E E E E E E E E S S S S S S S S S S S S
e|---3-3-3-3---0---3-|---2---3-----2-----0-----2p0-|
B|---1-1-1-1---1---3-|---3-3---3-----3-------3-----|
G|---2-2-2-2---2---2-|---2-2-----2-----2---2-------|
D|---2-2-2-2---2---0-|---0-0-----------------------|
A|-0-----------0-----|-----------------------------|
E|-------------------|-----------------------------|


Am7 Am7 Em/D D C/D
E S S E E E E E E E E E E S S S S S S S S
e|---3-3-3-3---0---7-|---5---3-------------------|
B|---1-1-1-1---1---8-|---7---3-------------------|
G|---2-2-2-2---2---9-|---7---5-------------------|
D|---2-2-2-2-------0-|-0---0-------------------7-|
A|-0-----------0-0---|---------(0)-6-7-6-7p6-7---|
E|-------------------|---------------------------|


Am7 Am D
E S S S S E E E E E S S S S S S a S S a S S S S S S a S S
e|---3-3-3-3-3---0-----|-----2-----5-----7------10----------12-------14-|
B|---1-1-1-1-1---1-----|-3----------------------------------------------|
G|---2-2-2-2-2---2-----|---2---2s5---5s7---7s11----11-11-12----12s14----|
D|---2-2-2-2-2---2---0-|------------------------------------------------|
A|-0-----------0-0-----|------------------------------------------------|
E|---------------------|------------------------------------------------|


Am7 Am Em/D D C/D D
E S S S S E E E E E E E E E E E E E
e|---3-3-3-3-3---0-x-7-|---5---3---5-----||
B|---1-1-1-1-1---1-x-8-|---7---3---7-----||
G|---2-2-2-2-2---2-x-9-|---7---5---7-----||
D|---2-2-2-2-2---2-x-0-|---0---0---0-----||
A|-0-----------0-0-----|-------------0-2-||
E|---------------------|-----------------||


[4th Verse]

C G/B Am C G/B F Am
E E E E E E E E E E E S S E E S S S S E E E E E E E E E Q. +Q E E
e|-----------------|-----------------------|---------------1-|---0----(0)-------|
B|---------------3-|-------1p0-------------|---------------1-|---1----(1)-------|
G|-----0-------0---|-----2-----2-----------|-----0-------0-2-|---2----(2)-------|
D|---2-------0-----|---2-----------2p0-----|---2-------0---3-|---2----(2)--0----|
A|-3-----3-2-------|-0-----------0-----0-2-|-3-----3-2-------|---0----(0)----2--|
E|-----------------|-----------------------|-----------------|------------------|


C G/B Am
S S S S S S S S S S S S S S S S S S S S S S S S S S S S S S S S
e|---------0---------------0-------|---5-----7-----8-----7---5-------|
B|-------1---1---1---3-------3-----|-----5-----5-----5-----5---------|
G|---0---------0---------0-------0-|---------------------------------|
D|-----2---------------0-------0---|-7-----7-----7-----7-------7-----|
A|-3---------------2---------------|-----------------------------0-2-|
E|---------------------------------|---------------------------------|


C G/B F Am C G/B
S S S S S S S S S S S S S S E E Q. +Q E E E E E E E E E E
e|-----------------------------1-|---0----(0)------|--------------------|
B|---1-----1-----1---3-----3---1-|---1----(1)------|--------------------|
G|-------0-----0-------0-----0-2-|---2----(2)------|-----0-------0------|
D|-----2-----------------------3-|---2----(2)------|---2-------0---0----|
A|-3---------3-----2-----2-------|---0----(0)--0-2-|-3-----3-2----------|
E|-------------------------------|-----------------|--------------------|


[4th Interlude]

Am7 Am Dsus4 D
E S S E E E E E E E E E E S S S S S S S S
e|---3-3-3-3---0---3-|---2-2---3p2-----2p0-----|
B|---1-1-1-1---1---3-|---3-3-------3-------3---|
G|---2-2-2-2---2---2-|---2-2---------2-------2-|
D|---2-2-2-2---2---0-|---0-0-------------------|
A|-0-----------0-----|-------------------------|
E|-------------------|-------------------------|


Am7 Am Em/D D C/D
E S S E E E E E E E E E E S S S S S S S S
e|---3-3-3-3---0---7-|---5---3-------------------|
B|---1-1-1-1---1---8-|---7---5-------------------|
G|---2-2-2-2---2---9-|---7---5-------------------|
D|---2-2-2-2---2---0-|---0---0---------------7---|
A|-0-----------0-----|-----------6-7-6-7-6-7-----|
E|-------------------|---------------------------|


Am7 Am D
E S S E E E E E E +S S S S S S S S S S S S S S a S S
e|---3-3-3-3---0-----|---------------7-------10----------12-------14-|
B|---1-1-1-1---1-----|-----3-----------------------------------------|
G|---2-2-2-2---2---2-|-(2)-2-2-4-5s7---5-/11----11-11-12----12s14----|
D|---2-2-2-2---2---0-|-(0)-------------------------------------------|
A|-0-----------0-----|-----------------------------------------------|
E|-------------------|-----------------------------------------------|


Am7 Am Em/D D C/D D
E S S E E E E E E E E E E E E E E
e|-------3-3-3-----0---7-|---5---3---2------||
B|-------1-1-1-(0)-1---8-|---7---5---3------||
G|---(0)-2-2-2-----2---9-|---7---5---2------||
D|-------2-2-2-----2---0-|---0---0---0------||
A|-------0-0-0-----0-----|-------------0-2--||
E|-----------------------|------------------||


[5th Verse]

C G/B Am C G/B F
E S S E E E E E E E S S +E E S S S S E S S E E E E E E E E
e|-------------------|---------------------------|---------------1-|
B|-------1---------3-|-1-x-1-(1)-1---1-----------|---------------1-|
G|-----0---0-----0---|-2-x-2-(2)-2---2---0-2-----|-----0-------0-2-|
D|---2---------0-----|-2-x-2-(2)-2---2-----2-----|---2-------0---3-|
A|-3---------2-------|-0-x-0-(0)-0---0-----0-0-2-|-3-----3-2-------|
E|-------------------|---------------------------|-----------------|


Am C G/B
E Q. +Q E E S S S S E S S S S S S S S S S
e|---0----(0)------|----------------------------------|
B|---1----(1)------|---------3---1---3-------3--------|
G|---2----(2)------|---0-------0---------0-------0----|
D|---2----(2)------|-----2-------------0-------0------|
A|---0----(0)--0-2-|-3-----3-------2-------2----------|
E|-----------------|----------------------------------|


Am C G/B F
S S S S S S S S S S S S S S S S S S S S S S S S S S S S E E
e|---5-----7-----8-----7-----7-----|---------------------------1-|
B|-----5-----5-------5---5---------|---1-----1-----1---3-------1-|
G|---------------------------------|-------0-----0-------0---0-2-|
D|-7-----7-----7---7-------7-------|-----2-------------------0-3-|
A|-----------------------------0-2-|-3---------3-----2-----2-----|
E|---------------------------------|-----------------------------|


Am C G/B
E Q. +Q E E E E E E E E E E
e|---0----(0)------|------------------||
B|---1----(1)------|-------------3-3--||
G|---2----(2)------|-----0-------0-0--||
D|---2----(2)------|---2-------0------||
A|---0----(0)--0-2-|-3-----3-2--------||
E|-----------------|------------------||


[Bridge]

Faster Q=108
D DsDs2 Dsus4DsusDsus4Dsus2 Dsus4 D
3/4
H.. S S Q. S S Q. S S Q Q Q
e|-2---------0-2-|-3----0-2-3----0-2-|-3--3--2--|
B|-3---------3-3-|-3----3-3-3----3-3-|-3--3--3--|
G|-2---------2-2-|-2----2-2-2----2-2-|-2--2--2--|
D|-0---------0-0-|-0----0-0-0----0-0-|-0--0--0--|
A|---------------|-------------------|----------|
E|---------------|-------------------|----------|


Cadd9 Csus2 Cadd9 DsusD
4/4 5/4
Q E E +S S E Q a E a E E E +S S E Q E S S
e|------2-(2)-2-2----|-----------2-(2)-2-2-0----0-2---|
B|-3----3-(3)-3-3-3--|-----------3-(3)-3-3-3----3-3---|
G|-0--0-----------0--|-----------0-(0)-0-0-0----2-2---|
D|-2--2--------------|--------------------------0-0---|
A|-3--3-----------3--|-0h3-0h3-3-----------3--3-------|
E|-------------------|--------------------------------|


Dsus4DsusDsus4DsDs2 Dsus4 D C
4/4 7/8
Q. S S Q. S S Q Q Q E
e|-3----0-2-3----0-2-|-3--3--2----|
B|-3----3-3-3----3-3-|-3--3--3----|
G|-2----2-2-2----2-2-|-2--2--2--0-|
D|-0----0-0-0----0-0-|-0--0--0--2-|
A|-------------------|----------3-|
E|-------------------|------------|


Cadd9 Gmaj7/B
4/4
|-3-|
+E E E. S E E E S S E Q E +E E S S S E
e|----------------------|------2-(2)------------||
B|-------3--3-3-3-------|------3-(3)-3----------||
G|-(0)---0--0-0-2-------|------0-(0)------------||
D|-(2)---2--2-2-0-------|------0-(0)------------||
A|-(3)-3------3-3-3-3p0-|-2-2--2-(2)---2p0---0--||
E|----------------------|------------------3----||


[Guitar Solo]

Am Am/G F
+E E E E +E E E E S S S S E S S +S S E S S E
e|---------0-(0)-------|-----------------------------|
B|-------1---------1---|---1-----3---1-(1)---3-1---1-|
G|-------2-----------2-|-----2-------------2-----2---|
D|-------2-------------|-------3---3-----------------|
A|-(0)-0---------------|-----------------------------|
E|---------------3-----|-1---------------------------|


Am G Gmaj7/B
GtGtr IV
E S S E E S S S S E E S S S S S E S +E E E E
e|--------------3---------|--------8----------------------|
B|------------3---3---3---|---9-10---10----10-(10)--------|
G|----5---5---------4---4-|-------------10-------------5--|
D|-/7---7---7-------------|--------------------------7----|
A|------------------------|-------------------------------|
E|------------------------|-------------------------------|


~~~~~~~~~
a +Q +Q +E S S S S S S S S S S Q E a +E E E
e|---------------------5-----------|-----------------------8-8-|
B|-----------------------8p5-------|--------------8b10-(8)-----|
G|-7b9==(7)--(7)--(7)r-------7p5---|-7p5-----------------------|
D|-------------------------------7-|-----7p5-------------------|
A|---------------------------------|---------8--x--------------|
E|---------------------------------|---------------------------|


~~~
S a +E. a +E E S E. E. S S S S S S E. E S S S S S S
e|-8-8b10-(8)-8pb10r(8)-5-------8--10p|=8---------------------8-10p8------|
B|----------------------5-8-10--------|---10p8---8h10----8-10--------10p==|
G|------------------------------------|--------9--------------------------|
D|------------------------------------|-----------------------------------|
A|------------------------------------|-----------------------------------|
E|------------------------------------|-----------------------------------|


S S S S S S S S S S S S S S S S S S S S E S S E S S S S S S
e|--------------------------------------|--------------------------------|
B|-8---10---8-10p8---10---8-10p8---10---|-8-10p8---10-8-10p8-8-----------|
G|---9----9--------9----9--------9----9-|--------9-------------9-7p5---5-|
D|--------------------------------------|----------------------------7---|
A|--------------------------------------|--------------------------------|
E|--------------------------------------|--------------------------------|


~~~~~~
|-3-|
S S S S S S S S S S S S S S S S S S S S S +Q Q E E
e|-----------------------------------|-----------------8------|
B|---------------------------5-5-----|-------------------8----|
G|-7p5---5-------------------5-5---5-|------------------------|
D|-----7---7p5---7---5-7p5-------7---|-7-6-5------------------|
A|-------------7---7-------7---------|-------8-(8)------------|
E|-----------------------------------|------------------------|


|3-| |-3-| |-3-| |---3---| |-3-| |-3-| |-3-|
E +E Q +E S S S S S S S S S E T S T E E S S S S S S E +E S S S
e|------------8--(8)-------8-----------|-------------------------------------|
B|-------------------------------------|-------------------------------------|
G|-7pb9r(7)b9--------7p5---5-7---5h7p5-|---5h7p5-----------------------------|
D|-----------------------7-----7-------|-7-------7-7---5h7p5-5-5-------5-x-7-|
A|-------------------------------------|-------------7-----------8-(8)-------|
E|-------------------------------------|-------------------------------------|


~
|-3-| |-3-| |-3-| |-3-| |-3-| |-3-|
E S S S E S S S E S S S E S S S E S S S E S S S a +E E S S S a S
e|---------------------------------|-----------------8b10-(8)-8-5---5---------|
B|---------------------------------|-6---8---8---6-8--------------8---8h10----|
G|-5-----7-7-----5-5-----7-7-------|-----------7------------------------------|
D|---5-7-----5-7-----5-7-----7-7-7-|---5--------------------------------------|
A|---------------------------------|------------------------------------------|
E|---------------------------------|------------------------------------------|


|--3--|
|-----5-----|
+E. S E S a +S +E E E S a +S S S S S S S +S E S E a
+E S S S S S
e|------8------10b12-(10)-(10)-10-8-10-10b12-(10)-10-8-|-10p8---------------------------------------------|
B|-(10)---10-------------------------------------------|------10-10-(10)-10-----13b17-(13)-13-10----13-10-|
G|-----------------------------------------------------|-----------------------------------------12-------|
D|-----------------------------------------------------|--------------------------------------------------|
A|-----------------------------------------------------|--------------------------------------------------|
E|-----------------------------------------------------|--------------------------------------------------|


|----------6----------| |--------5--------|
+S S T T S S T T S S S T T S S T T T T S S S S S
e|------------------------------------------------------------------------------|
B|-(10)----10h13p10----10h13p10-10----10h13p10----10h13p10----10-13-10-13-12----|
G|------12----------12-------------12----------12----------12-------------------|
D|------------------------------------------------------------------------------|
A|------------------------------------------------------------------------------|
E|------------------------------------------------------------------------------|


~~~
|--3--| |--3---| |--3--|
S S S Q. S S S S +S S S S S S
e|--------------------------------------------------|
B|-13-12h13p10------10-12-13-(13)-12h13p12-10-12b14-|
G|--------------------------------------------------|
D|--------------------------------------------------|
A|--------------------------------------------------|
E|--------------------------------------------------|


|--3--| |---3----|
+S S S S E E E E. S S S T T T T E S S E E S S S S E E S S
e|-------------------------------------------------|---------------------------13-12-10-----|
B|-(12)-12-10-12-13-12p10-12--10-12-13-12h13p12-10-|-12---10-12-13-12h13p12-10----------13--|
G|-------------------------------------------------|----------------------------------------|
D|-------------------------------------------------|----------------------------------------|
A|-------------------------------------------------|----------------------------------------|
E|-------------------------------------------------|----------------------------------------|


|--3--| |--3--|
S S S S S S S S T T E E E S T T S S
e|-10h12p10----10----------------------------------------|
B|----------13----13-12-13p12p10----10-12-13-12h13p12p10-|
G|-------------------------------12----------------------|
D|-------------------------------------------------------|
A|-------------------------------------------------------|
E|-------------------------------------------------------|


|--3---| |--3---| |-3--|
a +E E E a +E E E +Q E a +S S S
e|-----------------------------------------------------5-|
B|---------------------------------------------------5---|
G|-12b14-(12)-12-10--------------------------7b9-(7)-----|
D|------------------12b14-(12)-12-10-(10)----------------|
A|-------------------------------------------------------|
E|-------------------------------------------------------|


|---5---| |----6-----| |---5----| |---5---|
S S S S S +S S S S S S +S S S S S S S S S S
e|-------------------5-------------5--------------------|
B|-8-5-8p5---------5---8p5-----------8p5-8p5------------|
G|---------7b9-(7)---------7b9-(7)-----------7-5-7p5----|
D|------------------------------------------------------|
A|------------------------------------------------------|
E|------------------------------------------------------|


S S a S S S S S S S S E E E E S S S S S S +E S S S S E
e|------------------------------|--------------------------8----|
B|------------------------------|------------------------8---10-|
G|-5----------------------------|--------------5-(5)-7s9--------|
D|---7-5h7-5-3------------------|----5---5-6-7------------------|
A|-------------3h5p3----------3-|-/7---7------------------------|
E|-------------------5-3-1-/5---|-------------------------------|


E S S Q S S S S S E S
e|----8-7-----8-7------------------|
B|-10-----10------10-8-10-10-13b17-|
G|---------------------------------|
D|---------------------------------|
A|---------------------------------|
E|---------------------------------|


+E S S S S E +S S S S S S a +E
e|-------------------------------------------------------|
B|-(13)-13-10----10-13b17-(13)-13-10----13----13b15-(13)-|
G|------------12---------------------12----12------------|
D|-------------------------------------------------------|
A|-------------------------------------------------------|
E|-------------------------------------------------------|


|-----5-----| |---3----| |--3--|
S S S S S S S S S +Q S S S T T S T T S S S S S S S S S E
S S E.
e|----------------------------------12-13-12-13p|=12p10h12p10-10h12p10----10------------------------|
B|-13-10--------12h13p12-10-(10)----------------|----------------------13----13-12---12-12p10-10\---|
G|-------12-x-----------------------------------|---------------------------------------------------|
D|----------------------------------------------|---------------------------------------------------|
A|----------------------------------------------|---------------------------------------------------|
E|----------------------------------------------|---------------------------------------------------|


S S S S S S S S S S S S S S E
e|----------------------------------------------|
B|----------------------------------------------|
G|----------10----------10-------12-12-12-14-14-|
D|-------10----12p10-------12h14----------------|
A|-10h12-------------12-------------------------|
E|----------------------------------------------|


|----------3----------| |----------3-----------|
a +E S S T T +T +T S S +E a +E +T S T E a +E
+T S T
e|------------------------------------------------------------------------------------------------|
B|-13b15-(13)-13----13-15b17==(15)r(15)----13-(13)-15b17==(15)r(15)px---13-15b17==(15)r(15)p13----|
G|---------------14---------------------14----------------------------x------------------------14-|
D|------------------------------------------------------------------------------------------------|
A|------------------------------------------------------------------------------------------------|
E|------------------------------------------------------------------------------------------------|


|----------3-----------| |----------3-----------| |----------3-----------| |----------3-----------|
E a +E +T S T E a +E +T S T E a +E +T S T E a
+E +T S T
e|-----------------------------------------------------------------------------------------------------------|
B|-13-15b17==(15)r(15)p13-13-13-15b17==(15)r(15)p13----13-15b17==(15)r(15)p13----13-15b17==(15)r(15)p13-13---|
G|--------------------------------------------------14------------------------14-----------------------------|
D|-----------------------------------------------------------------------------------------------------------|
A|-----------------------------------------------------------------------------------------------------------|
E|-----------------------------------------------------------------------------------------------------------|


|----------3-----------| |----------3-----------| |----------3-----------| |----------3-----------|
E a +E +T S T E a +E +T S T E a +E +T S T E a
+E +T S T
e|---------------------------------------------------------------------------------------------------------|
B|-13-15b17==(15)r(15)p13-13-13-15b17==(15)r(15)p13----13-15b17==(15)r(15)p13----13-15b17==(15)r(15)p13-13-|
G|--------------------------------------------------14------------------------14---------------------------|
D|---------------------------------------------------------------------------------------------------------|
A|---------------------------------------------------------------------------------------------------------|
E|---------------------------------------------------------------------------------------------------------|


|--3---| |--3--|
S a +E. +H a +S S S S S S
e|----15b17==(15)-(15)r----15b17==(15)-15-15-15-15-15-|
B|-13-------------------------------------------------|
G|----------------------------------------------------|
D|----------------------------------------------------|
A|----------------------------------------------------|
E|----------------------------------------------------|


|--3--| |--3--| |---3----| |--3--| |-3-| |-3-|
S S S S S S E +E +S S S S S +E +E +E S
e|-15-15-15-15-15-15-15r(15)b17==(15)-15-15-15-15r(15)-(15)b17-(15)----------|
B|------------------------------------------------------------------15pb17---|
G|---------------------------------------------------------------------------|
D|---------------------------------------------------------------------------|
A|---------------------------------------------------------------------------|
E|---------------------------------------------------------------------------|


|--3---| |-3-|
a +S S S S +E +E. +S E E S S S S
e|-15b17==(15)-15-15-15r(15)-(15)b17-(15)-17-15-13----------|
B|-------------------------------------------------13----13-|
G|----------------------------------------------------14----|
D|----------------------------------------------------------|
A|----------------------------------------------------------|
E|----------------------------------------------------------|

~~
|--3--| |--3--| |-3--| |3-| |--3--|
a +E S S S E S S H S S S S S S +E E S E S S S S S S T
T
e|------------------------------------|-----------------------------------------12-----------|
B|-15b17==(15)r15p13----15---13-15----|---12h13p12---12-(12)-----12----12-13-15----15-13p12--|
G|-------------------14---------------|------------x----------------12-----------------------|
D|------------------------------------|------------------------------------------------------|
A|------------------------------------|------------------------------------------------------|
E|------------------------------------|------------------------------------------------------|


|--3--| |--3--| |--3--|
S S S T T T T S S S S S S S S S S S S S S
e|----------------------------------------------------------------|
B|-12h13p12---12-(0)----------------------------------------------|
G|----------x--------12----14p12-12-14p12----12-------------------|
D|----------------------14----------------14----15-14-12----12-14-|
A|-------------------------------------------------------13-------|
E|----------------------------------------------------------------|


|--3--| |--3--| |-3--|
|--3--|
S T T T T S E E E E E E +Q S T T S S E. S S S S S S S S
S S S
e|---------------------------------------------|--------------------------------------------------|
B|---------------------------------------------|-----------------------------------------12h13p12-|
G|---------------------------------------------|---------------------------------12h14-x----------|
D|-15-14h15p14p12------12----------------------|------------------------12-14-15------------------|
A|----------------[15]----15-14-12-14-15-(15)--|---14h15p14-x-12--14-15---------------------------|
E|---------------------------------------------|--------------------------------------------------|


S S S T T S S S S a +E E S S S S
e|----------12-13-12----12-13-15b17-(15)-15-13----------|
B|-12-13-15----------15------------------------13----13-|
G|------------------------------------------------14----|
D|------------------------------------------------------|
A|------------------------------------------------------|
E|------------------------------------------------------|


a +Q +S S S S S S S S S S S S
e|--------------------15-----------15-----------15-----------15-|
B|-15b17-(15)--(15)------15-15pb17----15-15pb17----15-15pb17----|
G|--------------------------------------------------------------|
D|--------------------------------------------------------------|
A|--------------------------------------------------------------|
E|--------------------------------------------------------------|


|-----3------| |--3--|
S S S S S T T E +E S S S S E E E
e|-----------15-----------------------------------------------|
B|-15-15pb17----15-15pb17-15p13-15-(15)-12-13-12----12-13-12--|
G|-----------------------------------------------14-----------|
D|------------------------------------------------------------|
A|------------------------------------------------------------|
E|------------------------------------------------------------|


~~
|-----3-----|
Q a +E E S S a +S S S S a +S S E S S S S S S S S
E E Q
e|----------------------------------------------------------|-------------------------------------|
B|---------------12-13p12------------12-13p12------------12-|-13-12h13p12----12-------------------|
G|----14b16-(14)----------14b16-(14)----------14b16-(14)----|-------------14----14-12----14-12----|
D|----------------------------------------------------------|-------------------------14-------x--|
A|----------------------------------------------------------|-------------------------------------|
E|----------------------------------------------------------|-------------------------------------|


|-3--| |-3-| |-3-| |-3-| |-3-|
a +S S S T T T T a +S S T T T T S S S S S S S S S S S S
e|-----------5-----------------------------------------------------|
B|---------5-------------------5-----------------------------------|
G|-7b9-(7)-----8p5-8p5-7b9-(7)---7p5-7p5---7-5---5-------------5---|
D|---------------------------------------7-----7---7-7p5---5-7-----|
A|-------------------------------------------------------7---------|
E|-----------------------------------------------------------------|


~~~~~~~
|-3--| |3-| |3|
S S S S S S S E +E S S E E a +E
e|-----------8------------8h10-----10b12-(10)-|
B|-------------10-10-(10)---------------------|
G|-5---5-7s9----------------------------------|
D|---7----------------------------------------|
A|--------------------------------------------|
E|--------------------------------------------|


e e S S S a +S S E S S S E a +E E S S S S S S S S S S E
e|-10-8-10-8----10b12-(10)---10-8-10p8----|-10b12-(10)-10-8-10-8----10----8-10p8--------|
B|-----------10------------------------10-|----------------------10----10--------10-(0)-|
G|----------------------------------------|---------------------------------------------|
D|----------------------------------------|---------------------------------------------|
A|----------------------------------------|---------------------------------------------|
E|----------------------------------------|---------------------------------------------|


|-----7-----| |-----7-----| |-3-| |-3-|
S S S S S S S S S S S S S S E E E S S S S S
e|-8p5---8p5---8p5---8p5---8p5---8-7p5---5-8---|
B|-----5-----5-----5-----5-----8-------8-----5-|
G|---------------------------------------------|
D|---------------------------------------------|
A|---------------------------------------------|
E|---------------------------------------------|


|-3-| |-3-| |-3-| |-3-|
S S S S T T E S S +S T T E S S E S S S S S S a S S S S S S S S S +E E
e|-------------------------8-------------|-----------------------------8---------------|
B|-----------------10-(10)---10-10-------|---------------------------8---10b12r(10)----|
G|-5h7p5---7p5---------------------------|-------5-7p5-7s9-7p5---5S9-------------------|
D|-------7-----7-------------------------|-7-5-7---------------7-----------------------|
A|---------------------------------5h7-8-|---------------------------------------------|
E|---------------------------------------|---------------------------------------------|


|-----5-----| |--3--|
S S S S S S S S S +S S S S S E E
e|-------------------------------------------------|
B|------12-13-12h13p12----12-(12)-13-12h13p12------|
G|---14----------------14---------------------14---|
D|-------------------------------------------------|
A|-------------------------------------------------|
E|-------------------------------------------------|


~~~~~~~
E a +E E E S S S S +S S S S S S e e S S S a +E. E E E
e|--------------15----------------------------|----------------------15b17-(15)-15-13-------|
B|---15b17-(15)------15-13-15-15-(15)-13------|-13-12-------12-13p12------------------(14)--|
G|-----------------x---------------------14---|-------14-14---------------------------------|
D|--------------------------------------------|---------------------------------------------|
A|--------------------------------------------|---------------------------------------------|
E|--------------------------------------------|---------------------------------------------|


a +e e a +e S S +S S E S S e
e|------------15--------------------------------------|
B|-15b17-(15)----15b17-(15)-15-15-(15)-13----13p12----|
G|----------------------------------------14-------14-|
D|----------------------------------------------------|
A|----------------------------------------------------|
E|----------------------------------------------------|


E a +E S S S S +S +E. E a +S S S E S S T T S S +E a +S S S E.
e|--------------------------------------------------|-5-----------5-----------------5------|
B|-13-15b17-(15)-13-12----------------------------5-|---8-5---8p5---8-(8)---------5---8----|
G|---------------------14-14-(14)-(14)\---7b9-(7)---|-------7-------------7b9-(7)----------|
D|--------------------------------------------------|--------------------------------------|
A|--------------------------------------------------|--------------------------------------|
E|--------------------------------------------------|--------------------------------------|


|-3--| |---3----|
a +S S S E +E a +S S S E S a +S S S S E
e|-----------5-----------------5---------------5-8---|
B|---------5---8-(8)---------5---8-5---------5-----8-|
G|-7b9-(7)-----------7b9-(7)---------7b9-(7)---------|
D|---------------------------------------------------|
A|---------------------------------------------------|
E|---------------------------------------------------|


|--3--|
+E a +E E E S S S E. +E E S S S S S S S S S S S S S S S S
e|-------------5------------------|-------------------------------------------------|
B|-(8)-----------8-8---x-8--(8)---|----------------------------------------------15-|
G|-----7b9-(7)-------x------------|----------10-------------------12----12-14-14----|
D|--------------------------------|-------10----12s10----10-12s14----14-------------|
A|--------------------------------|-10s12-------------12----------------------------|
E|--------------------------------|-------------------------------------------------|


a +E. +T T E E a +E. +T T E a +E
e|-------------------------------------------------15b17==(15)-|
B|-15b17==(15)r(15)p13------15b17==(15)r(15)p13----------------|
G|---------------------14-----------------------14-------------|
D|-------------------------------------------------------------|
A|-------------------------------------------------------------|
E|-------------------------------------------------------------|


+E T S T T S T T S T T S T T S T S +S E
e|-(15)-x-15-x-15-x-15-x-15-x-15-x-15-x-15-x-15r(15)-13-|
B|------------------------------------------------------|
G|------------------------------------------------------|
D|------------------------------------------------------|
A|------------------------------------------------------|
E|------------------------------------------------------|


a +E. +T T E E a +E. +T T E a +E
e|-------------------------------------------------15b17==(15)-|
B|-15b17==(15)r(15)p13------15b17==(15)r(15)p13----------------|
G|---------------------14-----------------------14-------------|
D|-------------------------------------------------------------|
A|-------------------------------------------------------------|
E|-------------------------------------------------------------|


+Q E S a +S S a +S S T T E. S
e|-(15)r----------------------------------------------|
B|---------------------------------------14-12-14p(0)-|
G|--------14---14b17-(14)---14b17-(14)----------------|
D|----------------------------------------------------|
A|----------------------------------------------------|
E|----------------------------------------------------|


a +E. +T T E E a +E. +T T E a +E E E S S S S S S
S S S S E
e|-------------------------------------------------15b17-(15)-|---15-12-13-12----12---------------------|
B|-15b17==(15)r(15)p13------15b17==(15)r(15)p13---------------|---------------15----13-15-12-13---------|
G|---------------------14-----------------------14------------|---------------------------------14-12---|
D|------------------------------------------------------------|-----------------------------------------|
A|------------------------------------------------------------|-----------------------------------------|
E|------------------------------------------------------------|-----------------------------------------|


+E E E E a +E. +T T E E
e|--------------------------------------|
B|-------------15b17==(15)r(15)p13------|
G|-(12)---14-----------------------14---|
D|--------------------------------------|
A|--------------------------------------|
E|--------------------------------------|


[Finale]

A5 G5
Gtrs V, VI
|3-| |--3--| |--3--| |--3--| |--3--| |--3--|
E S S S S S S S S S S S S S S S S E E E E Q E E Q
e|------19p17----19p17----19p17----19p17----19p17----19\---||---------------|
B|---17-------17-------17-------17-------17-------17-------||---------------|
G|---------------------------------------------------------||---------------|
D|---------------------------------------------------------||-7-7----5-5----|
A|---------------------------------------------------------||-7-7----5-5----|
E|---------------------------------------------------------||-5-5----3-3----|


F F5G5 A5 G5
E S S S S S S S S S S E E E E Q E E Q
e|-1-x-1---x-1---x-1---x-1-3-|--------3-3----|
B|-1-x-1---x-1---x-1---x-1-3-|-5-5----3-3----|
G|-2-x-2---x-2-2-x-2---x-----|---------------|
D|-3-x-3---x-3---x-3---x-3-5-|-7-7----5-5----|
A|-3---3-----3-----3-----3-5-|-7-7----5-5----|
E|-1---1-----1-----1-----1-3-|-5-5----3-3----|


F F5G5 A5 G5
E S S E E S S E E E E E S S S S E E S S S S
e|-1-x-1---1-x-1-------|-------------------3------|
B|-1-x-1---1-x-1---1-3-|-5-5-x-x-x-x-3-3-x-3---0--|
G|-2-x-2---2-x-2-------|--------------------------|
D|-3-x-3---3-x-3---3-5-|-7-7-x-x-x-x-5-5-x-5------|
A|-3---3---3---3---3-5-|-7-7-x-x-x-x-5-5-x-5------|
E|-1---1---1---1---1-3-|-5-5---------3-3----------|


F5 G5 A5 G5
S S S S S S E S S S S E E E E Q E E S e S
e|-1-x-x-1---x-1-x-1-x-x-1-3-|-5-5--------x-3-x-|
B|-1-x-x-1---x-1-x-1-x-x-1-3-|-5-5----3-3-x-3-x-|
G|---------------------------|------------------|
D|-3-x-x-3---x-3-x-3-x-x-3-5-|-7-7----5-5-x-5-x-|
A|-3---------------3-----3-5-|-7-7----5-5-------|
E|-1---------------1-----1-3-|-5-5----3-3-------|


N.C. A5 G5
E. S +E E +S E S E E E E S S S S E E S S S S
e|-------------------------|--------------------------|
B|-------------------------|-5-5---------3-3-x-x-x-x--|
G|----------5-(5)-/9-9-7-5-|--------------------------|
D|-3--7-(7)----------------|-7-7-x-x-x-x-5-5-x-x-x-x--|
A|----------3-(3)-/7-7-5-3-|-7-7-x-x-x-x-5-5-x-x-x-x--|
E|-1--5-(5)----------------|-5-5-x-x-x-x-3-3----------|


N.C. A5 G5
E. S +E E +S E S E E E E E E E E S S S S
e|-------------------------|-----------------------|
B|-------------------------|-5-5---(3)-3-3---------|
G|----------5-(5)-/9-9-7-5-|-----------------------|
D|-3--7-(7)----------------|-7-7-------5-5-x-x-x-x-|
A|----------3-(3)-/7-7-5-3-|-7-7-------5-5-x-x-x-x-|
E|-1--5-(5)----------------|-5-5-------3-3-x-x-x-x-|


N.C. A5 G5
E. S +E E +S E S E E E E S S S S E E S S S S
e|-------------------------|--------------------------|
B|-------------------------|-5-5---------3-3-x-x-x-x--|
G|----------5-(5)-/9-9-7-5-|--------------------------|
D|-3--7-(7)----------------|-7-7-x-x-x-x-5-5-x-x-x-x--|
A|----------3-(3)-/7-7-5-3-|-7-7-x-x-x-x-5-5-x-x-x-x--|
E|-1--5-(5)----------------|-5-5-x-x-x-x-3-3----------|


N.C. A5 G F Am G F
E. S +E E +S E S E E E E Q E E E E +W E E Q E E E E
e|-------------------------|--------------1-|-(1)--------|--------------1--|
B|-------------------------|-5-5----------1-|-(1)--------|-5-5----------1--|
G|----------5-(5)-/9-9-7-5-|--------4-4---2-|-(2)--------|-5-5----4-4---2--|
D|-3--7-(7)----------------|-7-7----5-5---3-|-(3)--------|-7-7----5-5---3--|
A|----------3-(3)-/7-7-5-3-|-7-7----5-5---3-|-(3)--------|-7-7----5-5---3--|
E|-1--5-(5)----------------|-5-5----3-3---1-|-(1)--------|-5-5----3-3---1--|


N.C.
+H. Q E E S S E S E. S S E
e|-(1)---------|------8-----------7---7-|
B|-(1)---------|----0----------8----8---|
G|-(2)---------|--------5------7----7---|
D|-(3)---------|-/7-------7-/9----------|
A|-(3)---------|------------------------|
E|-(1)---------|------------------------|


S S S S E S S +E E S S E S S E +S S E S S S S S S S S
e|---------------------------------------|------------------------10---7---|
B|----10-------13----12-(12)-10----10----|---0-0-(0)--------8--------------|
G|-------10---------------------12----12-|-----------5--------7------7-----|
D|-10-------10----10---------------------|-7-----------7-/9-----9--------9-|
A|---------------------------------------|---------------------------------|
E|---------------------------------------|---------------------------------|


S S S S E S S +S S E S S E
e|-----------------------------------------|
B|---10-------13----12-(12)----10----10----|
G|------10------------------------12----12-|
D|---------10----10---------10-------------|
A|-----------------------------------------|
E|-----------------------------------------|


S S E S S S S S S E E E S S E E S S +E E S S E
e|-------8---5---7-----10-7-|-------------------------------------|
B|-8-0-------------8--------|---10----13----12-(12)-10----10------|
G|-----5-5-5-5s7-----7------|------10----10------------12----12\--|
D|--------------------------|-------------------------------------|
A|--------------------------|-------------------------------------|
E|--------------------------|-------------------------------------|


Slower Q=100
S S S S E S S S S E S S E Q Q H +W
e|---------8---------10-7---x-|--/8\--------1----|-(1)----*|
B|---8---------8---5------8---|-/10\--/10\--1----|-(1)----*|
G|-----5-----5---7------------|-------/10\-------|--------*|
D|-7-----7--------------------|------------------|--------*|
A|----------------------------|------------------|--------*|
E|----------------------------|------------------|--------*|


--------------------------------------------------------------------------------


Duration Legend
---------------
W - whole; H - half; Q - quarter; E - 8th; S - 16th; T - 32nd; X - 64th; a - acciaccatura
+ - note tied to previous; . - note dotted; .. - note double dotted
Uncapitalized letters represent notes that are staccato (1/2 duration)
Irregular groupings are notated above the duration line
Duration letters will always appear directly above the note/fret number it represents the
duration for. Duration letters with no fret number below them represent rests. Multi-
bar rests are notated in the form Wxn, where n is the number of bars to rest for. Low
melody durations appear below the staff

Tablature Legend
----------------
h - hammer-on
p - pull-off
b - bend
pb - pre-bend
r - bend release (if no number after the r, then release immediately)
/\ - slide into or out of (from/to "nowhere")
s - legato slide
S - shift slide
- natural harmonic
[n] - artificial harmonic
n(n) - tapped harmonic
~ - vibrato
tr - trill
T - tap
TP - trem. picking
PM - palm muting
\n/ - tremolo bar dip; n = amount to dip
\n - tremolo bar down
n/ - tremolo bar up
/n\ - tremolo bar inverted dip
= - hold bend; also acts as connecting device for hammers/pulls
<> - volume swell (louder/softer)
x - on rhythm slash represents muted slash
o - on rhythm slash represents single note slash

Misc Legend
-----------
| - bar
|| - double bar
||o - repeat start
o|| - repeat end
*| - double bar (ending)
: - bar (freetime)
$ - Segno
& - Coda
Tempo markers - = BPM(8/16=s8/s16), where s8 = swing 8ths, s16 = swing 16ths
Tunning: Standard (E A D G B e)
-------------------------------------------------------------------------------
STAIRWAY TO HEAVEN - Led Zeppelin
-------------------------------------------------------------------------------

Tabbed by:rhythm_hawk

Tuning: E-A-D-G-B-e


e|----------5--7--------7--8--------8--2--------2--0-----------0----------------|
B|-------5--------5-----------5-----------3-----------1-----1-----1-------------|
G|----5--------------5-----------5-----------2-----------2-----------2--0--2-2--|
D|-7-----------6-----------5-----------2-----------3----------------------------|
A|----------------------------------------------------------------------2--0-0--|
E|------------------------------------------------------------------------------|

e|---------------------7--------7--8--------8--2--------2--0-----------0--------|
B|------------------5-----5-----------5-----------3-----------1-----1----1------|
G|---------------5-----------5-----------5-----------2-----------2---------2----|
D|------------7--------6-----------5-----------4-----------3--------------------|
A|-0/8--7--0--------------------------------------------------------------------|
E|------------------------------------------------------------------------------|

e|--------------------------0--2--------2--0--------0---------------------------|
B|--------------------------------3-----------1--------0-----------1--------1---|
G|-0--2-2----------------0-----------3-----------2--------2-----------0---------|
D|--------------------2--------0-----------3-----------------------------2------|
A|-2--0-0----0--2--3-----------------------------------0-----0--2--3------------|
E|------------------------------------------------------------------------------|

e|-3--------3--3p2--2-2----------------------2--------2--0--------0-------------|
B|----0--------3----3-3-------------------1-----3-----------1--------0----------|
G|-------0-----2----2-2----------------0-----------2-----------2--------2-------|
D|-------------0----0-0-------------2--------0-----------3----------------------|
A|-------------------------0--2--3-----------------------------------0-----0----|
E|-3----------------------------------------------------------------------------|

e|-------------------------2--0-0-0---------------------------5--7--------7-----|
B|-------------1--------3-----1-1-1------------------------5--------5-----------|
G|----------0--------2--------2-2-2---------------------5--------------5--------|
D|-------2--------0-----------3-3-3------------------7-----------6--------------|
A|-2--3-------------------------------------------------------------------------|
E|------------------------------------------------------------------------------|

e|-8--------8--2--------2--0-----------0----------------------------5--7--------|
B|----5-----------3-----------1-----1-----1----------------------5--------5-----|
G|-------5-----------2-----------2-----------2--0--2-2--------5--------------5--|
D|-5-----------4-----------3-------------------------------7-----------6--------|
A|----------------------------------------------2--0-0--------------------------|
E|------------------------------------------------------------------------------|

e|--7--8--------8--2--------2--0-----------0------------------------------------|
B|--------5-----------3-----------1-----1-----1------------------------------1--|
G|-----------5-----------2-----------2-----------2--0--2-2----------------0-----|
D|-----5-----------4-----------3---------------------------------------2--------|
A|--------------------------------------------------2--0-0----0--2--3-----------|
E|------------------------------------------------------------------------------|

e|--2--------2--0-----------------------------0-----3--------3--3p2-2-2---------|
B|-----3-----------1-----1--0-----------1--------1-----0--------3---3-3---------|
G|--------2-----------2--------2-----------0--------------0-----2---2-2---------|
D|--0-----------3-----------------------------------------------0---0-0---------|
A|--------------------------0-----0--2--3---------------------------------0--2--|
E|--------------------------------------------------3---------------------------|

e|-----------0--2--------2--0-----------------------------------2--------2--0---|
B|-----------------3-----------1-----1--0-----------1--------1-----3--------1---|
G|--------0-----------2-----------2--------2-----------0--------------2-----0---|
D|-----2--------0-----------3-----------------------------2-----0-----------3---|
A|--3-----------------------------------0-----0--2--3---------------------------|
E|------------------------------------------------------------------------------|

e|--0-0-------------------5--7--------7--8--------8--2--------2--0-----------0--|
B|--1-1----------------5--------5-----------5-----------3-----------1-----1-----|
G|--2-2-------------5---------------5----------5-----------2-----------2--------|
D|--3-3----------7-----------6-----------5-----------4-----------3--------------|
A|------------------------------------------------------------------------------|
E|------------------------------------------------------------------------------|

e|-------------------------------5-7-------7-------------8-------------2--------|
B|--1--------------------------------5---5---5---------5---5---------3---3------|
G|-----2--0--2-2---------------5-------5-------5-----5-------5-----2-------2----|
D|---------------------------7-----6-------6-----6-5-----------5-4-----------4--|
A|--------2--0-0---0/8--7--0----------------------------------------------------|
E|------------------------------------------------------------------------------|

e|-------0-----------0---------------------3--3-3-3--3-----0-----3-----2-----2--|
B|-----1---1-------1---1---------------3---1--1-1-1--1-----1-----3-----3-----3--|
G|---2-------2---2-------2----0--2-2---0---2--2-2-2--2-----0-----2-----2-----2--|
D|-3-----------3-----------3-----------0---2--2-2-2--2-----2-----0--0-----0--0--|
A|----------------------------2--0-0---2---0--0-0-0--0--0-----0-----------------|
E|------------------------------------------------------------------------------|

e|--2-2-2--0--0---3--3-3-3--3----0---7------5----3----5--------3--3-3-3--3------|
B|--3-3-3--1--1---1--1-1-1--1----1---8------7----5----7--------1--1-1-1--1------|
G|--2-2-2--0--0---2--2-2-2--2----0---9------7----5----7--------2--2-2-2--2------|
D|--0-0-0--2--2---2--2-2-2--2----2-------0----0----0-----0-----2--2-2-2--2------|
A|---------0--0---0--0-0-0--0--0---0------------------------0--0--0-0-0--0--0---|
E|------------------------------------------------------------------------------|

e|-0-----3-----2------2--2-2-2-0-0--3--3-3-3--3-----0-----7------5----3----5----|
B|-1-----3-----3------3--3-3-3-1-1--1--1-1-1--1-----1-----8------7----5----7----|
G|-0-----2-----2------2--2-2-2-0-0--2--2-2-2--2-----0-----9------7----5----7----|
D|-2-----0--0------0--0--0-0-0-2-2--2--2-2-2--2-----2---------0----0----0-------|
A|----0------------------------0-0--0--0-0-0--0--0-----0------------------------|
E|------------------------------------------------------------------------------|

e|------------------------------------------------------------------------------|
B|----------------1-----------3--0--------------1-----------------1--3----------|
G|-------------0-----------0--------2--------2-----------------0-----------0----|
D|-0--------2-----------0-----------------2-----------------2-----------0-------|
A|----0--3-----------2-----------0-----0-----------0--2--3-----------2----------|
E|------------------------------------------------------------------------------|

e|------------------------------------------------------------------------------|
B|-1---1-------------------1-----------3--0--------------1-----------------1----|
G|-2---2----------------0-----------0--------2--------2-----------------0-------|
D|-2---2-------------2-----------0-----------------2-----------------2----------|
A|-----0----0--2--3-----------2-----------0-----0-----------0--2--3-------------|
E|-1----------------------------------------------------------------------------|

e|-------------------------------------------------3--3-3-3--3-----0-----3------|
B|-3--------1---1----------------------------------1--1-1-1--1-----1-----3------|
G|-------0--2---2----------------0-----------0-----2--2-2-2--2-----0-----2------|
D|----0-----2---2-------------2-----------0--------2--2-2-2--2-----2-----0--0---|
A|-2------------0----0--2--3--------3--2--------2--0--0-0-0--0--0-----0---------|
E|----------1-------------------------------------------------------------------|

e|-2------2--2-2-2--0--0---3--3-3-3--3-----0----7---5---3---5-----3--3-3-3--3---|
B|-3------3--3-3-3--1--1---1--1-1-1--1-----1----8---7---5---7-----1--1-1-1--1---|
G|-2------2--2-2-2--0--0---2--2-2-2--2-----0----9---7---5---7-----2--2-2-2--2---|
D|-----0--0--0-0-0--2--2---2--2-2-2--2-----2------0---0---0---0---2--2-2-2--2---|
A|------------------0--0---0--0-0-0--0--0-----0-----------------0-0--0-0-0--0-0-|
E|------------------------------------------------------------------------------|

e|-0---3---2----2-2-2-2-0-0--3--3-3-3--3---0---7---5---3---5--------------------|
B|-1---3---3----3-3-3-3-1-1--1--1-1-1--1---1---8---7---5---7-----------1--------|
G|-0---2---2----2-2-2-2-0-0--2--2-2-2--2---0---9---7---5---7---------0-------0--|
D|-2-----0----0-0-0-0-0-2-2--2--2-2-2--2---2-----0---0---0---0-----2-------0----|
A|---0------------------0-0--0--0-0-0--0-0---0-----------------0-3-------2------|
E|------------------------------------------------------------------------------|

e|---------0--------------------------------------------------------------------|
B|-3-0----------1-----------1-3-----1--1-----------------1------------3--0------|
G|-----2------2-----------0-------0-2--2-------------0-------------0--------2---|
D|-------2--------------2-------0---2--2----------2-------------0---------------|
A|---0---0--------0-2-2-------2--------0-0--2--3------------2------------0------|
E|----------------------------------1-------------------------------------------|

e|------------------------------------------------------------3--3-3-3--3-------|
B|-------1-----------1-3-----1-1------------------------------1--1-1-1--1-------|
G|-----2-----------0-------0-2-2------------0-----------0-----2--2-2-2--2-------|
D|---2-----------2-------0---2-2---------2-----------0--------2--2-2-2--2-------|
A|-0-------0-2-3-------2-------0--0--2-3-------3--2--------2--0--0-0-0--0--0----|
E|---------------------------1--------------------------------------------------|

e|-0-----3-----2------2--2-2-2--0-0---3--3--3-3--3-----0-----7-----5-----3------|
B|-1-----3-----3------3--3-3-3--1-1---1--1--1-1--1-----1-----8-----7-----5------|
G|-0-----2-----2------2--2-2-2--0-0---2--2--2-2--2-----0-----9-----7-----5------|
D|-2-----0--0------0--0--0-0-0--2-2---2--2--2-2--2-----2--------0-----0-----0---|
A|----0-------------------------0-0---0--0--0-0--0--0-----0---------------------|
E|------------------------------------------------------------------------------|

e|-5----------------------------------------------------------------------------|
B|-7----------------1-----------3--0-------------1------------------1--3--------|
G|-7-------------0-----------0--------2-------2------------------0-----------0--|
D|---0--------2-----------0----------------2------------------2-----------0-----|
A|------0--3-----------2-----------0----0------------0--2--3-----------2--------|
E|------------------------------------------------------------------------------|

e|-----------------------------------------3--3-3-3--3-----0-----3-----2-----2--|
B|--1---1----------------------------------1--1-1-1--1-----1-----3-----3-----3--|
G|--2---2----------------0-----------0-----2--2-2-2--2-----0-----2-----2-----2--|
D|--2---2-------------2-----------0--------2--2-2-2--2-----2-----0--0-----0--0--|
A|------0----0--2--3--------3--2--------2--0--0-0-0--0--0-----0-----------------|
E|--1---------------------------------------------------------------------------|

e|--2--2--2--0--0--3--3-3-3--3-----0-----7-----5----3----5--------3--3-3-3--3---|
B|--3--3--3--1--1--1--1-1-1--1-----1-----8-----7----5----7--------1--1-1-1--1---|
G|--2--2--2--0--0--2--2-2-2--2-----0-----9-----7----5----7--------2--2-2-2--2---|
D|--0--0--0--2--2--2--2-2-2--2-----2--------0----0----0-----0-----2--2-2-2--2---|
A|-----------0--0--0--0-0-0--0--0-----0------------------------0--0--0-0-0--0---|
E|------------------------------------------------------------------------------|

e|-----0-----3-----2-----2--2-2-2--0-0---3--3-3-3--3-----0-----7-------5-----3--|
B|-----1-----3-----3-----3--3-3-3--1-1---1--1-1-1--1-----1-----8-------7-----5--|
G|-----0-----2-----2-----2--2-2-2--0-0---2--2-2-2--2-----0-----9-------7-----5--|
D|-----2-----0--0-----0--0--0-0-0--2-2---2--2-2-2--2-----2---------0------0-----|
A|--0-----0------------------------0-0---0--0-0-0--0--0-----0-------------------|
E|------------------------------------------------------------------------------|

e|-----5------------------------------------------------------------------------|
B|-----7-----------------1-----------3--0---------------1------------------1----|
G|-----7--------------0-----------0--------2---------2------------------0-------|
D|--0-----0--------2-----------0-----------------2-------------------2----------|
A|-----------0--3-----------2-----------0-----0-------------0--2--3-------------|
E|------------------------------------------------------------------------------|

e|------------------------------------------------------------------------------|
B|-3--------1--1-----------------1-----------3--0--------------1----------------|
G|-------0--2--2--------------0-----------0--------2--------2-------------------|
D|----0-----2--2-----------2-----------0-----------------2-----------------2----|
A|-------------0--0--2--3-----------2-----------0-----0-----------0--2--3-------|
E|-2--------1-------------------------------------------------------------------|

e|------------------------------------------------------2-----------------------|
B|----1--3--------1--1----------------------------------3-----------------------|
G|-0-----------0--2--2----------------0-----------0-----2-----------------------|
D|----------0-----2--2-------------2-----------0--------0-----------------------|
A|-------2-----------0----0--2--3--------3--2--------2--------------------------|
E|------------------------------------------------------------------------------|


[SOLO]

e|--2--0---------------2----------|----------------5---------------------------|
B|--------3-----3----3---3--------|-------------------8p5----------------------|
G|-----------0--4--4-------4p2----|---7^^~~~~~~~----------7p5----7p5-----------|
D|------------------------------5-|----------------------------7-------7p5-----|
A|--------------------------------|----------------------------------------8~~-|
E|--------------------------------|--------------------------------------------|

e|--------------8--8--8^^---8--5-----------|-8--10p8--------------------------|
B|--------8^^----------------------5---/10-|----------10p8------8h10~~~~~~~---|
G|-----------------------------------------|----------------10----------------|
D|-----------------------------------------|----------------------------------|
A|~~~~~~~----------------------------------|----------------------------------|
E|-----------------------------------------|----------------------------------|

e|----------5------------------------------------------|-5---------------------|
B|-------------8p5-------------------------------------|----8p5----------------|
G|---7^^------------7-5-----7p5-------------5---5-5--0-|----------7p5----5h7p5-|
D|-----------------------7-------7p5----5-7---7--------|---------------7-------|
A|------------------------------------7----------------|-----------------------|
E|-----------------------------------------------------|-----------------------|

e|-----------------------------------|----------------------------------------|
B|------------------------6----------|--------------------13--15^^--15-13-15--|
G|----------------------5---7p5----5-|------12----12--14----------------------|
D|--7p5--7p5-------5/7-----------7---|--/14----14-----------------------------|
A|------------8----------------------|----------------------------------------|
E|-----------------------------------|----------------------------------------|

e|----------15^^---15-13----------------|---------------------------------------|
B|--13--13----------------15^^--15-13---|-13-15^^(15)p13------13-15^^(15)p13----|
G|-----------------------------------14-|----------------14------------------14-|
D|--------------------------------------|---------------------------------------|
A|--------------------------------------|---------------------------------------|
E|--------------------------------------|---------------------------------------|

e|----------------------------------------|------------------------------------|
B|--13-15^^(15)p13------13-15^^(15)p13----|--13-15^^(15)p13-----13-15^^(15)p13-|
G|-----------------14------------------14-|-----------------14-----------------|
D|----------------------------------------|------------------------------------|
A|----------------------------------------|------------------------------------|
E|----------------------------------------|------------------------------------|

e|----------------------------------------------|--------------------------------|
B|-------13-15^^(15)p13-------13-15^^(15)p13----|--13-15^^(15)p13-----13-15^^(15-|
G|--14------------------14-------------------14-|-----------------14-------------|
D|----------------------------------------------|--------------------------------|
A|----------------------------------------------|--------------------------------|
E|----------------------------------------------|--------------------------------|

e|--------------15^^---12-15-12------|----------------------------15-------------|
B|(15)p13----13-----------------15-13|----13-15-13----13--15^^(hb)---(15)^p13----|
G|--------14-------------------------|-14----------14----------------------------|
D|-----------------------------------|-------------------------------------------|
A|-----------------------------------|-------------------------------------------|
E|-----------------------------------|-------------------------------------------|

e|------------------------17--------------------------------|--------------------|
B|---------------------20----20-----------------------------|--------------------|
G|--14~~~~~~~-----19^^-----------19^^(19)p17----19-17----17-|--19^^~~~~~~~~------|
D|-------------------------------------------19-------19----|--------------------|
A|----------------------------------------------------------|--------------------|
E|----------------------------------------------------------|--------------------|

Grad.
e|------------------------------------------|------------------------------------|
B|------------------------------------------|---------------------------5--------|
G|--14^^^--14^^^----14-12-14---12/14~~~~~~~~|--10^^^^---10-9-7-5-7-5--7---7-5----|
D|------------------------------------------|---------------------------------7~-|
A|------------------------------------------|------------------------------------|
E|------------------------------------------|------------------------------------|

e|----20p17----20p17----20p17----20p17----20p17----20^^--|
B|-17-------17-------17-------17-------17-------17-------|
G|-------------------------------------------------------|
D|-------------------------------------------------------|
A|-------------------------------------------------------|
E|-------------------------------------------------------|

e|--------------------5-5-----------3-3-----------1-1--1-1--1---3-3-------------|
B|--------------------5-5-----------3-3-----------1-1--1-1--1---3-3-------------|
G|--------------------5-5-----------4-4-----------2-2--2-2--2---4-4-------------|
D|--------------------7-7-----------5-5-----------3-3--3-3--3---5-5-------------|
A|--------------------7-7-----------5-5-----------3-3--3-3--3---5-5-------------|
E|--------------------5-5-----------3-3-----------1-1--1-1--1---3-3-------------|

e|---------------------------------------------------------------5-5------------|
B|---------------------------------------------------------------5-5------------|
G|---------------------------------------------------------------5-5------------|
D|---------------------------------------------------------------7-7------------|
A|---------------------------------------------------------------7-7------------|
E|---------------------------------------------------------------5-5------------|

e|-3-3-------0--0-0--0-0-0-0-0-0-0-----5-5--------3-3-------1-1-1-1-1-1-1-1-1---|
B|-3-3-------1--1-1--1-1-1-1-1-1-1-----5-5--------3-3-------2-2-2-2-2-2-2-2-2---|
G|-4-4-------2--2-2--2-2-2-2-2-2-2-----5-5--------4-4-------2-2-2-2-2-2-2-2-2---|
D|-5-5-------2--2-2--2-2-2-2-2-2-2-----7-7--------5-5-------2-2-2-2-2-2-2-2-2---|
A|-5-5-------x--x-x--x-x-x-x-x-x-x-----7-7--------5-5-------x-x-x-x-x-x-x-x-x---|
E|-3-3-------1--1-1--1-1-1-1-1-1-1-----5-5--------3-3-------1-1-1-1-1-1-1-1-1---|

e|-1------------------------------------------------------------------5-5--5----|
B|-2------------------------------------------------------------------5-5--5----|
G|-2------------------------------------------------------------------5-5--5----|
D|-2------------------------------------------------------------------7-7--7----|
A|-x------------------------------------------------------------------7-7--7----|
E|-1------------------------------------------------------------------5-5--5----|

e|---3-3--3----1-1-1-1-1-1-1-1---3------------------------------5-5-5---3-3-3---|
B|---3-3--3----1-1-1-1-1-1-1-1---3------------------------------5-5-5---3-3-3---|
G|---4-4--4----2-2-2-2-2-2-2-2---4------------------------------5-5-5---3-3-3---|
D|---5-5--5----3-3-3-3-3-3-3-3---5------------------------------7-7-7---5-5-5---|
A|---5-5--5----3-3-3-3-3-3-3-3---5------------------------------7-7-7---5-5-5---|
E|---3-3--3----1-1-1-1-1-1-1-1---3------------------------------5-5-5---3-3-3---|

e|----------0-------------------------------------------------------------------|
B|----------1-------------------------------------------------------------------|
G|----------2-------------------------------------------------------------------|
D|----------3-------------------------------------------------------------------|
A|------------------------------------------------------------------------------|
E|------------------------------------------------------------------------------|


************************************

| x Dead note
| h Hammer-on
| p Pull-off
| / Slide up
| ~ Vibrato

************************************


There's a lady who's sure
All that glitters is gold
And she's buying a stairway to heaven.
When she gets there she knows
If the stores are all closed
With a word she can get what she came for.
Ooh, ooh, and she's buying a stairway to heaven.

There's a sign on the wall
But she wants to be sure
'Cause you know sometimes words have two meanings.
In a tree by the brook
There's a songbird who sings,
Sometimes all of our thoughts are misgiven.
Ooh, it makes me wonder,
Ooh, it makes me wonder.

There's a feeling I get
When I look to the west,
And my spirit is crying for leaving.
In my thoughts I have seen
Rings of smoke through the trees,
And the voices of those who standing looking.
Ooh, it makes me wonder,
Ooh, it really makes me wonder.

And it's whispered that soon
If we all call the tune
Then the piper will lead us to reason.
And a new day will dawn
For those who stand long
And the forests will echo with laughter.

If there's a bustle in your hedgerow
Don't be alarmed now,
It's just a spring clean for the May queen.
Yes, there are two paths you can go by
But in the long run
There's still time to change the road you're on.
And it makes me wonder.

Your head is humming and it won't go
In case you don't know,
The piper's calling you to join him,
Dear lady, can you hear the wind blow,
And did you know
Your stairway lies on the whispering wind.

And as we wind on down the road
Our shadows taller than our soul.
There walks a lady we all know
Who shines white light and wants to show
How ev'rything still turns to gold.
And if you listen very hard
The tune will come to you at last.
When all are one and one is all
To be a rock and not to roll.

And she's buy...ing...a...stair...way...to...hea...ven
Tunning: Standard (E A D G B e)
LED ZEPPELIN- STAIRWAY TO HEAVEN

This is the official version of Stairway To heaven.
I got it from a guitar one magazine and typed it out on here.

e|-------5-7-----7-|-8-----8-2-----2-|-0---------0-----|---------------|
B|-----5-----5-----|---5-------3-----|---1---1-----1---|-0-1-----------|
G|---5---------5---|-----5-------2---|-----2---------2-|-0-2-2---------|
D|-7---------------|-5---------------|-3---------------|---------------|
A|-----------------|-----------------|-----------------|-2-0-0--0-/8-7-|
E|-----------------|-----------------|-----------------|---------------|

e|---------7-----7-|-8-----8-2-----2-|-0---------0-----|---------------|
B|-------5---5-----|---5-------3-----|---1---1-----1---|-0-1-----------|
G|-----5-------5---|-----5-------2---|-----2---------2-|-0-2-2---------|
D|---7-------------|-5---------------|-3---------------|---------------|
A|-0---------------|-----------------|-----------------|-2-0-0---------|
E|-----------------|-----------------|-----------------|---------------|

e|------------0-2-----2-|-------0----------|---------3-----3-----3-2-3-|
B|----------------3-----|---1-----0-1------|-1-----1---0-------------3-|
G|----------0-------2---|-----2-------2----|---0---------0-----------2-|
D|--------2-------------|-3----------------|-----2---------------0---0-|
A|--0-2-3---------------|--------------0-2-|-3-------------------------|
E|----------------------|------------------|---------------------------|

e|---------2-----2-|-0-----0----------|---------------2-|-0-0-0--------|
B|-------1---3-----|---1-----0-1------|-------1-----3---|-1-1-1--------|
G|-----0-------2---|-----2-------2----|-----0-----2-----|-2-2-2--------|
D|---2-------------|-3----------------|---2-----0-------|-3-3-3--------|
A|-3---------------|--------------0-2-|-3---------------|--------------|
E|-----------------|------------------|-----------------|--------------|

e|-------5-7-----7-|-8-----8-2-----2-|-0---------0-----|---------------|
B|-----5-----5-----|---5-------3-----|---1---1-----1---|-0-1-1---------|
G|---5---------5---|-----5-------2---|-----2---------2-|-0-2-2---------|
D|-7---------------|-5---------------|-3---------------|---------------|
A|-----------------|-----------------|-----------------|-2-0-0---------|
E|-----------------|-----------------|-----------------|---------------|

e|-------5-7-----7-|-8-----8-2-----2-|-0---------0-----|---------------|
B|-----5-----5-----|---5-------3-----|---1---1-----1---|-0-1-1---------|
G|---5---------5---|-----5-------2---|-----2---------2-|-0-2-2---------|
D|-7---------------|-5-------4-------|-3---------------|---------------|
A|-----------------|-----------------|-----------------|-2-0-0---------|
E|-----------------|-----------------|-----------------|---------------|

e|-------------2-----2|-0-----0--------------|---------3-----3-|-3-2-2-|
B|-----------1---3----|---1-----1-0-1--------|-1-----1---0-----|-----3-|
G|---------0-------2--|-----2---------2------|---0---------0---|-----2-|
D|-------2------------|-3--------------------|-----2-----------|-0---0-|
A|-0-2-3--------------|-----------------0-2--|-3---------------|-------|
E|--------------------|----------------------|-----------------|-------|

e|-----------0-2-----2-|-0-----------------|---------2-----2-|-0-0-0---|
B|---------------3-----|---1--1--0 1-------|-1-----1---3-----|-1-1-1---|
G|---------0-------2---|-----2-------2-----|---0---------2---|-2-2-2---|
D|-------2-------------|-3-----------------|-----2-----------|-3-3-3---|
A|-0-2-3---------------|---------------0-2-|-3---------------|---------|
E|---------------------|-------------------|-----------------|---------|

e|-------5-7-----7|-8-----8-2-----2-|-0---------0-----|----------------|
B|-----5-----5----|---5-------3-----|---1---1-----1---|-0-1-1----------|
G|---5---------5--|-----5-------2---|-----2---------2-|-0-2-2----------|
D|-7--------------|-5---------------|-3---------------|----------------|
A|----------------|-----------------|-----------------|-2-0-0--0--/8-7-|
E|----------------|-----------------|-----------------|----------------|

e|--------5-7---7---|----8-------2------|----0-------0----|------------|
B|-----------5-5-5--|---5-5-----3-3-----|---1--1----1-1---|-0-1-1------|
G|------5-----5---5-|--5---5---2---2--2-|--2----2--2---2--|-0-2-2------|
D|----7-------------|-5-----5-4-----4---|-3-------3-----3-|------------|
A|--0---------------|-------------------|-----------------|-2-0-0------|
E|------------------|-------------------|-----------------|------------|


e|----3--3-3-3--3-----0--2----2------|-3--3-3-3--3-------7---5---3---5-|
B|-3--1--1-1-1--1-----3--3----3--0---|-1--1-1-1--1-------8---7---5---7-|
G|-0--0--0-0-0--0-----0--2----2--0---|-0--0-0-0--0-------9---7---5---7-|
D|-0--2--2-2-2--2-----0--0-0-----0---|-2--2-2-2--2-------------------0-|
A|-2--0---------------0--0-0-----0---|---------------------------------|
E|-----------------------------------|---------------------------------|

e|----3--3-3-3--3-----0--2---3---0-0-|-3--3-3-3--3-------7---5---3---5-|
B|-3--1--1-1-1--1-----3--3---0-2-0-0-|-1--1-1-1--1-------8---7---5---7-|
G|-0--0--0-0-0--0-----0--2-------0-0-|-0--0-0-0--0-------9---7---5---7-|
D|-0--2--2-2-2--2-----0--0-0---------|-2--2-2-2--2---------------------|
A|-2--0---------------0--0-----------|---------------------------------|
E|-----------------------------------|---------------------------------|


e|------------------|---------------------|---------------0--|--0------|
B|---------1------3-|-0-1---------1-------|-------1-------1--|--1------|
G|-------0------0---|-----2-----2---------|-----0-------0-2--|--2------|
D|-----2------0-----|---------2-----------|---2-------0---3--|--2------|
A|---3------2-------|-------0-------0--2--|-3-------2-----3--|--0------|
E|------------------|---------------------|---------------1--|---------|

e|------------------|---------------------|---------------0-----0------|
B|---------1------0-|-0-1---------1-------|-------1-------1-----1------|
G|-------0------0---|-----2-----2---------|-----0-------0-2-----2------|
D|-----2------0-----|---------2-----------|---2-------0---3-----2------|
A|-0-3------2-------|-------0-------0--2--|-3-------2-----3-----0------|
E|------------------|---------------------|---------------1------------|

e|------------------|
B|---------1------3-|
G|-------0------0---|
D|-----2------0-----|
A|-0-3------2-------|
E|------------------|


e|-3--3-3-3--3----0--2-2-2-2-2----3--3-3-3--3-----7---5---3---5--------|
B|-1--1-1-1--1----3--3-3-3-3-3----1--1-1-1--1-----8---7---5---7--------|
G|-0--0-0-0--0----0--2-2-2-2-2----0--0-0-0--0-----9---7---5---7--------|
D|-2--2-2-2--2----0--0------------2--2-2-2--2-----0---0---0---0--------|
A|-0--0-0-0--0--------------------0--0-0-0--0--------------------------|
E|---------------------------------------------------------------------|

e|-3--3-3-3--3----0--2-2-2-2-2----3--3-3-3--3-----7---5---3---5--------|
B|-1--1-1-1--1----3--3-3-3-3-3----1--1-1-1--1-----8---7---5---7--------|
G|-0--0-0-0--0----0--2-2-2-2-2----0--0-0-0--0-----9---7---5---7--------|
D|-2--2-2-2--2----0--0------------2--2-2-2--2-----0---0---0---0--------|
A|-0--0-0-0--0--------------------0--0-0-0--0--------------------------|
E|---------------------------------------------------------------------|


e|------------------|---------------------|---------------0--|--0------|
B|---------1------3-|-0-1---------1-------|-------1-------1--|--1------|
G|-------0------0---|-----2-----2---------|-----0-------0-2--|--2------|
D|-----2------0-----|---------2-----------|---2-------0---3--|--2------|
A|-0-3------2-------|-------0-------0--2--|-3-------2-----3--|--0------|
E|------------------|---------------------|---------------1--|---------|

e|------------------|----------------------|---------------0--|--0------|
B|---------1------3-|-0-1-----------1------|-------1-------1--|--1------|
G|-------0------0---|-----2-------2--------|-----0-------0-2--|--2------|
D|-----2------0-----|---------2------------|---2-------0---3--|--2------|
A|-0-3------2-------|-------0--------0--2--|-3-------2-----3--|--0------|
E|------------------|----------------------|---------------1--|---------|

e|------------------|
B|---------1------3-|
G|-------0------0---|
D|-----2------0-----|
A|-0-3------2-------|
E|------------------|


e|-3--3-3-3--3----0--2-2-2-2-2----3--3-3-3--3-----7---5---3---5--------|
B|-1--1-1-1--1----3--3-3-3-3-3----1--1-1-1--1-----8---7---5---7--------|
G|-0--0-0-0--0----0--2-2-2-2-2----0--0-0-0--0-----9---7---5---7--------|
D|-2--2-2-2--2----0--0------------2--2-2-2--2-----0---0---0---0--------|
A|-0--0-0-0--0--------------------0--0-0-0--0--------------------------|
E|---------------------------------------------------------------------|

e|-3--3-3-3--0----0---2--2----------3--3-3-3--3-----7---5---3---5------|
B|-1--1-1-1--1----3---3--3----------1--1-1-1--1-----8---7---5---7------|
G|-0--0-0-0--0----0---2--2----------0--0-0-0--0-----9---7---5---7------|
D|-2--2-2-2--2----0---0--0----------2--2-2-2--2-----0---0---0---0------|
A|-0--0-0-0--0----------------------0--0-0-0--0------------------------|
E|---------------------------------------------------------------------|


e|------------------|----------------------|---------------0--|--0------|
B|---------1------3-|-0-1-----------1------|-------1-------1--|--1------|
G|-------0------0---|-----2-------2--------|-----0-------0-2--|--2------|
D|-----2------0-----|---------2------------|---2-------0---3--|--2------|
A|-0-3------2-------|-------0--------0--2--|-3-------2-----3--|--0------|
E|------------------|----------------------|---------------1--|---------|

e|------------------|----------------------|---------------0--|--0------|
B|---------1------3-|-0-1-----------1------|-------1-------1--|--1------|
G|-------0------0---|-----2-------2--------|-----0-------0-2--|--2------|
D|-----2------0-----|---------2------------|---2-------0---3--|--2------|
A|-0-3------2-------|-------0--------0--2--|-3-------2-----3--|--0------|
E|------------------|----------------------|---------------1--|---------|

e|------------------|
B|---------1------3-|
G|-------0------0---|
D|-----2------0-----|
A|-0-3------2-------|
E|------------------|


e|-3--3-3-3--3----0--2-2-2-2-2-3-2--3--3-3-3--3-----7---5---3---5------|
B|-1--1-1-1--1----3--3-3-3-3-3-1-3--1--1-1-1--1-----8---7---5---7------|
G|-0--0-0-0--0----0--2-2-2-2-2-0-2--0--0-0-0--0-----9---7---5---7------|
D|-2--2-2-2--2----0--0---------2----2--2-2-2--2-----0---0---0---0------|
A|-0--0-0-0--0-----------------0----0--0-0-0--0------------------------|
E|---------------------------------------------------------------------|

e|-3--3-3-3--3----0--2-2-2-2-2----3--3-3-3--3-----7---5---3---5--------|
B|-1--1-1-1--1----3--3-3-3-3-3----1--1-1-1--1-----8---7---5---7--------|
G|-0--0-0-0--0----0--2-2-2-2-2----0--0-0-0--0-----9---7---5---7--------|
D|-2--2-2-2--2----0--0------------2--2-2-2--2-----0---0---0---0--------|
A|-0--0-0-0--0--------------------0--0-0-0--0--------------------------|
E|---------------------------------------------------------------------|


e|------------------|----------------------|---------------0--|--0------|
B|---------1------3-|-0-1-----------1------|-------1-------1--|--1------|
G|-------0------0---|-----2-------2--------|-----0-------0-2--|--2------|
D|-----2------0-----|---------2------------|---2-------0---3--|--2------|
A|-0-3------2-------|-------0--------0--2--|-3-------2-----3--|--0------|
E|------------------|----------------------|---------------1--|---------|

e|------------------|----------------------|---------------0--|--0------|
B|---------1------3-|-0-1-----------1------|-------1-------1--|--1------|
G|-------0------0---|-----2-------2--------|-----0-------0-2--|--2------|
D|-----2------0-----|---------2------------|---2-------0---3--|--2------|
A|-0-3------2-------|-------0--------0--2--|-3-------2-----3--|--0------|
E|------------------|----------------------|---------------1--|---------|

e|--------------------2-|
B|---------1------3---3-|
G|-------0------0-----2-|
D|-----2------0-------0-|
A|-0-3------2-----------|
E|----------------------|


e|--0-2-3---0-2-3---0-2-3---3--2---0----2-2-2--0--2-2-2--2-2-2---2----|
B|--3-3-3---3-3-3---3-3-3---3--3---3----3-3-3--3--3-3-3--3-3-3---3----|
G|--0-2-2---0-2-2---0-2-2---2--2---0----0-0-0--0--0-0-0--0-0-0---0----|
D|--0-0-0---0-0-0---0-0-0---0--0---0----------------------------------|
A|---------------------------------3--3-------------------------------|
E|--------------------------------------------------------------------|

e|--0-2-3---0-2-3---0-2-3---3--2---0----2-2-2--0----------2-----------|
B|--3-3-3---3-3-3---3-3-3---3--3---3----3-3-3----3------3---3---------|
G|--0-2-2---0-2-2---0-2-2---2--2---0----0-0-0------0------------------|
D|--0-0-0---0-0-0---0-0-0---0--0---0----------------------------------|
A|---------------------------------3--3---------------2--------2-0----|
E|-----------------------------------------------------------------3--|


[Solo]
e|-----5-------------------------8-8-10------8---------------|
B|--------8-5------------------8--------10-8---10-8---8-10-10|
G|------------7-5---7-5----------------------------10--------|
D|----------------7-----7-5----------------------------------|
A|--------------------------8--------------------------------|
E|-----------------------------------------------------------|

e|------5----------------------------------------------------|
B|--------8-5------------------------------------------------|
G|---7b-------7-5---7-5-----------5--------------------------|
D|----------------7-----7-5---5-7---7-5-5--------------------|
A|--------------------------7--------------------------------|
E|-----------------------------------------------------------|

e|-----5-----------------------------------------------------|
B|-------8-5-------------------------6---------8-------------|
G|-0---------7-5---7-5-------------5---7-5-7/9---12-14-------|
D|---------------7-----7-5-7-5---7---------------------------|
A|-----------------------------8-----------------------------|
E|-----------------------------------------------------------|

e|-----------------------15b--15-13--------------------------|
B|-13--15b--13-15-13-13--------------15b-15--13--------------|
G|-----------------------------------------------14----------|
D|-----------------------------------------------------------|
A|-----------------------------------------------------------|
E|-----------------------------------------------------------|


e|-----------------------------------------------------------|
B|13-15b15-13----13-15b15-13----13-15b15-13----13-15b15-13---|
G|-----------14-------------14-------------14-------------14-|
D|-----------------------------------------------------------|
A|-----------------------------------------------------------|
E|-----------------------------------------------------------|

e|-----------------------------------------------------------|
B|13-15b15-13----13-15b15-13----13-15b15-13----13-15b15-13---|
G|-----------14-------------14-------------14-------------14-|
D|-----------------------------------------------------------|
A|-----------------------------------------------------------|
E|-----------------------------------------------------------|

e|-15-15-15-12-15-12----------------------------15b----------|
B|-------------------15-13----13-15-13----13-15--------------|
G|-------------------------14----------14--------------------|
D|-----------------------------------------------------------|
A|-----------------------------------------------------------|
E|-----------------------------------------------------------|


|---13-12---13-10---|

e|---------------------------17-----------------------------|
B|-15--13-----------------20----20--------------------------|
G|---------14--14--14--19----------19-17-19b----------------|
D|----------------------------------------------------------|
A|----------------------------------------------------------|
E|----------------------------------------------------------|

|---13-12---13-10---|

e|----------------------------------------------------------|
B|---14b----14b----14--12--14--12--14-----------------------|
G|----------------------------------------------------------|
D|----------------------------------------------------------|
A|----------------------------------------------------------|
E|----------------------------------------------------------|

|---13-12---13-10---|

e|----------------------------------------------------------|
B|-6b---6--5-------------5----------------------------------|
G|-----------7--5--7-5-7---7--5-----------------------------|
D|----------------------------------------------------------|
A|----------------------------------------------------------|
E|----------------------------------------------------------|

|---13-12---13-10---|

e|----20-17-----20-17----20-17----20-17----20-17-----20b-----|
B|-17--------17--------17-------17-------17--------17--------|
G|-----------------------------------------------------------|
D|-----------------------------------------------------------|
A|-----------------------------------------------------------|
E|-----------------------------------------------------------|


e|-5-5--x-x-x-x--3-3--x-x-x-x--1-x-x-1-x-x-1-x-x-1-x-x-1--3--|
B|-5-5-----------3-3-----------1-----1-----1-----1-----1--3--|
G|-5-5-----------3-3-----------2-----2-----2-----2-----2--3--|
D|-7-7-----------5-5-----------3-----3-----3-----3-----3--5--|
A|-7-7-----------5-5-----------3-----3-----3-----3-----3--5--|
E|-5-5-----------3-3-----------1-----1-----1-----1-----1--3--|

e|-5-5-x-x-x--3-3-x-x-x--1-x-x-1-x-x-1-x-x-1-x-x-1--------3--|
B|-5-5--------3-3--------1-----1-----1-----1-----1--------3--|
G|-5-5--------3-3--------2-----2-----2-----2-----2--------3--|
D|-7-7--------5-5--------3-----3-----3-----3-----3--------5--|
A|-7-7--------5-5--------3-----3-----3-----3-----3--------5--|
E|-5-5--------3-3--------1-----1-----1-----1-----1--------3--|

e|-5-5--x-x-x-x--3-3--x-x-x-x--1-----1-----1-----1-----1--3--|
B|-5-5-----------3-3-----------1-----1-----1-----1-----1--3--|
G|-5-5-----------3-3-----------2-----2-----2-----2-----2--3--|
D|-7-7-----------5-5-----------3-----3-----3-----3-----3--5--|
A|-7-7-----------5-5-----------3-----3-----3-----3-----3--5--|
E|-5-5-----------3-3-----------1-----1-----1-----1-----1--3--|

e|-5-5--x-x-x-x--3-3--x-x-x-x--------------------------------|
B|-5-5-----------3-3-----------------------------------------|
G|-5-5-----------3-3-----------------------------------------|
D|-7-7-----------5-5-----------------------------------------|
A|-7-7-----------5-5-----------------3-/7--5--3--------------|
E|-5-5-----------3-3----------1-/5---------------------------|


e|-5-5--x-x-x-x--3-3--x-x-x-x--------------------------------|
B|-5-5-----------3-3-----------------------------------------|
G|-5-5-----------3-3-----------------------------------------|
D|-7-7-----------5-5-----------------------------------------|
A|-7-7-----------5-5-----------------3-/7--5--3--------------|
E|-5-5-----------3-3----------1-/5---------------------------|


e|-5-5--x-x-x-x--3-3--x-x-x-x--------------------------------|
B|-5-5-----------3-3-----------------------------------------|
G|-5-5-----------3-3-----------------------------------------|
D|-7-7-----------5-5-----------------------------------------|
A|-7-7-----------5-5-----------------3-/7--5--3--------------|
E|-5-5-----------3-3----------1-/5---------------------------|

e|-5-5--x-x-x-x--3-3--x-x-x-x--------------------------------|
B|-5-5-----------3-3-----------------------------------------|
G|-5-5-----------3-3-----------------------------------------|
D|-7-7-----------5-5-----------------------------------------|
A|-7-7-----------5-5-----------------3-/7--5--3--------------|
E|-5-5-----------3-3----------1-/5---------------------------|

e|-5--5----3--3----1-------------3--3-------5--5--------3----|
B|-5--5----3--3----1-------------3--3-------5--5--------3----|
G|-5--5----3--3----2-------------3--3-------5--5--------3----|
D|-7--7----5--5----3-------------5--5-------7--7--------5----|
A|-7--7----5--5----3-------------5--5-------7--7--------5----|
E|-5--5----3--3----1-------------3--3-------5--5--------3----|

e|-----------------------------------------------------------|
B|--10b-10b------5--8--5--8/10-10--|-3---5---5---8----10-----|
G|--12b-12b---7--------------------|-5---7---7---10---12-----|
D|---------------------------------|-------------------------|
A|---------------------------------|bend-all-----------------|
E|-----------------------------------------------------------|

e|-----------------------------------------------------------|
B|---13--12--13--12--13--12--13--15--13--12--15--13----------|
G|---15--14--15--14--15--14--15--17--15--14--17--15----------|
D|-----------------------------------------------------------|
A|-----------------------------------------------------------|
E|--------------------------------------------------------end|



************************************

| / Slide up
| b Bend
| x Dead note

************************************
Tunning: Nashville (E A D G B E)
----------------------------------------------------------------------------
Stairway To Heaven - Led Zeppelin
----------------------------------------------------------------------------
Tabbed by:sTeWdOg

Tuning: Standard

Hey this is my first tab, so dont be toooo harsh lol. Enjoy!










Am E5+/G# C/G D/F#
E||-----------5--7--------7--|--8--------8--2--------2--|
B||--------5--------5--------|-----5-----------3--------|
G||-----5--------------5-----|--------5-----------2-----|
D||--7-----------6-----------|--5-----------4-----------|
A||--------------------------|--------------------------|
E||--------------------------|--------------------------|


FM7 G/BAm E+5/G#
--0-------------0--------|------------------------|--------------7--------7--|
-----1-----1-------1-----|--0--1--1---------------|-----------5-----5--------|
--------2-------------2--|--0--2--2---------------|--------5-----------5-----|
--3----------------------|------------------------|-----7--------6-----------|
-------------------------|--2--0--0------0/-8p-7--|--0-----------------------|
-------------------------|------------------------|--------------------------|


C/G D/F# FM7 G/BAm
--8--------8--2--------2--|--0-------------0--------|-----------------------|
-----5-----------3--------|-----1-----1-------1-----|--0--1--1--------------|
--------5-----------2-----|--------2-------------2--|--0--2--2--------------|
--5-----------4-----------|--3----------------------|-----------------------|
--------------------------|-------------------------|--2--0--0--------0--2--|
--------------------------|-------------------------|-----------------------|


C D FM7 Am
-----------0--2--------2--|--0--------0--------------|
-----------------3--------|-----1--------1-----------|
--------0-----------2-----|--------2--------2--------|
-----2--------0-----------|--3-----------------------|
--3-----------------------|--------------0-----0--2--|
--------------------------|--------------------------|


C G D C D
--------------3--------3--|--3p2-2--2--------------|--------------2--------2--|
--1--------1-----0--------|--3---3--3--------------|-----------1-----3--------|
-----0--------------0-----|--2---2--2--------------|--------0-----------2-----|
--------2-----------------|--0---0--0--------------|-----2--------0-----------|
--3-----------------------|------------------0--2--|--3-----------------------|
--------------3-----------|------------------------|--------------------------|


FM7 Am C D FM7
--0--------0--------------|-----------0-----------2--|--0--0--0------------|
-----1--------1-----------|--------------------3-----|--1--1--1------------|
--------2--------2--------|--------0--------2--------|--2--2--2------------|
--3-----------------------|-----2--------0-----------|--3--3--3------------|
--------------0-----0--2--|--3-----------------------|---------------------|
--------------------------|--------------------------|---------------------|


Am E5+/G# C/G D/F# FM7
-----------5--7--------7--|--8--------8--2--------2--|--0-------------0--------|
--------5--------5--------|-----5-----------3--------|-----1-----1-------1-----|
-----5--------------5-----|--------5-----------2-----|--------2-------------2--|
--7-----------6-----------|--5-----------4-----------|--3----------------------|
--------------------------|--------------------------|-------------------------|
--------------------------|--------------------------|-------------------------|


G/BAm E5+/G# C/G D/F#
---------------------|-----------5--7--------7--|--8--------8--2--------2--|
--0--1--1------------|--------5--------5--------|-----5-----------3--------|
--0--2--2------------|-----5--------------5-----|--------5-----------2-----|
---------------------|--7-----------6-----------|--5-----------4-----------|
--2--0--0------------|--------------------------|--------------------------|
---------------------|--------------------------|--------------------------|


FM7 G/BAm C D
--0-------------0--------|-----------------------|--------------2--------2--|
-----1-----1-------1-----|--0--1--1--------------|-----------1-----3--------|
--------2-------------2--|--0--2--2--------------|--------0-----------2-----|
--3----------------------|-----------------------|-----2--------0-----------|
-------------------------|--2--0--0--------0--2--|--3-----------------------|
-------------------------|-----------------------|--------------------------|


FM7 Am C G D
--0--------0--------------|--------------3--------3--|--3p2-2--2--------------|
-----1--------1-----------|--1--------1-----0--------|--3---3--3--------------|
--------2--------2--------|-----0--------------0-----|--2---2--2--------------|
--3-----------------------|--------2-----------------|--0---0--0--------------|
--------------0-----0--2--|--3-----------------------|------------------0--2--|
--------------------------|--------------3-----------|------------------------|


C D FM7 Am
--------------2--------2--|--0--------0--------------|
-----------1-----3--------|-----1--------1-----------|
--------0-----------2-----|--------2--------2-----0--|
-----2--------0-----------|--3-----------------------|
--3-----------------------|--------------0-----0--2--|
--------------------------|--------------------------|


C D FM7 Am E5+/G#
--------------2--------2--|--0--0--0------------|-----------5--7--------7--|
--1--------1-----3--------|--1--1--1------------|--------5--------5--------|
-----0--------------2-----|--2--2--2------------|-----5--------------5-----|
--------2-----0-----------|--3--3--3------------|--7-----------6-----------|
--3-----------------------|---------------------|--------------------------|
--------------------------|---------------------|--------------------------|


C/G D/F# FM7 G/BAm
--8--------8--2--------2--|--0-------------0--------|------------------------|
-----5-----------3--------|-----1-----1-------1-----|--0--1--1---------------|
--------5-----------2-----|--------2-------------2--|--0--2--2---------------|
--5-----------4-----------|--3----------------------|------------------------|
--------------------------|-------------------------|--2--0--0------0/-8--7--|
--------------------------|-------------------------|------------------------|


E+5/G# C/G D/F#
-----------5--7-------7-------|--------8--------------2--------|
----------------5---5---5-----|------5---5----------3---3------|
--------5---------5-------5---|----5-------5------2-------2----|
-----7--------6-------------x-|--5-----------5--4-----------4--|
--0---------------------------|--------------------------------|
------------------------------|--------------------------------|


FM7 G/BAm G/B
--------0-------------0--------|----------------------|
------1----1--------1---1------|--0--1--1--------3----|
----2--------2----2-------2----|--0--2--2--------0----|
--3-------------3-----------3--|-----------------0----|
-------------------------------|--2--0--0--------2----|
-------------------------------|----------------------|


Am7 A7su D/A Am7 Em/D
--3--3-3-3--3----0----3--|----2-------2--2-2-2-----|--3--3-3-3--3----0----7--|
--1--1-1-1--1----1----3--|----3-------3--3-3-3--0--|--1--1-1-1--1----1----8--|
--0--0-0-0--0----0----0--|----2-------2--2-2-2--0--|--0--0-0-0--0----0----9--|
--2--2---2--2----2----2--|----0----0------------0--|--2--2-2-2--2----2----0--|
--0-------------------0--|----0----0------------0--|--0----------------------|
-------------------------|-------------------------|-------------------------|


D C/D Am7 A7su D
----5--x--3----5-------|--3--3-3-3--3----0----3--|----2-----------2-2-2--0-0-|
----7--x--5----7-------|--1--1-1-1--1----1----3--|----3-------3---3-3-3--0-0-|
----7--x--5----7-------|--0--0-0-0--0----0----0--|----2-------0h2-2-2-2--0-0-|
--------------------2--|--2--2---2--2----2-------|----0----0-----------------|
--------------------0--|--0-------------------0--|---------------------------|
-----------------------|-------------------------|---------------------------|


Am7 Em/A D C/D D C G/B
--3--3-3-3--0-----0----7--|----5--x--3----5------|--------------------------|
--1--1-1-1--1--x--1----8--|----7--x--5----7------|-----------1-----------3--|
--0--0-0-0--0--x--0----9--|----7--x--5----7------|--------0-----------0-----|
--2--2-2-2--2--x--2-------|----------------------|-----2-----------0--------|
--0-----------------------|----------------------|--3-----------2-----------|
--------------------------|----------------------|--------------------------|


Am C G/B FM7 Am
---------------------------|-----------------------0--|----0----------------|
--0h1-------------1--------|-----------1-----------1--|----1----------------|
------2--------2-----------|--------0-----------0--2--|----2----------------|
------------2--------------|-----2-----------0-----3--|----2----------------|
---------0-----------0--2--|--3-----------2--------3--|----0----------0--2--|
---------------------------|-----------------------1--|---------------------|


C G/B Am
--------------------------|---------------------------|
-----------1-----------3--|--0h1-------------1--------|
--------0-----------0-----|------2--------2-----------|
-----2-----------0--------|------------2--------------|
--3-----------2-----------|--0------0-----------0--2--|
--------------------------|---------------------------|


C G/B FM7 Am C G/B
-----------------------0--|----0----------------|--------------------------|
-----------1-----------1--|----1----------------|-----------1-----------3--|
--------0-----------0--2--|----2----------------|--------0-----------0-----|
-----2-----------0-----3--|----2----------------|-----2-----------0--------|
--3-----------2--------3--|----0----------0--2--|--3-----------2-----------|
-----------------------1--|---------------------|--------------------------|


Am7 A7su D
--3--3-3-3--3--x-x-0--x--3--|--x--2-------2-2-2-2-2------|
--1--1-1-1--1--x-x-1--x--3--|--x--3-------3-3-3-3-3--0-0-|
--0--0-0-0--0--x-x-0--------|-----2-------2-2-2-2-2--0-0-|
--2--2-2-2--2--x-x-2--x--5--|--x--0----------------------|
--0-------------------------|----------0-----------------|
----------------------------|----------------------------|


Am7 Em/D D C/D D
--3--3-3-3--3--x--0--x-x-7--|--x-x-5--x-x-3--x-x-5--5-5----|
--1--1-1-1--1--x--1--x-x-8--|--x-x-7--x-x-5--x-x-7--7-7----|
--0--0-0-0--0--x--0--x-x-9--|--x-x-7--x-x-5--x-x-7--7-7----|
--2--2-2-2--2--x--2--x-x----|--------------------0---------|
--0-------------------------|---------------------------0--|
----------------------------|------------------------------|


Am7 A7su D Em
--3--3-3-3--3--x-x-0--x-x-3--|--x--2-------2--2-2-2------|
--1--1-1-1-----x-x-1--x-x-3--|--x--3-------3--3-3-3--0-0-|
--0--0-0-0--0--x-x-0--x-x----|-----2-------2--2-2-2--0-0-|
--2--2-2-2--2--x-x-2--x-x-5--|--x--0----0------------2---|
-----------------------------|---------------------------|
-----------------------------|---------------------------|


Am7 Em/D D C D
--3--3-3-3--3--x-0-0--x-x-7--|--x--5--x--3--x--5------|
--1--1-1-1--1--x-1-1--x-x-8--|--x--7--x--5--x--7------|
--0--0-0-0--0--x-0-0--x-x-9--|--x--7--x--5--x--7------|
--2--2---2--2--x-2-2--x-x-0--|-----------------0------|
--0--------------------------|------------------------|
-----------------------------|------------------------|


C G/B Am
--------------------------|---------------------------|
-----------1-----------3--|--0h1-------------1--------|
--------0-----------0-----|------2--------2-----------|
-----2-----------0--------|------------2--------------|
--3-----------2-----------|---------0-----------0--2--|
--------------------------|---------------------------|


C G/B FM7 Am C G/B
-----------------------0--|----0----------------|--------------------------|
-----------1-----------1--|----1----------------|-----------1-----------3--|
--------0-----------0--2--|----2----------------|--------0-----------0-----|
-----2-----------0-----3--|----2----------------|-----2-----------0--------|
--3-----------2--------3--|----0----------0--2--|--3-----------2-----------|
-----------------------1--|---------------------|--------------------------|


Am C G/B FM7 Am
---------------------------|-----------------------0--|----0----------------|
--0h1-------------1--------|-----------1-----------1--|----1----------------|
------2--------2-----------|--------0-----------0--2--|----2----------------|
------------2--------------|-----2-----------0-----3--|----2----------------|
--0------0-----------0--2--|--3-----------2--------3--|----0----------0--2--|
---------------------------|-----------------------1--|---------------------|


C G/B Am7 A7su
--------------------------|--3--3-3-3--3--x-x-0--x--3--|
-----------1-----------3--|--1--1-1-1--1--x-x-1--x--3--|
--------0-----------0-----|--0--0-0-0--0--x-x-0--------|
-----2-----------0--------|--2--2-2-2--2--x-x-2--x--5--|
--3-----------2-----------|--0-------------------------|
--------------------------|----------------------------|


D Am7 Em
--x--2-------2-2-2-2-2------|--3--3-3-3--3--x--0--x-x-7--|
--x--3-------3-3-3-3-3--0-0-|--1--1-1-1--1--x--1--x-x-8--|
-----2-------2-2-2-2-2--0-0-|--0--0-0-0--0--x--0--x-x-9--|
--x--0----------------------|--2--2-2-2--2--x--2--x-x----|
----------0-----------------|--0-------------------------|
----------------------------|----------------------------|


D C D Am7 A7su
--x-x-5--x-x-3--x-x-5--5-5----|--3--3-3-3--3--x-x-0--x-x-3--|
--x-x-7--x-x-5--x-x-7--7-7----|--1--1-1-1-----x-x-1--x-x-3--|
--x-x-7--x-x-5--x-x-7--7-7----|--0--0-0-0--0--x-x-0--x-x----|
--------------------0---------|--2--2-2-2--2--x-x-2--x-x-5--|
---------------------------0--|-----------------------------|
------------------------------|-----------------------------|


D Em Am7 Em
--x--2-------2--2-2-2------|--3--3-3-3--3--x-0-0--x-x-7--|
--x--3-------3--3-3-3--0-0-|--1--1-1-1--1--x-1-1--x-x-8--|
-----2-------2--2-2-2--0-0-|--0--0-0-0--0--x-0-0--x-x-9--|
--x--0----0------------2---|--2--2---2--2--x-2-2--x-x-0--|
---------------------------|--0--------------------------|
---------------------------|-----------------------------|


D C D C G/B Am
--x--5--x--3--x--5------|--------------------------|---------------------------|
--x--7--x--5--x--7------|-----------1-----------3--|--0h1-------------1--------|
--x--7--x--5--x--7------|--------0-----------0-----|------2--------2-----------|
-----------------0------|-----2-----------0--------|------------2--------------|
------------------------|--3-----------2-----------|---------0-----------0--2--|
------------------------|--------------------------|---------------------------|


C G/B FM7 Am C G/B
-----------------------0--|----0----------------|--------------------------|
-----------1-----------1--|----1----------------|-----------1-----------3--|
--------0-----------0--2--|----2----------------|--------0-----------0-----|
-----2-----------0-----3--|----2----------------|-----2-----------0--------|
--3-----------2--------3--|----0----------0--2--|--3-----------2-----------|
-----------------------1--|---------------------|--------------------------|


Am C G/B FM7 Am
---------------------------|-----------------------0--|----0----------------|
--0h1-------------1--------|-----------1-----------1--|----1----------------|
------2--------2-----------|--------0-----------0--2--|----2----------------|
------------2--------------|-----2-----------0-----3--|----2----------------|
--0------0-----------0--2--|--3-----------2--------3--|----0----------0--2--|
---------------------------|-----------------------1--|---------------------|


C G/B Am7 A7su
--------------------------|--3--3-3-3--3--x-x-0--x--3--|
-----------1-----------1--|--1--1-1-1--1--x-x-1--x--3--|
--------0-----------0-----|--0--0-0-0--0--x-x-0--------|
-----2-----------0--------|--2--2-2-2--2--x-x-2--x--5--|
--3-----------2-----------|--0-------------------------|
--------------------------|----------------------------|


D Am7 Em
--x--2-------2-2-2-2-2------|--3--3-3-3--3--x--0--x-x-7--|
--x--3-------3-3-3-3-3--0-0-|--1--1-1-1--1--x--1--x-x-8--|
-----2-------2-2-2-2-2--0-0-|--0--0-0-0--0--x--0--x-x-9--|
--x--0----------------------|--2--2-2-2--2--x--2--x-x----|
----------0-----------------|--0-------------------------|
----------------------------|----------------------------|


D C D Am7 A7su
--x-x-5--x-x-3--x-x-5--5-5----|--3--3-3-3--3--x-x-0--x-x-3--|
--x-x-7--x-x-5--x-x-7--7-7----|--1--1-1-1-----x-x-1--x-x-3--|
--x-x-7--x-x-5--x-x-7--7-7----|--0--0-0-0--0--x-x-0--x-x----|
--------------------0---------|--2--2-2-2--2--x-x-2--x-x-5--|
---------------------------0--|-----------------------------|
------------------------------|-----------------------------|


D Em Am7 Em
--x--2-------2--2-2-2------|--3--3-3-3--3--x-0-0--x-x-7--|
--x--3-------3--3-3-3--0-0-|--1--1-1-1--1--x-1-1--x-x-8--|
-----2-------2--2-2-2--0-0-|--0--0-0-0--0--x-0-0--x-x-9--|
--x--0----0------------2---|--2--2---2--2--x-2-2--x-x-0--|
---------------------------|--0--------------------------|
---------------------------|-----------------------------|


D C D C G/B Am
--x--5--x--3--x--5------|--------------------------|---------------------------|
--x--7--x--5--x--7------|-----------1-----------3--|--0h1-------------1--------|
--x--7--x--5--x--7------|--------0-----------0-----|------2--------2-----------|
-----------------0------|-----2-----------0--------|------------2--------------|
------------------------|--3-----------2-----------|---------0-----------0--2--|
------------------------|--------------------------|---------------------------|


C G/B FM7 Am C G/B
-----------------------0--|----0----------------|--------------------------|
-----------1-----------1--|----1----------------|-----------1-----------3--|
--------0-----------0--2--|----2----------------|--------0-----------0-----|
-----2-----------0-----3--|----2----------------|-----2-----------0--------|
--3-----------2--------3--|----0----------0--2--|--3-----------2-----------|
-----------------------1--|---------------------|--------------------------|


Am C G/B FM7 Am
---------------------------|-----------------------0--|----0----------------|
--0h1-------------1--------|-----------1-----------1--|----1----------------|
------2--------2-----------|--------0-----------0--2--|----2----------------|
------------2--------------|-----2-----------0-----3--|----2----------------|
--0------0-----------0--2--|--3-----------2--------3--|----0----------0--2--|
---------------------------|-----------------------1--|---------------------|


C G/B D Dsus4 D Dsus4 D
--------------------------|--2--------------0-2-|--3------0-2-3------0-2-|
-----------1-----------3--|--3--------------3-3-|--3------3-3-3------3-3-|
--------0-----------0-----|--2--------------2-2-|--2------2-2-2------2-2-|
-----2-----------0--------|--0--------------0-0-|--0------0-0-0------0-0-|
--3-----------2-----------|---------------------|------------------------|
--------------------------|---------------------|------------------------|


Dsus4 D Cadd9 D
--3----3----2----|-----------------------|---------------------------0-2-|
--3----3----3----|--3------3---3-3--3----|--3----3--3---3-3--3----3--3-3-|
--2----2----2----|--0------0---0-0--0----|--0----0--0---0-0--0----0--2-2-|
--0----0----0----|--2------2---2-2--2----|--2----2--2---2-2--2----2--0-0-|
-----------------|--3------3---3-3--3----|--3----3------3-3--3----3------|
-----------------|-----------------------|-------------------------------|


Dsus4 D Dsus4 D Dsus4 Cadd Cadd9#11 Cadd9
--3------0-2-3------0-2-|--3----3----2-------|------2---2-2--0--------|
--3------3-3-3------3-3-|--3----3----3----3--|------3---3-3-----3-----|
--2------2-2-2------2-2-|--2----2----2----2--|------0---0-0--------0--|
--0------0-0-0------0-0-|--0----0----0----0--|------------------------|
------------------------|-----------------3--|------3---3-3-----------|
------------------------|--------------------|------------------------|


G/B GM7/B
------------2----2----
--3----3----3----3----
--0----0----0----0---- There you go.
--0----0----0----0----
--2----2----2----2----
----------------------
Song info
Stairway To Heaven
Led Zeppelin
2001
  • Rock
  • Hard Rock
Alternative tracks
Similar songs
Dirt - Alice in Chains
Animal - Def Leppard
Heaven Is - Def Leppard
Decadence Dance - Extreme
In Trance - Scorpions

Hi! Hope you enjoy backing track experience.
If you want to help us in the development of the project, feel free to donate!