Whole Lotta Love - Led Zeppelin
00:00 / 00:00
Tabs and lyrics
Tunning: Nashville (E A D G B E)
[Intro/Verses]

E|------------------------------|----------------------------------|
B|------------------------------|----------------------------------|
G|------------------------------|----------------------------------|
D|---0----0--2-------2-------2--|-------2-------2-------2-------2--|
A|-2----2-----------------------|----------------------------------|
E|-------------0-0-0---0-0-0----|-0-0-0---0-0-0---0-0-0---0-0-0----|


[Chorus]

E|-------------------|
B|-------------------|
G|-------------------|
D|-0-0-0-0-0----9\---| x4
A|-----------7-------|
E|-------------------|


[Main Riff]

E|---------------------------------------------------------------------------|
B|---------------------------------------------------------------------------|
G|-----------------9--------9--------9---------------------------------------|
D|-----------------9--------9--------9---------------------------------------|
A|--------5----5---7--------7--------7---------------------------------------|
E|--(5)/7----7-------0-0-0----0-0-0------------------------------------------|


[Solo]

E|-------------12--------------------------------------|
B|----10/12-------15--12-------------------------------|
G|------------------------15p14p12--14p12--14/(16)-----|
D|-----------------------------------------------------|
A|-----------------------------------------------------|
E|-----------------------------------------------------|

E|-------------------------------------------------|
B|-------------------------------------------------|
G|-2/4---4p2--0--2p0-0--2p0------------------------|
D|---------------------------2p0--2p0--------------|
A|-------------------------------------2-----------|
E|---------------------------------------------0---|

E|----------12-10/(12)--12--15--10/(12)-|-12 15/(19)/15--12----15p12-|
B|-10/(12)--12--------------------------|-------------------14-------|
G|--------------------------------------|----------------------------|
D|--------------------------------------|----------------------------|
A|--------------------------------------|----------------------------|
E|--------------------------------------|----------------------------|

E|----19/(21)-19---18-17--15-----15-----|---------------------------17-19----|
B|-17------------------------17-----17--|---17-19-19/(21)--19/(21)--------17-|
G|--------------------------------------|------------------------------------|
D|--------------------------------------|------------------------------------|
A|--------------------------------------|------------------------------------|
E|--------------------------------------|------------------------------------|

E|--------------|---------------|
B|--------------|---------------|
G|--------------|---------------|
D|----0---0-----|---------------|
A|----5~--5~-7--|-7-7-7---7-7-7-|
E|--7---7----0--| 0-0-0---0-0-0-|

********************************
| h - Hammer on
| p - Pull off
| / - slide up
| \ - slide down
|(n)- Ghost note
| ~ - Vibrato
********************************
Tunning: Nashville (E A D G B E)
[Intro] (x2)
E|----------------------------------------------|
B|----------------------------------------------|
G|----------9-----9-----9-----9-----9-----9\----|
D|---0---0--9-----9-----9-----9-----9-----9\----|
A|---5---5--7-----7-----7-----7-----7-----7\----|
E|-7---7------0-0---0-0---0-0---0-0---0-0-------|

when he start's singing play this.
E|----------------------------------------------|
B|----------------------------------------------|
G|---------9-----9---9---------9-----9---9------|
D|---0---0-9-----9---9---0---0-9-----9---9------|
A|---5---5-7-----7---7---5---5-7-----7---7------|
E|-7---7-----0-0---0---7---7-----0-0---0--------|

[Solo]
E|--------12-----------------------------------------------|
B|-----12----15-12----------------------------3------------|
G|-b14-------------15p14p12-14-12-b14-----2/4---4\2-0-2p0--|
D|---------------------------------------------------------|
A|---------------------------------------------------------|
E|---------------------------------------------------------|

E|----------------------------12---------15----------------|
B|-------------------------12----b15-b15----b15-----17--b20|
G|-0-2p0--------------b14----------------------------------|
D|-------2p0-2p0-------------------------------------------|
A|---------------2-----------------------------------------|
E|-----------------0---------------------------------------|

E|--------------------b19-19-18-17-------------------------|
B|-------20p17-----17--------------20p17-20-17------17-19--|
G|-21p18---------------------------------------------------|
D|---------------------------------------------------------|
A|---------------------------------------------------------|
E|---------------------------------------------------------|

E|-------------19----------------|
B|-b19-b19-b19----17-------------|
G|-------------------------------|
D|-------------------------------|
A|-------------------------------|
E|-------------------------------|


************************************

| \ Slide down
| p Pull-off
| b Bend
| / Slide up

************************************
Tunning: Nashville (E A D G B E)
Led Zeppelin - Whole Lotta Love
Transcribed by Victor Ochoa
Standard Tuning


E|--------|----------------|----------------|----------------|----------------|
B|--------|----------------|----------------|----------------|----------------|
G|--------|----------------|----------------|----------------|----------------|
D|--------|9---9---9---9---|9---9---99------|9---9---9---9---|9---9---99------|
A|---5--5-|7---7---7---7---|7---7---77-5--5-|7---7---7---7---|7---7---77-5--5-|
E|--7--7--|0000000000000000|00000000007--7--|0000000000000000|00000000007--7--|
You need
E| |----------------|----------------|----------------|
B| |----------------|----------------|----------------|
G|o|----------------|----------------|----------------|
D|o|9---9---99------|9---9---99------|9---9---99------|
A| |7---7---77-5--5-|7---7---77-5--5-|7---7---77-5--5-|
E| |00000000007--7--|00000000007--7--|00000000007--7--|
coolin' baby I'm not foolin'
learnin' baby I mean learnin'

E|----------------|----------------|----------------|
B|----------------|----------------|----------------|
G|----------------|----------------|----------------|
D|9---9---99------|9---9---99------|9---9---99------|
A|7---7---77-5--5-|7---7---77-5--5-|7---7---77-5--5-|
E|00000000007--7--|00000000007--7--|00000000007--7--|
schoolin'
been yearnin'

E|----------------|----------------|----------------|
B|----------------|----------------|---------777-7-7|
G|----------------|----------------|---------777-7-7|
D|9---9---99------|9---9---99------|9---9---9777-7-7|
A|7---7---77-5--5-|7---7---77-5--5-|7---7---7555-5-5|
E|00000000007--7--|00000000007--7--|000000000-------|
I'm gonna give you my love Oh Wanna whole lotta love

E|----------------|----------------|----------------|
B|---------777-7-7|---------777-7-7|---------777-7-7|
G|---------777-7-7|---------777-7-7|---------777-7-7|
D|9---9---9777-7-7|9---9---9777-7-7|9---9---9777-7-7|
A|7---7---7555-5-5|7---7---7555-5-5|7---7---7555-5-5|
E|000000000-------|000000000-------|000000000-------|
Wanna... Wanna... Wanna...
___________________ _________________
1. |2. |
E|---------------- ||----------------|----------------|
B|---------------- ||----------------|----------------|
G|----------------o||----------------|----------------|
D|9---9---99------o||9---------------|9---------------|
A|7---7---77-5--5- ||7---------------|7---------------|
E|00000000007--7-- ||----------------|----------------|

E|----------------|
B|----------------|
G|---Theremin-----|
D|-----Break------|
A|------37--------|
E|----------------|


(Guitar 1)
E|----------------|----------------|----------------|
B|----------------|----------------|----------------|
G|9--9------------|9--9------------|9--9------------|
D|9--9------------|9--9------------|9--9------------|
A|7--7------------|7--7------------|7--7------------|
E|----------------|----------------|----------------|
| |
|(Guitar 2) |
E|-------12-------|----------------|-------12----15-|
B|------12-1512---|----------------|------12-1515-15|
G|-----14-----1514|-------7765-----|-----14---------|
D|----------------|-----9----765---|----------------|
A|----------------|------------575-|----------------|
E|----------------|---------------7|0---------------|

(Guitar 1)
E|----------------|----------------|----------------|
B|----------------|----------------|----------------|
G|9--9------------|9--9------------|9--9------------|
D|9--9------------|9--9------------|9--9------------|
A|7--7------------|7--7------------|7--7-------5--5-|
E|----------------|----------------|----------7--7--|
| |
|(Guitar 2) |
E|----151715---15-|-----19191815---|------------19----|
B|---17-----171517|----17------17--|----17191919---17-|
G|----------------|----------------|------------------|
D|----------------|----------------|------------------|
A|----------------|----------------|------------------|
E|----------------|----------------|------------------|

E|----------------|----------------|----------------|
B|----------------|----------------|----------------|
G|----------------|----------------|----------------|
D|9---9---99------|9---9---99------|9---9---99------|
A|7---7---77-5--5-|7---7---77-5--5-|7---7---77-5--5-|
E|00000000007--7--|00000000007--7--|00000000007--7--|
coolin' baby I've been droolin' All the good times...

E|----------------|----------------|----------------|
B|----------------|----------------|----------------|
G|----------------|----------------|----------------|
D|9---9---99------|9---9---99------|9---9---99------|
A|7---7---77-5--5-|7---7---77-5--5-|7---7---77-5--5-|
E|00000000007--7--|00000000007--7--|00000000007--7--|
misusin' Way down inside

E|----------------|----------------|----------------|
B|----------------|----------------|----------------|
G|----------------|----------------|----------------|
D|9---9---99------|9---9---99------|9---9---99------|
A|7---7---77-5--5-|7---7---77-5--5-|7---7---77-5--5-|
E|00000000007--7--|00000000007--7--|00000000007--7--|
I'm gona give.... Hey

E|----------------|----------------|----------------|----------------|
B|----------------|---------777-7-7|---------777-7-7|---------777-7-7|
G|----------------|---------777-7-7|---------777-7-7|---------777-7-7|
D|9---9---99------|9---9---9777-7-7|9---9---9777-7-7|9---9---9777-7-7|
A|7---7---77-5--5-|7---7---7555-5-5|7---7---7555-5-5|7---7---7555-5-5|
E|00000000007--7--|000000000-------|000000000-------|000000000-------|
Wanna... Wanna... Wanna...

E|----------------|----------------||----------------|----------------|
B|---------777-7-7|9---------------||----------------|----------------|
G|---------777-7-7|9---------------||----------------|----------------|
D|9---9---9777-7-7|9---------------||----------------|----------------|
A|7---7---7555-5-5|7---------------||----------------|----------------|
E|000000000-------|----------------||----------------|----------------|
Way down inside___________

E|----------------|----------------|----------------|----------------|
B|----------------|----------------|9---------------|----------------|
G|----------------|----------------|9---6-----------|----------------|
D|----------------|----------------|9---7-----------|----------------|
A|----------------|----------------|7---7-----------|----------------|
E|----------------|----------------|----5-----------|----------------|
woman you___need_ yeah love____________

E|----------------|----------------|
B|----------------|----------------|
G|----------------|----------------|
D|----------------|----------------|
A|----------------|-----------5--5-|
E|----------------|----------7--7--|

E|----------------|----------------|----------------|
B|----------------|----------------|----------------|
G|----------------|----------------|----------------|
D|9---9---99------|9---9---99------|9---9---99------|
A|7---7---77-5--5-|7---7---77-5--5-|7---7---77-5--5-|
E|00000000007--7--|00000000007--7--|00000000007--7--| 8X then fade
Tunning: Standard (E A D G B e)
Song: Whole Lotta Love
Band: Led Zeppelin
Album: Led Zeppelin 2
Tabber: Led/DC
Words and Music by Jimmy Page, Robert Plant, John Paul Jones and John Bonham

Intro:
PM PM PM PM PM PM PM
E[----------------/---------------------------------------------------------
B[----------------/--9------------------------------------------------------
G[----------------/--9--------9---------9--------9--------9-------9-----9---
D[----------------/--9--------9---------9--------9--------9-------9-----9---
A[------5-----5---/--7--------7---------7--------7--------7-------7-----7---
E[--5/7----7------/-----0-0-0----0-0-0-----0-0-0---0-0-0----0-0-0---0-0-----
PM
E---------------------------------------------------------------------------
B---------------------------------------------------------------------------
G--9/----------------9-------9--------9-------9-------9-------9-------9/----
D--9/----------------9-------9--------9-------9-------9-------9-------9/----
A--7/-------5-----5--7-------7--------7-------7-------7-------7-------7/----
D------5/7----7--------0-0-0----0-0-0---0-0-0---0-0-0---0-0-0---0-0-0-------

---------------]
---------------]
---------------]
---------------]
------5----5---]
-5/7----7------]

Verse:
Riff 1
E[--------------------------------------------------------------------------
B[--------------------------------------------------------------------------
G[--------------------------------------------------------------------------
D[--9-------9-------9---------------9-------9-------9/----------------------
A[--7-------7-------7--5-----5---5--7-------7-------7/-----5---5------------
E[----0-0-0---0-0-0------5/7---7------0-0-0---0-0-0----5/7---7--------------

E--------------------------------------------------------------------------
B--------------------------------------------------------------------------
G--------------------------------------------------------------------------
D--9-------9-------9/-------------9-------9-------9/-----------------------
A--7-------7-------7/------5---5--7-------7-------7/-----5---5-------------
E----0-0-0---0-0-0-----5/7---7------0-0-0---0-0-0----5/7---7---------------
PM-----------PM
E---------------------------]
B-------------------7-7-7-7-]
G--9------9---------7-7-7-7-]
D--9------9-----9-9-7-7-7-7-]
A--7---7--7-----7-7-5-5-5-5-]
E----0--0---0-0-------------]

Chorus:
Riff 2
PM----------PM PM-----------PM PM------------PM
E[--------------------------------------------------------------------------
B[--------------------7-7-7-7---------------------7-7-7-7-------------------
G[-9------9-----------7-7-7-7---9------9----------7-7-7-7---9-----9---------
D[-9------9-----9-9---7-7-7-7---9------9-----9-9--7-7-7-7---9-----9-----9-9-
A[-7---7--7-----7-7---5-5-5-5---7---7--7-----7-7--5-5-5-5---7---7-7-----7-7-
E[---0-0----0-0-------------------0-0----0-0------------------0-0---0-0-----

E-------------------------------------------------------------------------]
B-7-7-7-7--------------------------------9---------------7-7-7-7----------]
G-7-7-7-7--9-----9-------9/--------------9---------------7-7-7-7--9-------]
D-7-7-7-7--9-----9-------9/--------------9-------------9-7-7-7-7--9-------]
A-5-5-5-5--7-----7-------7/------5---5---7-------------7-5-5-5-5--7-------]
E------------0-0---0-0-0-----5/7---7-------0-0-0-0-0-0------------0-------]

Guitar Break:
~~~~~~~~
E[--------12---------------------------------------------------------------
B[-----12----15-12-----------------------------------3---------------------
G[-14b-------------15-14-12-14-12-14b-(14)------2/4---4/2-0-2-0-0-2-0------
D[--------------------------------------------------------------------2-0--
A[-------------------------------------------------------------------------
E[-------------------------------------------------------------------------
~~~~~~ ~~~~~~
E------------------12---------15-----------------------------------------
B---------------12----15b-15b----15b-------17-20-(20)-------20-17--------
G-----------14b---------------------------------------21-18--------------
D--2-0-------------------------------------------------------------------
A------2-----------------------------------------------------------------
E--------0---------------------------------------------------------------
~~~~~~~~ ~~~~~~~~ ~~~~~~
E---------------19b-19-18-17-------------------------------------19--------]
B--(17)------17--------------20-17-20-17-------17-19-19b-19b-19b----17-----]
G--------------------------------------------------------------------------]
D--------------------------------------------------------------------------]
A--------------------------------------------------------------------------]
E--------------------------------------------------------------------------]

Outro:

E[------------------------------------------------------------------------
B[------------------------------------------------------------------------
G[------------------------------------------------------------------------
D[---------5-9-----9-------9/-----------6-6---9-------9-------------------
A[-----5---5-7-----7-------7/-----5---5-7-7---7-------7-------5---/12-10--
E[-5/7---7-----0-0---0-0-0----5/7---7-------0---0-0-0---0-5/7---7---------

E-------------------------------------------------------------------------]
B-------------------------------------------------------------------------]
G-----9-------------------------------------------------------------------]
D-----9-------9-----------9-------9-------9/------------------------------]
A-----7-------7-----5---5-7-------7-------7/-----5---12/------------------]
E-0-0---0-0-0---7-7---7-----0-0-0---0-0-0----5/7---7----------------------]

Happy Playing.............!!!!
p.s. if any thoughts or suggestions email me at me@henryprince.com
Tunning: Nashville (E A D G B E)
Whole Lotta Love Standard Tuning Guitarzan Freak
I am 100% sure this is tab is complete and correct.

[Intro]
E|--------------|---------------|---------------|---------------|
B|--------------|---------------|---------------|---------------|
G|--------------|---------------|---------------|---------------|
D|---0----0-----|---------------|---------------|---------------|
A|---5~---5~-7--|-7-7-7---7-7-7-|-7-7-7---7-7-7-|-7-7-7---7-7-7-|
E|-7----7-----0-|-0-0-0---0-0-0-|-0-0-0---0-0-0-|-0-0-0---0-0-0-|

[Intro]
E|--------------|---------------|---------------|---------------|
B|--------------|---------------|---------------|---------------|
G|--------------|---------------|---------------|---------------|
D|---0----0-----|---------------|---------------|---------------|
A|---5~---5~-7--|-7-7-7---7-7-7-|-7-7-7---7-7-7-|-7-7-7---7-7-7-|
E|-7----7-----0-|-0-0-0---0-0-0-|-0-0-0---0-0-0-|-0-0-0---0-0-0-|

[Main Riff]
E|------------|---------------|
B|------------|---------------|
G|------------|---------------|
D|---0---0----|---------------|
A|---5~--5~-7-|-7-7-7---7-7-7-|
E|-7---7----0-|-0-0-0---0-0-0-|

[Riff 1]
E|-----------------|
B|-----------------|
G|-----------------|
D|-0-0-0-0-0---9---|
A|--------------7/-|
E|-----------------|

[Main Riff]
E|------------|---------------|
B|------------|---------------|
G|------------|---------------|
D|---0---0----|---------------|
A|---5~--5~-7-|-7-7-7---7-7-7-|
E|-7---7----0-|-0-0-0---0-0-0-|

[Riff 1]
E|-----------------|
B|-----------------|
G|-----------------|
D|-0-0-0-0-0---9---|
A|--------------7/-|
E|-----------------|
During the interlude, Page scrapes his
pick up and down the fret board.

[Solo]
E|-----|--------12----------------------------|
B|-9-9-|-10/12-----15-12----------------------|
G|-9-9-|-----------------15p14p12-14p12-14b16-|
D|-9-9-|--------------------------------------|
A|-7-7-|--------------------------------------|
E|-----|--------------------------------------|

E|-----|---------------------------------|
B|-9-9-|---------------------------------|
G|-9-9-|-2/4—4p2-0-2p0-0-2p0-------------|
D|-9-9-|---------------------2p0-2p0-----|
A|-7-7-|-----------------------------2---|
E|-----|-------------------------------0-|

E|-----|---------12-10b12—12-15-10-12-|-----|-12-15b19r15-12-----15p12-|
B|-9-9-|-10-12-12---------------------|-9-9-|----------------14--------|
G|-9-9-|------------------------------|-9-9-|--------------------------|
D|-9-9-|------------------------------|-9-9-|--------------------------|
A|-7-7-|------------------------------|-7-7-|--------------------------|
E|-----|------------------------------|-----|--------------------------|

E|-----|---19b21-19-18-17-15----15----|-----|-------------------17-15--15---|
B|-9-9-|-17------------------17----17-|-9-9-|-17-19-19b21-19b21------17--17\|
G|-9-9-|------------------------------|-9-9-|-------------------------------|
D|-9-9-|------------------------------|-9-9-|-------------------------------|
A|-7-7-|------------------------------|-7-7-|-------------------------------|
E|-----|------------------------------|-----|-------------------------------|

[Main Riff]
E|------------|---------------|
B|------------|---------------|
G|------------|---------------|
D|---0---0----|---------------|
A|---5~--5~-7-|-7-7-7---7-7-7-|
E|-7---7----0-|-0-0-0---0-0-0-|

[Riff 1]
E|-----------------|
B|-----------------|
G|-----------------|
D|-0-0-0-0-0---9---|
A|--------------7/-|
E|-----------------|

[Chords]
E|-----|
B|-9---|
G|-9-6-|
D|-9-7-|
A|-7-7-|
E|---5-|


************************************

| p Pull-off
| r Release
| b Bend
| / Slide up
| \ Slide down
| ~ Vibrato

************************************

************************************
[Song Progression]

Intro x2
Main Riff x9
Riff 1 x4
Main Riff x9
Riff 1 x4
Solo x1
Main Riff x12
Riff 1 x4
Chords x1
Main Riff x32
************************************
Tunning: Standard (E A D G B e)
Hell o....

Tuning: (E,A,D,G,B,e)


Gtr. 1 Intro:
e-|--------------------------|-----------------------------------|-
B-|--------------------------|-----------------------------------|-
G-|--------------------------|-----------------------------------|-
D-|----------------0)----0)--|--9-------9-------9-------9--------|-
A-|----------------5-----5---|--7-------7-------7-------7--------|-
E-|-------------7-----7------|--0-0-0-0-0-0-0-0-0-0-0-0-0-0-0-0--|-
* Bend 1/4 step

e-|-----------------------------------|-----------------------------------|-
B-|-----------------------------------|-----------------------------------|-
G-|-----------------------------------|-----------------------------------|-
D-|--9-------9-------9-9----0)----0)--|--9-------9-------9-------9--------|-
A-|--7-------7-------7-7----5-----5---|--7-------7-------7-------7--------|-
E-|--0-0-0-0-0-0-0-0-0-0-7-----7------|--0-0-0-0-0-0-0-0-0-0-0-0-0-0-0-0--|-

Verse:
e-|-----------------------------------|-----------------------------------|-
B-|-----------------------------------|-----------------------------------|-
G-|-----------------------------------|-----------------------------------|-
D-|--9-------9-------9-9----0)----0)--|--9-------9-------9------0)----0)--|-
A-|--7-------7-------7-7----5-----5---|--7-------7-------7------5-----5---|-
E-|--0-0-0-0-0-0-0-0-0-0-7-----7------|--0-0-0-0-0-0-0-0-0-0-7-----7------|-

e-|-----------------------------------|-----------------------------------|-
B-|-----------------------------------|-----------------------------------|-
G-|-----------------------------------|-----------------------------------|-
D-|--9-------9-------9------0)----0)--|--9-------9-------9------0)----0)--|-
A-|--7-------7-------7------5-----5---|--7-------7-------7------5-----5---|-
E-|--0-0-0-0-0-0-0-0-0-0-7-----7------|--0-0-0-0-0-0-0-0-0-0-7-----7------|-

e-|-----------------------------------|-----------------------------------|-
B-|-----------------------------------|-----------------------------------|-
G-|-----------------------------------|-----------------------------------|-
D-|--9-------9-------9------0)----0)--|--9-------9-------9------0)----0)--|-
A-|--7-------7-------7------5-----5---|--7-------7-------7------5-----5---|-
E-|--0-0-0-0-0-0-0-0-0-0-7-----7------|--0-0-0-0-0-0-0-0-0-0-7-----7------|-

e-|-----------------------------------|-----------------------------------|-
B-|-----------------------------------|-----------------------------------|-
G-|-----------------------------------|-----------------------------------|-
D-|--9-------9-------9------0)----0)--|--9-------9-------9------0)----0)--|-
A-|--7-------7-------7------5-----5---|--7-------7-------7------5-----5---|-
E-|--0-0-0-0-0-0-0-0-0-0-7-----7------|--0-0-0-0-0-0-0-0-0-0-7-----7------|-

Chorus:
e-|-----------------------------------|---------------------------------|-
B-|-----------------------------------|----------------------7--7-7--7--|-
G-|-----------------------------------|----------------------7--7-7--7--|-
D-|--9-------9-------9------0)----0)--|--9-------9-------9---7--7-7--7--|-
A-|--7-------7-------7------5-----5---|--7-------7-------7---5--5-5--5--|-
E-|--0-0-0-0-0-0-0-0-0-0-7-----7------|--0-0-0-0-0-0-0-0-0-0------------|-

Gtr. 1
e-|---------------------------------|---------------------------------|-
B-|----------------------7--7-7--7--|----------------------7--7-7--7--|-
G-|----------------------7--7-7--7--|----------------------7--7-7--7--|-
D-|--9-------9-------9---7--7-7--7--|--9-------9-------9---7--7-7--7--|-
A-|--7-------7-------7---5--5-5--5--|--7-------7-------7---5--5-5--5--|-
E-|--0-0-0-0-0-0-0-0-0-0------------|--0-0-0-0-0-0-0-0-0-0------------|-
| | |
| Gtr. 2 w/ slide | |
e-|---------------------------------|---------------------------------|-
B-|---------------------------------|---------------------------------|-
G-|------9\-------------------------|------9\-------------------------|-
D-|------9\-------------------------|------9\-------------------------|-
A-|---------------------------------|---------------------------------|-
E-|---------------------------------|---------------------------------|-

e-|---------------------------------|-----------------------------------|-
B-|----------------------7--7-7--7--|-----------------------------------|-
G-|----------------------7--7-7--7--|-----------------------------------|-
D-|--9-------9-------9---7--7-7--7--|--9-------9-------9------0)----0)--|-
A-|--7-------7-------7---5--5-5--5--|--7-------7-------7------5-----5---|-
E-|--0-0-0-0-0-0-0-0-0-0------------|--0-0-0-0-0-0-0-0-0-0-7-----7------|-
| | |
| | |
e-|---------------------------------|-----------------------------------|-
B-|---------------------------------|-----------------------------------|-
G-|------9\-------------------------|------9\---------------------------|-
D-|------9\-------------------------|------9\---------------------------|-
A-|---------------------------------|-----------------------------------|-
E-|---------------------------------|-----------------------------------|-

Repeat from verse

Guitar solo:


Gtr. 1
e-|----------------------------------------------------------|-
B-|--9----9--------------------------------------------------|-
G-|--9----9--------------------------------------------------|-
D-|--9----9--------------------------------------------------|-
A-|--7----7--------------------------------------------------|-
E-|----------------------------------------------------------|-
| |
| Gtr. 2 1 1 |
e-|--------------------12------------------------------------|-
B-|--------------)-12------15p12----------------------)~~~~--|-
G-|------------14-----------------15p14p12--14--12--14-------|-
D-|----------------------------------------------------------|-
A-|----------------------------------------------------------|-
E-|----------------------------------------------------------|-


e-|--------------------------------------------------------|-
B-|--9----9------------------------------------------------|-
G-|--9----9------------------------------------------------|-
D-|--9----9------------------------------------------------|-
A-|--7----7------------------------------------------------|-
E-|--------------------------------------------------------|-
| |
| |
e-|--------------------------------------------------------|-
B-|-----------------3--------------------------------------|-
G-|------------2/4-----4p2p0--4p2p0------------------------|-
D-|----------------------------------2p0-----2p0-----------|-
A-|---------------------------------------2-------2-0h2----|-
E-|--------------------------------------------------------|-

e-|-----------------------------------------------|-
B-|--9----9---------------------------------------|-
G-|--9----9---------------------------------------|-
D-|--9----9---------------------------------------|-
A-|--7----7---------------------------------------|-
E-|-----------------------------------------------|-
| |
| 1 1 1 1 |
e-|--------------------12----)---)---15---)~~~----|-
B-|--------------)-12------15--15-------15--------|-
G-|------------14---------------------------------|-
D-|-----------------------------------------------|-
A-|-----------------------------------------------|-
E-|-----------------------------------------------|-

e-|----------------------------------------------------|-
B-|--9----9--------------------------------------------|-
G-|--9----9--------------------------------------------|-
D-|--9----9--------------------------------------------|-
A-|--7----7--------------------------------------------|-
E-|----------------------------------------------------|-
| |
| 2 |
e-|--------------------)''''''''\----------------------|-
B-|------------17----20------------17------20p17~~~----|-
G-|------------------------------------18--------------|-
D-|----------------------------------------------------|-
A-|----------------------------------------------------|-
E-|----------------------------------------------------|-

e-|-----------------------------------------------------|-
B-|--9----9---------------------------------------------|-
G-|--9----9---------------------------------------------|-
D-|--9----9---------------------------------------------|-
A-|--7----7---------------------------------------------|-
E-|-----------------------------------------------------|-
| 1 |
| ) |
e-|----------------19----19--18--17---------------------|-
B-|------------17--------------------20p17--20p17~~~----|-
G-|-----------------------------------------------------|-
D-|-----------------------------------------------------|-
A-|-----------------------------------------------------|-
E-|-----------------------------------------------------|-

e-|---------------------------------------------------|-
B-|--9----9-------------------------------------------|-
G-|--9----9-------------------------------------------|-
D-|--9----9-------------------------------------------|-
A-|--7----7-------------------------------------------|-
E-|---------------------------------------------------|-
| |
| 1/2 1/2 1/2 1 |
e-|----------------------)---)---)----)--19-----------|-
B-|------------17--19--19--19--19---19-------17~~~----|-
G-|---------------------------------------------------|-
D-|---------------------------------------------------|-
A-|---------------------------------------------------|-
E-|---------------------------------------------------|-

Then play verse and chorus again, then there is a
break with no instruments just vocals. At the end
of the break play B5 and A5.

At the end the main riff changes to this, but the
main riff is still played sometimes.

e-|---------------------------|---------------------------------|-
B-|---------------------------|---------------------------------|-
G-|---------------------------|---------------------------------|-
D-|-----------------0)-----7--|--9-------9-------9-----0)----7--|-
A-|-----------------5------5--|--7-------7-------7-----5-----5--|-
E-|--------------7------7-----|--0-0-0-0-0-0-0-0-0-0-7----7-----|-

e-|----------------------------------|----------------------------------|-
B-|----------------------------------|----------------------------------|-
G-|----------------------------------|----------------------------------|-
D-|--9-------9-------9------0)----7--|--9-------9-------9------0)----7--|-
A-|--7-------7-------7------5-----5--|--7-------7-------7------5-----5--|-
E-|--0-0-0-0-0-0-0-0-0-0-7-----7-----|--0-0-0-0-0-0-0-0-0-0-7-----7-----|-


An awesome song for an awesoem guitar player... jajajaja

Kenneth Cerda. Managua, Nicaragua.
Song info
Whole Lotta Love
Led Zeppelin
2001
  • Blues
  • Rock
  • Blues Rock
  • Classic Rock
  • Hard Rock
Alternative tracks
Similar songs
Hey Stoopid - Alice Cooper
Like A Hurricane - Neil Young
Un millon de años luz - Soda Stereo
Reptile - Eric Clapton

Hi! Hope you enjoy backing track experience.
If you want to help us in the development of the project, feel free to donate!