Are You Gonna Go My Way - Lenny Kravitz
00:00 / 00:00
Tabs and lyrics
Tunning: Standard (E A D G B e)
Lenny Kravitz: Are You Gonna Go My Way?


Riff 1: ---- 2x ----
|-------------------------------------------3----|
|-------------------------------------------3----|
G 1 |-2-^4-^2-p0-------------2-^4-^2-p0--------------|
|------------2---0-2----------------2---0-2------|
|------------------------------------------------|
|--------------0-------0--------------0----------|

Riff 2: ---- 6x ----
|-------------------------------------------3----|
|-------------------------------------------3----|
G 1 |-2-^4-^2-p0-------------2-^4-^2-p0--------------|
|------------2---0-2----------------2---0-2------|
|------------------------------------------------|
|--------------0-------0--------------0----------|
| |
| |
|------------------------------------------------|
|-10^12^10p8-------------10^12^10p8--------------|
G 2 |------------9---7-9----------------9---7-9------|
|------------------------------------------------|
|------------------------------------------------|
|------------------------------------------------|

|---------------------------------------------------------
| Riff 3: ---- 4x ----
| |------------------------------------------------|
| |------------------------------------------------|
| G 1 |-2-^4-^2-p0-------------2-^4-^2-p0--------------|
| |------------2---0-2----------------2---0-2------|
| |------------------------------------------------|
| |--------------0-------0--------------0-------0--|
|
| I was born long ago
| I am the chosen I'm the one
| I have come to save the day
| And I won't leave until I'm done
|---------------------------------------------------------
| -- 3x -- ||
| |-----------------------||-------------------|
| |-----------------------||-------------------|
| G 1 |-5-^7-^5-p3------------||--5---4---3--2--4--|
| |------------5-0-3-5--0-||-------------------|
| |-----------------------||-------------------|
| |-----------------------||-------------------|
| | |
| | -- 3x -- || |
| |-----------------------||-------------------|
| |-13^15^13p11-----------||-------------------|
| G 2 |------------12--10-12--||--12--10--9--10-12-|
| |-----------------------||-------------------|
| |-----------------------||-------------------|
| |-----------------------||-------------------|
|
| So that's why you've got to try
| You've got to breathe and have some fun
|---------------------------------------------------------
| Riff 3 2x
|
| Though I'm not paid I play this game
| And I won't stop until I'm done
|---------------------------------------------------------



[Chorus]

| |----0-------------------0--------------------|
| |----0-------------------0--------------------|
| |----7-------------------6--------------------|
| |----9-------------------7--------------------|
| |---------------------------------------------|
| |---------------------------------------------|
| But what I really want to know is

| |------------------------------------------|
| |-9-9-7-9---------------------9-9--12-9----|
| |-9-9-7-9---------------------9-9--12-9----|
| |-9-9-7-9---------------------9-9--12-9----|
| |------------------------------------------|
| |------------------------------------------|
| Are you gonna go my way

| |----0---------------0------------------------|
| |----0---------------0------------------------|
| |----7---------------6------------------------|
| |----9---------------7------------------------|
| |---------------------------------------------|
| |---------------------------------------------|
| And I got to got to know
|
|---------------------------------------------------------
Riff 1 1x

Riff 2 3x
|---------------------------------------------------------
Riff 3 4x
I don't know why we always cry
This we must leave and get undone
We must engage and rearrange
And turn this planet back to one
|---------------------------------------------------------

-- 3x --------- ||
|-----------------------||-------------------|
|-----------------------||-------------------|
|-5-^7-^5-p3------------||--5---4---3--2--4--|
|------------5-0-3-5--0-||-------------------|
|-----------------------||-------------------|
|-----------------------||-------------------|
| |
| -- 3x -------- || |
|-----------------------||-------------------|
|-13^15^13p11-----------||--13--12--11-10-12-|
|------------12--10-12--||-------------------|
|-----------------------||-------------------|
|-----------------------||-------------------|
|-----------------------||-------------------|

So tell me why we got to die
And kill each other one by one
|---------------------------------------------------------
Riff 3 2x

We've got to love and rub-a-dub
We've got to dance and be in love
|---------------------------------------------------------


[Chorus]

|---------------------------------------------------------


[Solo]
12x in total -- -- ending with:
|---------------------------------||-----------------|
|-9-----7-------7-------5-5-7-5---||-----------------|
|-9-----7-------7-------6-6-7-6---||-----------------|
|-9-----7-------7-------7-7-7-7---||-----0-1---------|
|---------------------------------||---4-------------|
|---------------------------------||-----------------|
(repeat 4x by itself, then 8x under solo

|---------------------------------------------------------


[Outro]

Riff 2 4x


|-0----------0-------0-------------0-------|
|-0----------0-------0-------------0-------|
|-7----------6-------7-------------6-------|
|-9----------7-------9-------------7-------|
|------------------------------------------|
|------------------------------------------|

|---------------------------------------------------------

|------------------------------------------|
|-9-9-7-9---------------------9-9--7--9----|
|-9-9-7-9---------------------9-9--7--9----|
|-9-9-7-9---------------------9-9--7--9----|
|------------------------------------------|
|------------------------------------------|
Are you gonna go my way


|-0---------------0------------------------|
|-8---------------7------------------------|
|-7---------------6------------------------|
|-9---------------8------------------------|
|------------------------------------------|
|------------------------------------------|
'cause Baby I got to know



[Solo]

E-|--------------------------------------------------------------------|
B-|--------------------------------------------------------------------|
G-|----------12h14p12vvvbbb--------------------------------------------|
D-|-14vvvv------------------14p12-12--14-------------------------------|
A-|--------------------------------------12b14--12---------------------|
E-|------------------------------------------------15---12-10-12-12sss-|

E-|-----------------------------------------------------------------------|
B-|------------------------------------------------------17----15s17vvvvv-|
G-|-----------------------9h11b13----9h11p9----9h11sss16----16------------|
D-|------9---11p9----9h11-------------------11----------------------------|
A-|--s11----------11------------------------------------------------------|
E-|-----------------------------------------------------------------------|

E-|-----------------------------15--17b19vvv--17b19vv-17b19vv-17b19vvv-|
B-|-17vvvvvvvvv19p17vvvv17vv17vvv--------------------------------------|
G-|--------------------------------------------------------------------|
D-|--------------------------------------------------------------------|
A-|--------------------------------------------------------------------|
E-|--------------------------------------------------------------------|

E-|-17b19rb17p15-----------------------------|
B-|--------------17vv-----17vv-----17b20vvv--|
G-|------------------------------------------|
D-|------------------------------------------|
A-|------------------------------------------|
E-|------------------------------------------|

E-|-----------------------------------------------------------------|
B-|--17b20v--17b20v--17b20v--17b20v--17b20v--17b20rb17p15----15--17-|
G-|-------------------------------------------------------16--------|
D-|-----------------------------------------------------------------|
A-|-----------------------------------------------------------------|
E-|-----------------------------------------------------------------|

E-|---------------------------------12----------12----------------|
B-|------------------------------------12-15b17----15p12----------|
G-|-16p14p12----12h14p12-----14b16-----------------------14p12----|
D-|----------14----------14------------------------------------14-|
A-|---------------------------------------------------------------|
E-|---------------------------------------------------------------|

E-|-12----------12--------------------------|
B-|----12-15b17----15p12--------------15p12-|
G-|----------------------14p12--14b16-------|
D-|-----------------------------------------|
A-|-----------------------------------------|
E-|-----------------------------------------|

E-|-------12-------12--------15p12----12------------------------------|
B-|-15b17----15b17----15b17--------15------15p12----15--12------------|
G-|----------------------------------------------14---------14p12--14-|
D-|-------------------------------------------------------------------|
A-|-------------------------------------------------------------------|
E-|-------------------------------------------------------------------|

E-|-----------------------------|
B-|-----------------------------|
G-|-12b14rb12p9---12vvvvvvvvvv--|
D-|-----------------------------|
A-|-----------------------------|
E-|-----------------------------|

There you go. It isn't exact, but I think it's close.
At the very least it should give you a place to start.

Questions, comments, corrections, and additions are always welcome.
Tunning: Standard (E A D G B e)
#----------------------------------PLEASE NOTE---------------------------------#
#This file is the author's own work and represents their interpretation of the #
#song. You may only use this file for private study, scholarship, or research. #
#------------------------------------------------------------------------------##
#

#----------------------------------PLEASE NOTE---------------------------------#
#This file is the author's own work and represents their interpretation of the #
#song. You may only use this file for private study, scholarship, or research. #
#------------------------------------------------------------------------------#

Date: Mon, 13 Jan 1997 20:44:40 +0100 (MET)
From: Jan Frode Haugseth
Subject: Are you gonna go my way acoustic by Lenny Kravitz

New version from: mley@acorn.co.uk (Martin Ley)

>> Originally From: mystical@kochab (Gurupartap Davis)

Lenny Kravitz: Are You Gonna Go My Way?


Riff 1: ---- 2x ----
|-------------------------------------------3----|
|-------------------------------------------3----|
G 1 |-2-^4-^2-p0-------------2-^4-^2-p0--------------|
|------------2---0-2----------------2---0-2------|
|------------------------------------------------|
|--------------0-------0--------------0----------|



Riff 2: ---- 6x ----
|-------------------------------------------3----|
|-------------------------------------------3----|
G 1 |-2-^4-^2-p0-------------2-^4-^2-p0--------------|
|------------2---0-2----------------2---0-2------|
|------------------------------------------------|
|--------------0-------0--------------0----------|
| |
| |
|------------------------------------------------|
|-10^12^10p8-------------10^12^10p8--------------|
G 2 |------------9---7-9----------------9---7-9------|
|------------------------------------------------|
|------------------------------------------------|
|------------------------------------------------|

|---------------------------------------------------------

| Riff 3: ---- 4x ----
| |------------------------------------------------|
| |------------------------------------------------|
| G 1 |-2-^4-^2-p0-------------2-^4-^2-p0--------------|
| |------------2---0-2----------------2---0-2------|
| |------------------------------------------------|
| |--------------0-------0--------------0-------0--|
|
| I was born long ago
| I am the chosen I'm the one
| I have come to save the day
| And I won't leave until I'm done
|---------------------------------------------------------


| -- 3x -- ||
| |-----------------------||-------------------|
| |-----------------------||-------------------|
| G 1 |-5-^7-^5-p3------------||--5---4---3--2--4--|
| |------------5-0-3-5--0-||-------------------|
| |-----------------------||-------------------|
| |-----------------------||-------------------|
| | |
| | -- 3x -- || |
| |-----------------------||-------------------|
| |-13^15^13p11-----------||-------------------|
| G 2 |------------12--10-12--||--12--10--9--10-12-|
| |-----------------------||-------------------|
| |-----------------------||-------------------|
| |-----------------------||-------------------|
|
| So that's why you've got to try
| You've got to breathe and have some fun
|---------------------------------------------------------

| Riff 3 2x
|
| Though I'm not paid I play this game
| And I won't stop until I'm done
|---------------------------------------------------------

| Chorus:
| |----0-------------------0--------------------|
| |----0-------------------0--------------------|
| |----7-------------------6--------------------|
| |----9-------------------7--------------------|
| |---------------------------------------------|
| |---------------------------------------------|
| But what I really want to know is


| |------------------------------------------|
| |-9-9-7-9---------------------9-9--12-9----|
| |-9-9-7-9---------------------9-9--12-9----|
| |-9-9-7-9---------------------9-9--12-9----|
| |------------------------------------------|
| |------------------------------------------|
| Are you gonna go my way


| |----0---------------0------------------------|
| |----0---------------0------------------------|
| |----7---------------6------------------------|
| |----9---------------7------------------------|
| |---------------------------------------------|
| |---------------------------------------------|
| And I got to got to know
|
|---------------------------------------------------------

Riff 1 1x

Riff 2 3x
|---------------------------------------------------------

Riff 3 4x
I don't know why we always cry
This we must leave and get undone
We must engage and rearrange
And turn this planet back to one
|---------------------------------------------------------

-- 3x --------- ||
|-----------------------||-------------------|
|-----------------------||-------------------|
|-5-^7-^5-p3------------||--5---4---3--2--4--|
|------------5-0-3-5--0-||-------------------|
|-----------------------||-------------------|
|-----------------------||-------------------|
| |
| -- 3x -------- || |
|-----------------------||-------------------|
|-13^15^13p11-----------||--13--12--11-10-12-|
|------------12--10-12--||-------------------|
|-----------------------||-------------------|
|-----------------------||-------------------|
|-----------------------||-------------------|

So tell me why we got to die
And kill each other one by one
|---------------------------------------------------------

Riff 3 2x

We've got to love and rub-a-dub
We've got to dance and be in love
|---------------------------------------------------------

Chorus
|---------------------------------------------------------

Solo:
12x in total -- -- ending with:
|---------------------------------||-----------------|
|-9-----7-------7-------5-5-7-5---||-----------------|
|-9-----7-------7-------6-6-7-6---||-----------------|
|-9-----7-------7-------7-7-7-7---||-----0-1---------|
|---------------------------------||---4-------------|
|---------------------------------||-----------------|
(repeat 4x by itself, then 8x under solo

|---------------------------------------------------------

Outro:

Riff 2 4x


|-0----------0-------0-------------0-------|
|-0----------0-------0-------------0-------|
|-7----------6-------7-------------6-------|
|-9----------7-------9-------------7-------|
|------------------------------------------|
|------------------------------------------|

|---------------------------------------------------------

|------------------------------------------|
|-9-9-7-9---------------------9-9--7--9----|
|-9-9-7-9---------------------9-9--7--9----|
|-9-9-7-9---------------------9-9--7--9----|
|------------------------------------------|
|------------------------------------------|
Are you gonna go my way


|-0---------------0------------------------|
|-8---------------7------------------------|
|-7---------------6------------------------|
|-9---------------8------------------------|
|------------------------------------------|
|------------------------------------------|
'cause Baby I got to know


Transcribed by Gurupartap Davis
mystical@prism.nmt.edu

Amended by Martin Ley
mley@acorn.co.uk
--

Gurupartap Davis |You see? The priests were right. After we threw
mystical@jupiter.nmt.edu |those virgins in, the volcano stopped erupting!
SHUT THE HELL UP, GEEK!!!!


~From: holladay@engin.umich.edu (matthew m. holladay)

Lenny Kravitz - 'Are you Gonna go my way (solo)'

E-|--------------------------------------------------------------------|
B-|--------------------------------------------------------------------|
G-|----------12h14p12vvvbbb--------------------------------------------|
D-|-14vvvv------------------14p12-12--14-------------------------------|
A-|--------------------------------------12b14--12---------------------|
E-|------------------------------------------------15---12-10-12-12sss-|

E-|-----------------------------------------------------------------------|
B-|------------------------------------------------------17----15s17vvvvv-|
G-|-----------------------9h11b13----9h11p9----9h11sss16----16------------|
D-|------9---11p9----9h11-------------------11----------------------------|
A-|--s11----------11------------------------------------------------------|
E-|-----------------------------------------------------------------------|

E-|-----------------------------15--17b19vvv--17b19vv-17b19vv-17b19vvv-|
B-|-17vvvvvvvvv19p17vvvv17vv17vvv--------------------------------------|
G-|--------------------------------------------------------------------|
D-|--------------------------------------------------------------------|
A-|--------------------------------------------------------------------|
E-|--------------------------------------------------------------------|

E-|-17b19rb17p15-----------------------------|
B-|--------------17vv-----17vv-----17b20vvv--|
G-|------------------------------------------|
D-|------------------------------------------|
A-|------------------------------------------|
E-|------------------------------------------|

E-|-----------------------------------------------------------------|
B-|--17b20v--17b20v--17b20v--17b20v--17b20v--17b20rb17p15----15--17-|
G-|-------------------------------------------------------16--------|
D-|-----------------------------------------------------------------|
A-|-----------------------------------------------------------------|
E-|-----------------------------------------------------------------|

E-|---------------------------------12----------12----------------|
B-|------------------------------------12-15b17----15p12----------|
G-|-16p14p12----12h14p12-----14b16-----------------------14p12----|
D-|----------14----------14------------------------------------14-|
A-|---------------------------------------------------------------|
E-|---------------------------------------------------------------|

E-|-12----------12--------------------------|
B-|----12-15b17----15p12--------------15p12-|
G-|----------------------14p12--14b16-------|
D-|-----------------------------------------|
A-|-----------------------------------------|
E-|-----------------------------------------|

E-|-------12-------12--------15p12----12------------------------------|
B-|-15b17----15b17----15b17--------15------15p12----15--12------------|
G-|----------------------------------------------14---------14p12--14-|
D-|-------------------------------------------------------------------|
A-|-------------------------------------------------------------------|
E-|-------------------------------------------------------------------|

E-|-----------------------------|
B-|-----------------------------|
G-|-12b14rb12p9---12vvvvvvvvvv--|
D-|-----------------------------|
A-|-----------------------------|
E-|-----------------------------|

There you go. It isn't exact, but I think it's close.
At the very least it should give you a place to start.

Questions, comments, corrections, and additions are always welcome.

holladay@engin.umich.edu
------------------------


Date: Sat, 16 Dec 1995 18:11:42 -0800
From: dlieb@ix.netcom.com (DAVE LIEBAU )
Subject: TAB: Are You Gonna Go My Way; Lenny Kravitz


(Riff a) Full Full
-||--------------------------------------------------|----------------
-||--------------------------------------------------|----------------
-||*------2-----(2)p0--------------------------------|---2-----(2)----
-||*-------------------2-----------0-----2-----------|----------------
-||--------------------------------------------------|----------------
-||--------------------------0--------------------0--|----------------


(w/ Riff a) Full
----------------------------3--3---||---------------------------------
----------------------------3--3---||---------------------------------
p0---------------------------------||*------------14-----(14)p12------
----2-----------0-----2------------||*--------------------------------
-----------------------------------||---------------------------------
----------0------------------------||---------------------------------


P.M. Full
---------------------------------|------------------------------------
---------------------------------|------------------------------------
---------------------------------|------14-----(14)p12----------------
---14------------12--14~~~---12--|-------------------------14---------
----------14---------------------|------------------------------------
---------------------------------|------------------------------------


P.M. I was born
---------------------------||-----------------------------------------
---------------------------||-----------------------------------------
--------------------------*||---2-----(2)p0---------------------------
-------12-----14~~~---12--*||-------------------2-----------0---------
14-------------------------||-----------------------------------------
---------------------------||-------------------------0---------------


Full
---------|----------------------------------------3--3--|-------------
---------|----------------------------------------3--3--|-------------
---------|---2-----(2)p0--------------------------------|-------------
2--------|----------------2-----------0-----2-----------|-------------
---------|----------------------------------------------|-------------
------0--|----------------------0-----------------------|-------------


(riff b) So that's... Full
---------------------------------------------------------------||-----
---------------------------------------------------------------||-----
---------------------------17-----(17)p15---------------------*||-----
-------------------------------------------17------15--17~~~--*||-----
-----------------------------------------------17--------------||-----
---------------------------------------------------------------||-----


(w/ Riff b)
----------------------------------------|-----------------------------
----------------------------------------|-----------------------------
----------------------------------------|-----------------------------
17--17--x--15--x--14--x--15--x--17--17--|-----------------------------
----------------------------------------|-----------------------------
----------------------------------------|-----------------------------


Full
---------------------------------||-----------------------------------
---------------------------------||-----------------------------------
----5-----(5)p3-----------------*||--5--5--x--4--x--3--x--2--x--4-----
-----------------5-----3--5-----*||-----------------------------------
---------------------------------||-----------------------------------
--------------------3--------3---||-----------------------------------


But what I really......
|---0--------0--0--------------------------|--0-----0--0--------------
|---3--------3--3-----------------------2--|--2-----2--2--------------
|---4--------4--4-----------------------2--|--2-----2--2--------------
|------------------------------------------|--------------------------
|------------------------------------------|--------------------------
|------------------------------------------|--------------------------


Slide
---|----------------------|-----------------|--0-----0--0-------------
2--|--9-----9-----7--9----|--9-----9--12--9-|--3-----3--3-------------
2-/|--9-----9-----7--9---\|--9-----9--12--9\|--4-----4--4-------------
---|----------------------|-----------------|-------------------------
---|----------------------|-----------------|-------------------------
---|----------------------|-----------------|-------------------------


w/ Flanger
---------------0--|---------------------------------|--------5--------
---------------2--|---9-----------7--------------7--|--------5--------
---------------2--|---9-----x-----7-----x-----x--7--|--x-----6--------
---------------2--|---9-----------7--------------7--|--------7--------
---------------0--|---------------------------------|-----------------
------------------|---------------------------------|-----------------



---5--||--------------------------------------------------------------
7--5--||--------------------------------------------------------------
7--6\*||--------------------------------------------------------------
7--7-*||--------------------------------------------------------------
------||--------------------------------------------------------------
------||--------------------------------------------------------------


-----------------------
Are you gonna go my way - as performed by Lenny Kravitz on MTV acoustic
-----------------------

Acoustic version from: jafro@max.hint.no (Jan Frode Haugseth)

This is my first tab ever, so please bear with me. I think i got the strumming
quite right, and the vertical lines. I have only heard this song twice or so,
so you can't expect me to get the pull-offs or slides quite right. But it
sounds cool when you play it this way. You can, of course, do your own
variations, when it comes to the pulloffs and strummings, because mine are not
the same as Kravitz' anyway. And, I would like to get feedback on this tab,
since it is my first one, and I would like to hear if you did get it right.
Yeah, and I will dedicate this to my girlfriend, Ingrid Elise :). Or is that
wrong?

Tip: This song really rule if you have two guitars, and can get some other
human being to play the b part of the verse riffs.

The notification I used:

X = Mute string with left hand finger
p = pull off (using left hand finger)
b = bend
/ = slide up

Ok, here goes (this simple version kicks ass much more than that original):D

Opening riff, + beginning lines of the song,
first 4 times then 5 times with vocals

E5 E5 E5 A G A E/A
e|--------------------|--------------|
B|--------------------|--------------|
G|--1---1-1---1-1---2p|-0-2-/9-------|
D|--2---2-2---2-2-----|-----/9-------|
A|--2---2-2---2-2-----|--------------|
E|--0---0-0---0-0-----|--------------|

This riff for:

1st verse 2nd verse

I was born I don't know why
long ago we always cry
I am the chosen I'm the one This we must leave and get undone
I have come We must engage
to save the day and rearrange

Then this one once:

E E E A G A E5 F5 F#5 G5
e|--------------------|-------0-0-0--1-1-1--2-2-2--3-3-3|
B|--------------------|-------0-0-0--1-1-1--2-2-2--3-3-3|
G|--1---1-1---1-1---2-|-0-2---1-1-1--2-2-2--3-3-3--4-4-4|
D|--2---2-2---2-2-----|-------2-2-2--3-3-3--4-4-4--5-5-5|
A|--2---2-2---2-2-----|-------2-2-2--3-3-3--4-4-4--5-5-5|
E|--0---0-0---0-0-----|-------0-0-0--1-1-1--2-2-2--3-3-3|
|----4/1speed increase----|

And I won't leave until I'm done And get this planet back to one





Then this twice:
G5 G5 G5 D A D G
e|--------------------|--------------|
B|--------------------|--------------|
G|--4---4-4---4-4---5-|-2-5-/12------|
D|--5---5-5---5-5-----|-----/12------|
A|--5---5-5---5-5-----|--------------|
E|--3---3-3---3-3-----|--------------|

So that's why So tell me why
you've got to try We gotta die

Then this once
G5 G5 G5 D A D G5 F#5 F5 E5
e|--------------------|-------3-3-3--2-2-2--1-1-1--0-0-0|
B|--------------------|-------3-3-3--2-2-2--1-1-1--0-0-0|
G|--4---4-4---4-4---5-|-2-5---4-4-4--3-3-3--2-2-2--1-1-1|
D|--5---5-5---5-5-----|-------5-5-5--4-4-4--3-3-3--2-2-2|
A|--5---5-5---5-5-----|-------5-5-5--4-4-4--3-3-3--2-2-2|
E|--3---3-3---3-3-----|-------3-3-3--2-2-2--1-1-1--0-0-0|
|----4/1speed increase----|

You've got to breathe - And kill each other -
and have some fun one by one


This twice:
E5 E5 E5 A G A E/A
e|--------------------|--------------
B|--------------------|--------------
G|--1---1-1---1-1---2-|-0-2-/9-------
D|--2---2-2---2-2-----|-----/9-------
A|--2---2-2---2-2-----|--------------
E|--0---0-0---0-0-----|--------------

Though I'm not paid - We've got to love -
I play this game and rub-a-dub

This once:
E E E A G A E5 F5 F#5 G5
e|-------------------|-------0-0-0--1-1-1--2-2-2--3-3-3|
B|-------------------|-------0-0-0--1-1-1--2-2-2--3-3-3|
G|-1---1-1---1-1---2-|-0-2---1-1-1--2-2-2--3-3-3--4-4-4|
D|-2---2-2---2-2-----|-------2-2-2--3-3-3--4-4-4--5-5-5|
A|-2---2-2---2-2-----|-------2-2-2--3-3-3--4-4-4--5-5-5|
E|-0---0-0---0-0-----|-------0-0-0--1-1-1--2-2-2--3-3-3|
|----4/1speed increase----|

And I won't stop until I'm done We've got to dance and be in love


Then chorus once:
G5 F#5 F5 E
e|--------------------|-------------------|-------------0-----
B|--------------------|-------------------|-------------0-----
G|--4---4-4---4-4---4-|-4---4-3---3-3---3-|-2---2-2---2-X-----
D|--5---5-5---5-5---5-|-5---5-4---4-4---4-|-3---3-3---3-2-----
A|--5---5-5---5-5---5-|-5---5-4---4-4---4-|-3---3-3---3-2-----
E|--3---3-3---3-3---3-|-3---3-2---2-2---2-|-1---1-1---1-0-----
Let e & B ring here!

But what I really want to know is
Are you gonna go my way



Then maybe this four times or so:
E5 E5 E5 A G A E/A
e|----------------------|-------------
B|----------------------|-------------
G|--1---1-1---1-1---2bp-|-0-2-/9------
D|--2---2-2---2-2-------|-----/9------
A|--2---2-2---2-2-------|-------------
E|--0---0-0---0-0-------|-------------

Tunning: Standard (E A D G B e)
ARE YOU GONNA GO MY WAY
As recorded by Lenny Kravitz
(From the 1993 Album ARE YOU GONNA GO MY WAY ?)

Words and Music by Lenny Kravitz & Craig Ross
Transcribed by www.mikesguitarsite.co.uk

Gtr I (E A D G B E) - 'Craig Ross - Rhythm w/dist'
Gtr II (E A D G B E) - 'Lenny Kravitz - Rhythm / Lead w/dist'

[Intro]

Q=130
4/4
Gtr I
e|---------------------------|------------------------x-3-|
B|---------------------------|------------------------x-3-|
G|-2b4==(2)r(2)p0------------|-2b4==(2)r(2)p0-------------|
D|----------------2---0-2----|----------------2---0-2-----|
A|---------------------------|----------------------------|
E|------------------0------0-|------------------0---------|


e|---------------------------|------------------------x-3---|
B|---------------------------|------------------------x-3---|
G|-2b4==(2)r(2)p0------------|-2b4==(2)r(2)p0---------------|
D|----------------2---0-2----|----------------2---0-2-------|
A|---------------------------|------------------------------|
E|------------------0------0-|------------------0-----------|

Gtr II
PM| ~~ PM PM ~~
e|------------------------------------------|---------------------------------------|
B|------------------------------------------|---------------------------------------|
G|------14pb15r(14)-12----------12----------|-14b16==(14)r(14)p12-------------------|
D|------------------------14----12-14--(12)-|---------------------14----12-14-----x-|
A|---------------------------14-------------|------------------------14-------------|
E|------------------------------------------|---------------------------------------|
|
| Gtr I
e|------------------------------------------|---------------------------------x-3---|
B|------------------------------------------|---------------------------------x-3---|
G|-2b4==(2)r========(2)p0-------------------|--2b4====(2)r=(2)p=0-------------------|
D|-------------------------2-----0--2-------|----------------------2-----0--2-------|
A|------------------------------------------|---------------------------------------|
E|----------------------------0----------0--|-------------------------0-------------|


PM| ~~ PM PM ~~ PM
e|------------------------------------------|----------------------------------------|
B|------------------------------------------|----------------------------------------|
G|------14pb15r(14)-12----------------------|-14b16==(14)r(14)p12--------------------|
D|------------------------14----12-14--(12)-|---------------------14----12-14-----12-|
A|---------------------------14-------------|------------------------14--------------|
E|------------------------------------------|----------------------------------------|
|
e|------------------------------------------|---------------------------------x-3----|
B|------------------------------------------|---------------------------------x-3----|
G|-2b4==(2)r========(2)p0-------------------|--2b4====(2)r=(2)p=0--------------------|
D|-------------------------2-----0--2-------|----------------------2-----0--2--------|
A|------------------------------------------|----------------------------------------|
E|----------------------------0----------0--|-------------------------0--------------|


PM| ~~ PM PM ~~
e|-------------------------------------|---------------------------------------|
B|-------------------------------------|---------------------------------------|
G|-14b16==(14)r(14)p12-------12--------|-14b16==(14)r(14)p12-------------------|
D|---------------------14----12-14--12-|---------------------14----12-14-----x-|
A|------------------------14-----------|------------------------14-------------|
E|-------------------------------------|---------------------------------------|
|
e|-------------------------------------|---------------------------------x-3---|
B|-------------------------------------|---------------------------------x-3---|
G|--2b4====(2)r=(2)p=0-----------------|--2b4====(2)r=(2)p=0-------------------|
D|----------------------2-----0--2-----|----------------------2-----0--2-------|
A|-------------------------------------|---------------------------------------|
E|-------------------------0---------0-|-------------------------0-------------|


PM ~~ PM ~~
e|------------------------------------|----------------------------------------|
B|------------------------------------|----------------------------------------|
G|-14b16==(14)r(14)p12----------------|-14b16==(14)r(14)p12--------------------|
D|---------------------14----12-14--x-|---------------------14----12-14--------|
A|------------------------14----------|------------------------14--------------|
E|------------------------------------|----------------------------------------|
|
e|------------------------------------|---------------------------------x-3----|
B|------------------------------------|---------------------------------x-3----|
G|--2b4====(2)r=(2)p=0----------------|--2b4====(2)r=(2)p=0--------------------|
D|----------------------2-----0--2----|----------------------2-----0--2--------|
A|------------------------------------|----------------------------------------|
E|-------------------------0--------0-|-------------------------0--------------|


PM ~~ PM ~~
e||-------------------------------------|--------------------------------------|
B||o------------------------------------|--------------------------------------|
G||--14b16==(14)r(14)p12----------------|-14b16==(14)r(14)p12------------------|
D||----------------------14----12-14--x-|---------------------14----12-14------|
A||o------------------------14----------|------------------------14------------|
E||-------------------------------------|--------------------------------------|
|
e||-------------------------------------|---------------------------------x-3--|
B||o------------------------------------|---------------------------------x-3--|
G||---2b4====(2)r=(2)p=0----------------|--2b4====(2)r=(2)p=0------------------|
D||-----------------------2-----0--2----|----------------------2-----0--2------|
A||o------------------------------------|--------------------------------------|
E||--------------------------0--------0-|-------------------------0------------|


PM ~~ PM ~~
e|------------------------------------|--------------------------------------------||
B|------------------------------------|--------------------------------------------||
G|-14b16==(14)r(14)p12----------------|-14b16==(14)r(14)p12-------12---------------||
D|---------------------14----12-14----|---------------------14----12-14-----(14)\--||
A|------------------------14----------|------------------------14------------------||
E|------------------------------------|--------------------------------------------||
|
e|------------------------------------|---------------------------------x-3--------||
B|------------------------------------|---------------------------------x-3--------||
G|--2b4====(2)r=(2)p=0----------------|--2b4====(2)r=(2)p=0------------------------||
D|----------------------2-----0--2----|----------------------2-----0--2------------||
A|------------------------------------|--------------------------------------------||
E|-------------------------0--------0-|-------------------------0------------------||


[Verse 1/2]

Gtr I
e|---------------------------|---------------------------|
B|---------------------------|---------------------------|
G|-2b4==(2)r(2)p0------------|-2b4==(2)r(2)p0------------|
D|----------------2---0-2----|----------------2---0-2----|
A|---------------------------|---------------------------|
E|------------------0------0-|------------------0------0-|


e|---------------------------|----------------------------|
B|---------------------------|----------------------------|
G|-2b4==(2)r(2)p0------------|-2b4==(2)r(2)p0-------------|
D|----------------2---0-2----|----------------2---0-2-----|
A|---------------------------|----------------------------|
E|------------------0------0-|------------------0------0--|


e|---------------------------|---------------------------|
B|---------------------------|---------------------------|
G|-2b4==(2)r(2)p0------------|-2b4==(2)r(2)p0------------|
D|----------------2---0-2----|----------------2---0-2----|
A|---------------------------|---------------------------|
E|------------------0------0-|------------------0------0-|


e|---------------------------|----------------------------|
B|---------------------------|----------------------------|
G|-2b4==(2)r(2)p0------------|-2b4==(2)r(2)p0-------------|
D|----------------2---0-2----|----------------2---0-2-----|
A|---------------------------|----------------------------|
E|------------------0------0-|------------------0------0--|


Gtr II
PM| ~~ PM| ~~
e|------------------------------------|------------------------------------|
B|------------------------------------|------------------------------------|
G|------17pb19r(17)p15----------------|------17pb19r(17)p15----------------|
D|---------------------17----15-17----|---------------------17----15-17----|
A|------------------------17----------|------------------------17----------|
E|------------------------------------|------------------------------------|
|
| Gtr I
| PM
e|------------------------------------|------------------------------------|
B|------------------------------------|------------------------------------|
G|-5b7==(5)r====(5)p=3----------------|-5b7==(5)r====(5)p=3----------------|
D|----------------------5-----3--5----|----------------------5-----3--5----|
A|------------------------------------|------------------------------------|
E|-------------------------3--------3-|-------------------------3--------3-|


PM| ~~
e|------------------------------------|-----------------------------------|
B|------------------------------------|-----------------------------------|
G|------17pb19r(17)p15----------------|-----------------------------------|
D|---------------------17----15-17----|-x-17-x-15-x-14-(14)-x-15-x-17-x---|
A|------------------------17----------|-----------------------------------|
E|------------------------------------|-----------------------------------|
|
| PM
e|------------------------------------|-----------------------------------|
B|------------------------------------|-----------------------------------|
G|-5b7==(5)r====(5)p=3----------------|-x--5-x--4-x--3--(3)-x--2-x--4-x---|
D|----------------------5-----3--5----|------------------------2----------|
A|------------------------------------|-----------------------------------|
E|-------------------------3--------0-|-----------------------------------|


Gtr I
e|---------------------------|---------------------------|
B|---------------------------|---------------------------|
G|-2b4==(2)r(2)p0------------|-2b4==(2)r(2)p0------------|
D|----------------2---0-2----|----------------2---0-2----|
A|---------------------------|---------------------------|
E|------------------0------0-|------------------0------0-|


e|---------------------------|----------------------------|
B|---------------------------|----------------------------|
G|-2b4==(2)r(2)p0------------|-2b4==(2)r(2)p0-------------|
D|----------------2---0-2----|----------------2---0-2-----|
A|---------------------------|----------------------------|
E|------------------0------0-|------------------0------0--|


Gtr II
e|-------------------|------------------||
B|-------------------|------------------||
G|-------------------|------------------||
D|-------------------|------------------||
A|-------------------|------------------||
E|-------------------|------------------||
|
| Gtr I
e|---0-0--(0)--(0)---|----0--(0)--------||
B|-3---3--(3)--(3)---|-2--2--(2)---(2)/-||
G|-4---4--(4)--(4)s2-|-2--2--(2)---(2)/-||
D|-------------------|------------------||
A|-------------------|------------------||
E|-------------------|------------------||


[Chorus]

e|--------------------------|--------------------------|
B|-12-12--------------------|-12-12S15-12-(12)-(12)\---|
G|-13-13-11-13-(13)-(13)\---|-13-13S16-13-(13)-(13)\---|
D|-14-14-12-14-(14)-(14)\---|-14-14S17-14-(14)-(14)\---|
A|--------------------------|--------------------------|
E|--------------------------|--------------------------|
|
e|--------------------------|--------------------------|
B|-12-12--------------------|-12-12S15-12-(12)-(12)\---|
G|-13-13-11-13-(13)-(13)\---|-13-13S16-13-(13)-(13)\---|
D|-14-14-12-14-(14)-(14)\---|-14-14S17-14-(14)-(14)\---|
A|--------------------------|--------------------------|
E|--------------------------|--------------------------|


1.
e|----------------|------------|
B|----------------|------------|
G|----------------|------------|
D|----------------|------------|
A|----------------|------------|
E|----------------|------------|
|
e|---0-0--(0)---0-|-(0)--------|
B|-3---3--(3)---2-|-(2)--------|
G|-4---4--(4)---2-|-(2)--------|
D|--------------2-|-(2)--------|
A|----------------|------------|
E|----------------|------------|


e|----------------------------|----------------------------|
B|----------------------------|----------------------------|
G|----------------------------|----------------------------|
D|--------------------12------|----------------------------|
A|----------------------------|----------------------------|
E|----------------------------|----------------------------|
|
e|----------------------------|------------------------x-3-|
B|----------------------------|------------------------x-3-|
G|-2b4==(2)r(2)p0-------------|-2b4==(2)r(2)p0-------------|
D|----------------2----0-2----|----------------2---0-2-----|
A|----------------------------|----------------------------|
E|------------------0-------0-|------------------0---------|


~~
e|-----------------------------------|
B|-----------------------------------|
G|------14pb16r(14)p12---------------|
D|---------------------14---12-14----|
A|------------------------x----------|
E|-----------------------------------|
|
e|-----------------------------------|
B|-----------------------------------|
G|-2b4==(2)r====(2)p=0---------------|
D|----------------------2----0--2----|
A|-----------------------------------|
E|------------------------0--------0-|


2.
~~
e|-------------------------------------------||-----------|--------||
B|------------------------------------------o||-----------|--------||
G|------14pb16r(14)p12-----------------------||-----------|--------||
D|---------------------14---12-14-----(14)\--||-----------|--------||
A|------------------------x-----------------o||-----------|--------||
E|-------------------------------------------||-----------|--------||
|
e|--------------------------------x-3--------||--0--------|-(0)----||
B|--------------------------------x-3-------o||--2--------|-(2)----||
G|-2b4==(2)r====(2)p=0-----------------------||--2--------|-(2)----||
D|----------------------2----0--2------------||--2--------|-(2)----||
A|------------------------------------------o||-----------|--------||
E|------------------------0------------------||-----------|--------||


[Interlude]

Gtr I
e|------7------7-|--------------------|------7------7-|---------------------|
B|-9--x-7--x-x-7-|---x-5-(5)-7-5-(5)/-|-9--x-7--x-x-7-|--x-x-5-(5)-7-5-(5)/-|
G|-9--x-7--x-x-7-|---x-6-(6)-7-6-(6)/-|-9--x-7--x-x-7-|--x-x-6-(6)-7-6-(6)/-|
D|-9--x-7--x-x-7-|---x-7-(7)-7-7-(7)/-|-9--x-7--x-x-7-|--x-x-7-(7)-7-7-(7)/-|
A|---------------|--------------------|---------------|---------------------|
E|---------------|--------------------|---------------|---------------------|


e|------7------7-|--------------------|------7------7-|---------------------||
B|-9--x-7--x-x-7-|---x-5-(5)-7-5-(5)/-|-9--x-7--x-x-7-|--x-x-5-(5)-7-5-(5)/-||
G|-9--x-7--x-x-7-|---x-6-(6)-7-6-(6)/-|-9--x-7--x-x-7-|--x-x-6-(6)-7-6-(6)/-||
D|-9--x-7--x-x-7-|---x-7-(7)-7-7-(7)/-|-9--x-7--x-x-7-|--x-x-7-(7)-7-7-(7)/-||
A|---------------|--------------------|---------------|---------------------||
E|---------------|--------------------|---------------|---------------------||


[Guitar Solo]

Gtr II
~~~~~~~
e|--------------------------|------------------------------------------|
B|--------------------------|------------------------------------------|
G|-----------------12h14-12-|-(12)----12b14==(12)r---------------------|
D|-12-14-(14)---------------|----------------------------14p12------12-|
A|--------------------------|----------------------------------14------|
E|--------------------------|------------------------------------------|
|
| Gtr I
e|------------7-----------7-|------------------------------------------|
B|--9------x--7--x--x-----7-|-------x--5-----------(5)-7--5----(5)/----|
G|--9------x--7--x--x-----7-|-------x--6-----------(6)-7--6----(6)/----|
D|--9------x--7--x--x-----7-|-------x--7-----------(7)-7--7----(7)/----|
A|--------------------------|------------------------------------------|
E|--------------------------|------------------------------------------|


~~
e|--------------------------------|-------------------------------------|
B|--------------------------------|-------------------------------------|
G|--------------------------------|-------------------------------------|
D|-14-----------------------------|-------------------------------9-----|
A|-----14s12---12-10---11---------|-------------------------4s11--------|
E|------------------------12---12-|-10h12-10h12---(12)\-----------------|
|
e|-----------7---------------7----|-------------------------------------|
B|--9------x-7-------x-----x-7----|-----------x-x---5---(5)-7--5-(5)/---|
G|--9------x-7-------x-----x-7----|-----------x-x---6---(6)-7--6-(6)/---|
D|--9------x-7-------x-----x-7----|-----------x-x---7---(7)-7--7-(7)/---|
A|--------------------------------|-------------------------------------|
E|--------------------------------|-------------------------------------|


e|-----------------------------------------|
B|-----------------------------------------|
G|------------------9-11--11pb13r(11)p9----|
D|----11p9----11-11---------------------11-|
A|---------11------------------------------|
E|-----------------------------------------|
|
e|----------7-------------------------7----|
B|-9---x----7----------x---x----------7----|
G|-9---x----7----------x---x----------7----|
D|-9---x----7----------x---x----------7----|
A|-----------------------------------------|
E|-----------------------------------------|


~~~~~~~~~~~~~
e|--------------------12---------------------|-------15--------------15-17---(17)b19==|
B|--------------12h14-----12-15s17-(17)-17---|-17-17----17---17-----------------------|
G|-9h11p9-11s13------------------------------|--------------------16------------------|
D|-------------------------------------------|----------------------------------------|
A|-------------------------------------------|----------------------------------------|
E|-------------------------------------------|----------------------------------------|
|
e|-------------------------------------------|-------------7---------------7----------|
B|---------x-----5----(5)--------7---5--(5)/-|--9-----x----7----x-----x----7----------|
G|---------x-----6----(6)--------7---6--(6)/-|--9-----x----7----x-----x----7----------|
D|---------x-----7----(7)--------7---7--(7)/-|--9-----x----7----x-----x----7----------|
A|-------------------------------------------|----------------------------------------|
E|-------------------------------------------|----------------------------------------|


~~
e|-(17)r---17b19==(17)r---17b19==(17)r---17b19==(17)r------|-17b19==(17)r-15------------------------|
B|---------------------------------------------------------|-----------------17---17---17b21==(17)r-|
G|---------------------------------------------------------|----------------------------------------|
D|---------------------------------------------------------|----------------------------------------|
A|---------------------------------------------------------|----------------------------------------|
E|---------------------------------------------------------|----------------------------------------|
|
e|---------------------------------------------------------|--------------------7---------------7---|
B|-------x----------x---5---------(5)--7----------5---(5)/-|----------9-------x-7----x--x-------7---|
G|-------x----------x---6---------(6)--7----------6---(6)/-|----------9-------x-7----x--x-------7---|
D|-------x----------x---7---------(7)--7----------7---(7)/-|----------9-------x-7----x--x-------7---|
A|---------------------------------------------------------|----------------------------------------|
E|---------------------------------------------------------|----------------------------------------|


e|--------------------------------------------------------------------------------|
B|--17b20==(17)r---17b20==(17)r---17b20==(17)r---17b20==(17)r-(17)-17b20==(17)r---|
G|--------------------------------------------------------------------------------|
D|--------------------------------------------------------------------------------|
A|--------------------------------------------------------------------------------|
E|--------------------------------------------------------------------------------|
|
e|--------------------------------------------------------------------------------|
B|---------------x--------------5---------(5)--7----------------5----------(5)/---|
G|---------------x--------------6---------(6)--7----------------6----------(6)/---|
D|---------------x--------------7---------(7)--7----------------7----------(7)/---|
A|--------------------------------------------------------------------------------|
E|--------------------------------------------------------------------------------|


~~~~~~~
e|----------------------------------------------|----------------------12------------------12----------------|
B|-17b20==(17)r(17)p15----15-(15)-17------------|-------------------12-----12-15b17==(15)r----15-12----------|
G|---------------------16------------16s14p12---|12h14p12----12-14------------------------------------14b16==|
D|--------------------------------------------14|---------14-------------------------------------------------|
A|----------------------------------------------|------------------------------------------------------------|
E|----------------------------------------------|------------------------------------------------------------|
|
e|-------------------------7----------------7----|-----------------------------------------------------------|
B|----------9-----------x--7-------x--x-----7----|-----------x----5----(5)-----7------------5----(5)/--------|
G|----------9-----------x--7-------x--x-----7----|-----------x----6----(6)-----7------------6----(6)/--------|
D|----------9-----------x--7-------x--x-----7----|-----------x----7----(7)-----7------------7----(7)/--------|
A|-----------------------------------------------|-----------------------------------------------------------|
E|-----------------------------------------------|-----------------------------------------------------------|


e|----------12-----------------12-----------------------12------------------|
B|-------12----12-15b17==(15)r----15-12--------------12----12-15b17==(15)r--|
G|-(14)r--------------------------------14b16==(14)r------------------------|
D|--------------------------------------------------------------------------|
A|--------------------------------------------------------------------------|
E|--------------------------------------------------------------------------|
|
e|------------------------------7------------------------------7------------|
B|---9-------------x------------7----------------x-------x-----7------------|
G|---9-------------x------------7----------------x-------x-----7------------|
D|---9-------------x------------7----------------x-------x-----7------------|
A|--------------------------------------------------------------------------|
E|--------------------------------------------------------------------------|


e|-12----12--------------12------------12--------------12--------------12-|
B|----15----15b17==(15)r----15b17-(15)----15b17==(15)r----15b17==(15)r----|
G|------------------------------------------------------------------------|
D|------------------------------------------------------------------------|
A|------------------------------------------------------------------------|
E|------------------------------------------------------------------------|
|
e|------------------------------------------------------------------------|
B|--------x----------x----5--------(5)-----7------------5---------(5)/----|
G|--------x----------x----6--------(6)-----7------------6---------(6)/----|
D|--------x----------x----7--------(7)-----7------------7---------(7)/----|
A|------------------------------------------------------------------------|
E|------------------------------------------------------------------------|


~~~~
e|-15p12----12--------------------------------------------------------|--------------|
B|-------15----15p12----15-12----12-----------------------------------|--------------|
G|-------------------14-------14----14b16==(14)-(14)r(14)p12----12-14-|-12---(12)----|
D|-----------------------------------------------------------14-------|--------------|
A|--------------------------------------------------------------------|--------------|
E|--------------------------------------------------------------------|--------------|
|
e|--------------------7-----------------------------------------------|--------------|
B|--9-----------x-----7-----------x---------------x-----------7-------|-(7)----------|
G|--9-----------x-----7-----------x---------------x-----------7-------|-(7)----------|
D|--9-----------x-----7-----------x---------------x-----------7-------|-(7)----------|
A|------------------------------------------------------------5-------|-(5)----------|
E|--------------------------------------------------------------------|--------------|


~~~~
e|------------------------|
B|------------------------|
G|-(12)----------(12)\----|
D|------------------------|
A|------------------------|
E|------------------------|
|
e|------------------------|
B|--(7)-------------------|
G|--(7)-------------------|
D|--(7)-------------------|
A|--(5)----x-4-x---5---7\-|
E|------------------------|


2/4
~~
8x
e||----------------------------------------||----------|------|
B||o--------------------------------------o||----------|------|
G||-------14pb16r(14)p12-------------------||----------|------|
D||----------------------14------12-14-----||----------|------|
A||o------------------------(14)----------o||----------|------|
E||----------------------------------------||----------|------|
|
| 8x
e||----------------------------------------||-0--------|-0----|
B||o--------------------------------------o||-3--------|-2----|
G||--2b4==(2)r====(2)p=0-------------------||-4--------|-2----|
D||-----------------------2-------0--2-----||----------|------|
A||o--------------------------------------o||----------|------|
E||---------------------------0---------0--||----------|------|


[Post-Chorus]

4/4
e|--------------|------------||--------------------------|
B|--------------|------------||-12-12--------------------|
G|--------------|------------||-13-13-11-13-(13)-(13)\---|
D|--------------|------------||-14-14-12-14-(14)-(14)\---|
A|--------------|------------||--------------------------|
E|--------------|------------||--------------------------|
|
e|--------------|------------||--------------------------|
B|-3----(3)---5-|-(5)--------||-12----10-12-(12)-(12)\---|
G|-4----(4)---2-|-(2)--------||-13----11-13-(13)-(13)\---|
D|-5----(5)-----|------------||-14----12-14-(14)-(14)\---|
A|--------------|------------||--------------------------|
E|--------------|------------||--------------------------|


e|-------------------------------|
B|-12----------------------------|
G|-13-------/16-13-(13)----------|
D|-14----14-/17-14-(14)-(14)\----|
A|-------------------------------|
E|-------------------------------|
|
e|-------------------------------|
B|-12-12-12S=15-12-(12)-(12)\----|
G|-13-13-13S=16-13-(13)-(13)\----|
D|-14-14-14S=17-14-(14)-(14)\----|
A|-------------------------------|
E|-------------------------------|


Gtr I
e|-0-------0-|-(0)------(0)-(0)-(0)-|-(0)-(0)-(0)-(0)-(0)-(0)-(0)-(0)-|
B|-3-------2-|-(2)------(2)-(2)-(2)-|-(2)-(2)-(2)-(2)-(2)-(2)-(2)-(2)-|
G|-4-------2-|-(2)------(2)-(2)-(2)-|-(2)-(2)-(2)-(2)-(2)-(2)-(2)-(2)-|
D|---------2-|-(2)------(2)-(2)-(2)-|-(2)-(2)-(2)-(2)-(2)-(2)-(2)-(2)-|
A|-----------|----------------------|---------------------------------|
E|-----------|----------------------|---------------------------------|


e|-(0)-(0)-(0)------|-(0)------------*|
B|-(2)-(2)-(2)------|-(2)------------*|
G|-(2)-(2)-(2)------|-(2)------------*|
D|-(2)-(2)-(2)------|-(2)------------*|
A|------------------|----------------*|
E|------------------|--------5s0-----*|



************************************

| x Dead note
| (n) Ghost note
| h Hammer-on
| p Pull-off
| b Bend
| pb Pre-bend
| / Slide up
| \ Slide down
| s Slap

************************************
Tunning: Standard (E A D G B e)
(Main riff Guitar 1)
(Don't play power chord when singing is going on)
e|------------------|---------------------------|
B|------------------|---------------------------|
G|------------------|----------------7----------|
D|-5^7^5-5----------|-5^7^5-5--------7----------|
A|---------7-5-7----|---------7-5-7--5----------|
E|------------------|---------------------------|


(Guitar 2 riff)

(Comes in after you play the main riff 4 times)

e|----------------------|
B|----------------------|
G|-12^14^12-12----------|
D|-------------14-12-14-|
A|----------------------|
E|----------------------|

3rd riff

(Come in on the lyrics...)

So that's why....

e|------------------------|
B|------------------------|
G|-15^17^15-15------------|
D|-------------17-15-17---|
A|------------------------|
E|------------------------|


Chords

(Play these BAR! chords after these lyrics...)


1st time: We've got to breath and have some fun!
2nd time:...And kill each other one by one!


A G A E D E
e--5---|--3---|--5---|--7---|--5---|--7---|
B--5---|--3---|--5---|--9---|--7---|--9---|
G--6---|--4---|--6---|--9---|--7---|--9---|
D--7---|--5---|--7---|--9---|--7---|--9---|
A--7---|--5---|--7---|--7---|--5---|--7---|
E--5---|--3---|--5---|--x---|--x---|--x---|

(1st time)

Oh so now i've played, i've played this game, and i won't stop until im

done!

D A E D A
But what i really want to know is...Are you gonna go my way!?

E D
And I got to, got to know!


(2nd time)


We've got to hold and luvva dub we've got to dance and be in love

D A E D A
But what i really want to know is...Are you gonna go my way!?

E D D E A D E A.....
And i got to, got to know....
Song info
Are You Gonna Go My Way
Lenny Kravitz
2001
  • Rock
  • Pop Rock
  • Rock & Roll
  • Soft Rock
Alternative tracks
Similar songs
Follow you - Bring Me the Horizon
Last Train Home - Lostprophets
Bad Bad Leroy Brown - Jim Croce
Bird Of Paradise - Snowy White

Hi! Hope you enjoy backing track experience.
If you want to help us in the development of the project, feel free to donate!