Fly Away - Lenny Kravitz
00:00 / 00:00
Tabs and lyrics
Tunning: Standard (E A D G B e)
e--------------------------------------
B--------------------------------------
G--------------------------------------
D--------------------------------------
A--55555-7--8-8-8-8-8-55555-1212121212-
E--77777-9-1010101010-33333-1010101010-

Thats basically it!!
Tunning: Standard (E A D G B e)
[Intro/Main Riff] *At (0:14) have two guitar's playing the Riff*

e|------------------------------------------------------------|
B|------------------------------------------------------------|
G|-----------------------------------------------x-7--7-7-7-7-|
D|--7--7-7-7-7--9-x-10--10-10-10-10-x-5--5-5-5-5-x-7--7-7-7-7-|
A|--7--7-7-7-7--9-x-10--10-10-10-10-x-5--5-5-5-5-x-5--5-5-5-5-|
E|--5--5-5-5-5--7-x--8---8--8--8--8-x-3--3-3-3-3--------------|

(0:24)
Fill lyrics "I wish that i could fly into the sky so very high just like a dragon fly"

(0:37)
Fill/2 Lyrics "Fly above the trees over sea's and over green to anywhere i please Oh!!!! "

(0:48)
Play the Main Riff 12 times
e|------------------------------------------------------------|
B|------------------------------------------------------------|
G|-----------------------------------------------x-7--7-7-7-7-|
D|--7--7-7-7-7--9-x-10--10-10-10-10-x-5--5-5-5-5-x-7--7-7-7-7-|
A|--7--7-7-7-7--9-x-10--10-10-10-10-x-5--5-5-5-5-x-5--5-5-5-5-|
E|--5--5-5-5-5--7-x--8---8--8--8--8-x-3--3-3-3-3--------------|

(2:00)
After he say's "Yeah!" play this
e|---17\------|
B|------------|
G|------------|
D|------------|
A|------------|
E|------------|

Fill/3 *Quiet part* Lyrics " i gotta get away.......girl i gotta get away"

Oh!...Oh!...Oh Yeah!!!

Play the Main riff 12 times until song ends
(2:24)
e|------------------------------------------------------------|
B|------------------------------------------------------------|
G|-----------------------------------------------x-7--7-7-7-7-|
D|--7--7-7-7-7--9-x-10--10-10-10-10-x-5--5-5-5-5-x-7--7-7-7-7-|
A|--7--7-7-7-7--9-x-10--10-10-10-10-x-5--5-5-5-5-x-5--5-5-5-5-|
E|--5--5-5-5-5--7-x--8---8--8--8--8-x-3--3-3-3-3--------------|

Yeah! Yeah! Yeah! Yeah! Yeah!!!!..........end of song



************************************

| x Dead note
| \ Slide down

************************************
Tunning: Standard (E A D G B e)
Lenny Kavitz,fly away.
Tabbed by tim panton, timpanton@hotmail.com.

e|----------------------------------------|
b|----------------------------------------|
g|----------------------------------------|
d|-7-7-7-7-7/9/10-10-10-10-5-5-5-5-7-7-7-7|
a|-7-7-7-7-7/9/10-10-10-10-5-5-5-5-5-5-5-5|
e|-5-5-5-5-5/7/-8--8--8--8-3-3-3-3--------|
Tunning: Standard (E A D G B e)
Tabbed by: Gabrielle
Email: gabrielle.on.guitar@gmail.com

Tuning: Standard

This song is all power chords and very easy.

G5 A#5 F5 C5

Repeats throughout the whole song.
(Listen to song for strumming pattern)

G5 A#5 F5 C5
e |-------x------x------x------x----------------|
B |-------x------x------x------x----------------|
G |-------x------x------x------x----------------|
D |-------5------8------3----- 11---------------|
A |-------5------8------3----- 11---------------|
E |-------3------6------1------9----------------|


Emails welcome - Criticisms and corrects are much appreciated.
Song info
Fly Away
Lenny Kravitz
2001
  • Rock
  • Acoustic
  • Pop Rock
Alternative tracks
Similar songs
Good Vibrations - The Beach Boys
Imagine - John Lennon
Good Good - Florida Georgia Line
I Wont Back Down - Tom Petty
Futile - Porcupine Tree

Hi! Hope you enjoy backing track experience.
If you want to help us in the development of the project, feel free to donate!