La Bamba - Los Lobos
00:00 / 00:00
Tabs and lyrics
Tunning: Standard (E A D G B e)
[Intro]

e|--------------------------------------------|
B|--------------------------------------------|
G|------------------0------2---0--------------|
D|--------0------2------3---------------------|
A|-----2------3-------------------------------|
E|--3-----------------------------------------|

e|------------------------------------------------|
B|------------------------------------------------|
G|--------------------------------0------2---0----|
D|--------0----3--3--2--0------2------3-----------|
A|-----2--------------------3---------------------|
E|--3---------------------------------------------|


[Riff 1]

C F
e|------------------------------------------------|
B|------------------------------------------------|
G|-----0------2--0--------------------------------|
D|---2-----3--------------------------------------|
A|-3----------------------------------------------|
E|------------------------------------------------|


[Riff 2]

C C F G
e|------------------------------------------------|
B|------------------------------------------------|
G|-------------------------------0------2--0------|
D|--------0---3--3--2---0-----2------3------------|
A|-----2-------------------3----------------------|
E|--3---------------------------------------------|


Now is time to play!


[Intro]


[Verse]
(riff 1)
Para bailar la bamba
(Riff 2)
Para bailar la bamba se necesita
Una poca de gracia
Una poca de gracia pa mi pa ti
ay arriba y arriba
Ay arriba y arriba por ti sere por ti sere


[Chorus]
(riff 1)
Yo no soy marinero
(riff 2)
Yo no soy marinero soy capitan
Soy capitan
Soy capitan

(riff 2)
Bamba,Bamba
Bamba,Bamba
Bamba,Bamba
Bamba,Bamba


[Intro]


[Verse]
(riff 1)
Para bailar la bamba
(riff 2)
Para bailar la bamba se necesita
Una poca de gracia
Una poca de gracia pa mi pa ti
ay arriba y arriba
Ay arriba y arriba por ti sere por ti sere


[Chorus]
(riff 1)
Yo no soy marinero
(riff 2)
Yo no soy marinero soy capitan
Soy capitan
Soy capitan

(riff 2)
Bamba,Bamba
Bamba,Bamba
Bamba,Bamba
Bamba,Bamba


[Outro]
Play intro the number of times you want.
Tunning: Standard (E A D G B e)
La Bamba-los lobos

hey,i was seeking for the tab la bamba but there wasn't a good one, so i tabbed one
it's a version that is based on the melodie of la bamba but it isn't the real version. it's fingerpicking.

Tuning: normaal E-A-D-G-B-e (low to high)
Chords: C-F-G

e|----------------------|-----------------------|-1-1-1-1—-1-0-|
B|----------------------|-----------------------|--------------|
G|-------------0---2-0--|--------------0---2-0--|--------------|
D|-----------2---3------|-----03320---2--3------|--------------|
A|----0-2-3-------------|--2--------3-----------|--------------|
E|-3--------------------|3----------------------|--------------|

e|------------------1-1-1-1--1-|-0-------------------1-0-----|
B|----1-------1----------------|---1--1-1--1--3-0--3-----3---|
G|----------2---2-0-------0----|-0------2-----0----0---------|
D|------2-3--------------------|--------3--------------------|
A|-3----------------------2----|-3-----------------2---------|
E|----------------3------------|-----------------------------|

e|-0----------------1-1-1-1-1-|-0-------------------1-0-----|
B|---1--------1---------------|----1-1-1-1-1-3----3-----3---|
G|-0--------2---2-0-----0-----|-0------2-------0--0---------|
D|------2-3-------------------|--------3--------------------|
A|-3--------------------2-----|-3-----------------2---------|
E|----------------3-----------|-----------------------------|


e|-0----------------1-1-1-1-1-|-0----------------------1---|
B|---1--------1---------------|---1--1-1—-1-3----0--3------|
G|-0--------2---2-0-----0-----|-0------2------0-----0------|
D|------2-3-------------------|--------3-------------------|
A|-3--------------------2-----|-3-------------------2------|
E|----------------3-----------|----------------------------|

e|-0--0-----------1-1-1-1-1-|-0---------------1-1-1-1-1----|
B|-------1------------------|---1-------1------------------|
G|-0--------2-0-------0-----|-0-------2---2-0-----0--------|
D|-------3------------------|-----2-3----------------------|
A|-3------------------2-----|-3----------------------------|
E|--------------3-----------|---------------3-----2--------|

e|-0-----------------------1-|-0--0-------------------------|
B|---1--1-1--1-3-----0--3----|-------1----------------------|
G|-0------2-------0-----0----|-0--------2-0-----------------|
D|--------3------------------|-------3----------0-3-3-2-0---|
A|-3--------------------3----|-3--------------2-------------|
E|---------------------------|--------------3---------------|

e|--------------------------------|-0------------------------------|
B|-1------------0-----------------|--------1-----3-3---------------|
G|------0-2-------0---------------|------0----2--0-----------------|
D|----2---3--3--------0-2-3-3-2-0-|----2---3-----------0-2-3-3-2-0-|
A|-3------------3---2-------------|-3----------------2-------------|
E|--------------------------------|--------------------------------|

e|-0---------------------------|----------------1-1-1-1--1-0---|
B|-------1-----3-3-------------|-------------------------------|
G|-----0----2--0---------------|------0----2-0-----------------|
D|---2---3---------------------|----2---3----------------------|
A|-3---------------0-2-3-3-2-0-|-3-----------------------------|
E|-----------------------------|-------------------------------|

e|------------------1-1-1-1--1-|-0-------------------1-0-------|
B|----1-------1----------------|---1--1-1--1--3-0--3-----3-----|
G|----------2---2-0-------0----|-0------2-----0----0-----------|
D|------2-3--------------------|--------3----------------------|
A|-3----------------------2----|-3-----------------2-----------|
E|----------------3------------|-------------------------------|

e|-0----------------1-1-1-1-1-|-0-------------------1-0-----|
B|---1--------1---------------|----1-1-1-1-1-3----3-----3---|
G|-0--------2---2-0-----0-----|-0------2-------0--0---------|
D|------2-3-------------------|--------3--------------------|
A|-3--------------------2-----|-3-----------------2---------|
E|----------------3-----------|-----------------------------|


e|-0----------------1-1-1-1-1-|-0----------------------1---|
B|---1--------1---------------|---1--1-1—-1-3----0--3------|
G|-0--------2---2-0-----0-----|-0------2------0-----0------|
D|------2-3-------------------|--------3-------------------|
A|-3--------------------2-----|-3-------------------2------|
E|----------------3-----------|----------------------------|

e|-0--0-----------1-1-1-1-1-|-0---------------1-1-1-1-1----|
B|-------1------------------|---1-------1------------------|
G|-0--------2-0-------0-----|-0-------2---2-0-----0--------|
D|-------3------------------|-----2-3----------------------|
A|-3------------------2-----|-3----------------------------|
E|--------------3-----------|---------------3-----2--------|

e|-0-----------------------1-|-0--0-------------------------|
B|---1--1-1--1-3-----0--3----|-------1----------------------|
G|-0------2-------0-----0----|-0--------2-0-----------------|
D|--------3------------------|-------3----------0-3-3-2-0---|
A|-3--------------------3----|-3--------------2-------------|
E|---------------------------|--------------3---------------|

e|--------------------------------|-0------------------------------|
B|-1------------0-----------------|--------1-----3-3---------------|
G|------0-2-------0---------------|------0----2--0-----------------|
D|----2---3--3--------0-2-3-3-2-0-|----2---3-----------0-2-3-3-2-0-|
A|-3------------3---2-------------|-3----------------2-------------|
E|--------------------------------|--------------------------------|

e|-0---------------------------|-0----------------------------|
B|-------1-----3-3-------------|--------1-----3-3-0-----------|
G|-----0----2--0---------------|------0----2--0-----0---------|
D|---2---3---------------------|----2---3-------------3-3-2-0-|
A|-3---------------0-2-3-3-2-0-|-3----------------------------|
E|-----------------------------|------------------------------|

e|-----------------0-|
B|-----1-----0-----1-|
G|---0-----0-------0-|
D|-------0-------0-2-|
A|-3---------------3-|
E|-------------3-----|

mail me or comment if there are bad things.
Tunning: Nashville (E A D G B E)
These are the chords played throughout the song

[Intro]
E|----------------------------||----------------------------|
B|----------------------------||----------------------------|
G|----------------0-----2--0--||----------------------------|
D|-------------2----3---------||-------0---3--3--2---0------|
A|----0--2--3-----------------||----2-----------------------|
E|-3--------------------------||-3--------------------------|

E|----------------------------|
B|----------------------------|
G|----------0-----2--0--------|
D|-------2-----3--------------|
A|---3------------------------|
E|----------------------------|

C F G C
Para bailar la bamba, Para bailar la bamba,

F G C F G C F
se necesita un poca de gracia, una poca de gracia para mi para
G C F G C F G
ti y ariba y ariba, ay ariba ariba por ti se re
C F G
por ti se re, por ti se re
C F G C
yo no soy marinero, yo no soy marinero

F G C F G
soy capitan, soy capitan, soy capitan
C F G
bamba, bamba
C F G
bamba, bamba
C F G
bamba, bamba
C F G
bamba

C F G C
Para bailar la bamba, Para bailar la bamba,
F G C F G C F
se necesita un poca de gracia, una poca de gracia para mi para
G C F G
ti y ariba y ariba

[Solo]
E|----------------------------|-----------------------------|
B|----------------------------|----------0(h)1--0------0----|
G|-------(tr)-0---------------|-0--2-4-------------2-----2--|
D|----------------------------|-----------------------------|
A|----------------------------|-----------------------------|
E|----------------------------|-----------------------------|

E|-----------------------------|-----------------------------|
B|-----------------------------|-----------------------------|
G|-----2--0-----0--------0-----|-----------------------------|
D|-----------3-----2--3------2-|---3--0--2----0--------------|
A|-----------------------------|------------3---2--3--0------|
E|-----------------------------|-----------------------------|

E|----------------------------|-----------------------0--1--|
B|----------------------------|--------------0--1--3--------|
G|----------------------------|--------0--2-----------------|
D|-------------------------0--|--2--3-----------------------|
A|-2-----0--------0--2--3-----|-----------------------------|
E|----3-----1--3--------------|-----------------------------|

(tremolo for bar and a half)
E|-----0--1--(tr)3------------|-----------------------------|
B|--3-------------------------|-----------------------------|
G|----------------------------|-----------------------------|
D|----------------------------|-----------------------------|
A|----------------------------|-----------------------------|
E|----------------------------|-----------------------------|

(as soon as you come out of the
tremolo from previous bar, slide
up to the 12 fret then back
without picking)

E|--------3/12\3--------------|-5--3(h)5(p)3\1-1(h)3(p)1(p)0-|
B|----------------------------|------------------------------|
G|----------------------------|------------------------------|
D|----------------------------|------------------------------|
A|----------------------------|------------------------------|
E|----------------------------|------------------------------|

E|-1-----0--------0--------0---|----------------------------|
B|----3-----1--3-----1--3----1-|-3--1(h)3(p)1-----0---------|
G|-----------------------------|------------2-----0---------|
D|-----------------------------|----------------------------|
A|-----------------------------|----------------------------|
E|-----------------------------|----------------------------|

E|----------------------------|----------------------------------|
B|----------------------------|----------------------------------|
G|--2(p)0-----0--------0------|--------0-------0-0-0-0-0-5-0-0-0-|
D|-------------3-----2--3-----|---2--3-----2/3-------------------|
A|----------------------------|----------3-----------------------|
E|----------------------------|----------------------------------|


E|----------------------------|-----------------------------------------|
B|----------------------------|-----------------------------------------|
G|-7p0-7p0-0-0-4p0-0-0-7p0-0-0-5-0-0-0-9-0-0-0-7-0-0-0-9-10-|-10/(tr)12-|
D|----------------------------|-----------------------------------------|
A|----------------------------|-----------------------------------------|
E|----------------------------|-----------------------------------------|

E|----------------------------||----------------------------|
B|----------------------------||----------------------------|
G|----------------0-----2--0--||----------------------------|
D|-------------2----3---------||-------0---3--3--2---0------|
A|----0--2--3-----------------||----2-----------------------|
E|-3--------------------------||-3--------------------------|


E|----------------------------|
B|----------------------------|
G|----------0-----2--0--------|
D|-------2-----3--------------|
A|---3------------------------|
E|----------------------------|

C F G C
Para bailar la bamba, Para bailar la bamba,
F G C F G C F
se necesita un poca de gracia, una poca de gracia para mi para
G C F G C F G
tiy ariba y ariba, ay ariba ariba por ti se re
C F G
por ti se re, por ti se re

C F G
bamba, bamba
C F G
bamba, bamba
C F G
bamba, bamba
C F G
bamba, bamba

[Outro]
(Acoustic)
(finger picking)

e|-0-----0-1----1-3--------3-1-0--0-----0-1----1-3-------3-1-0---------------|
B|-----1-------1------0-3---------3-----1------1-------0-3-------3-----------|
G|---0-------2------0------------------0------2-------0----------------------|
D|---------------------------------------------------------------------------|
A|---------------------------------------------------------------------------|
E|---------------------------------------------------------------------------|

e|-0----0-1----1-3------3-1-0---0----0-1----1-3----0--3-3--3-5-5--3-3--33--1-|
B|----1-------1------0-3-------3-----1------1-------1------------------------|
G|--0-------2------0----------------0------2-------0-------------------------|
D|---------------------------------------------------------------------------|
A|---------------------------------------------------------------------------|
E|---------------------------------------------------------------------------|

e|---0-0--0------------1--1-0--------------------------0----------------------------------------0|
B|----------1------0-3--3-----1--------3--3--3--3--1--3--0-3-1-----3--3----3----3--0-3-1---------|
G|------------2--0---------------0-2--0--4--4--4---------5-------2-0--4--2-4--5----5----------2-0|
D|---------------------------------3-------------------------------------------------------------|
A|-----------------------------------------------------------------------------------------------|
E|-----------------------------------------------------------------------------------------------|

e|-1-1-1--1--1--1---0-0-0--0--0---1-1-1--1---1--0-0-0--0-0-------0-------------------------------|
B|-------0--0---------------1-------------------------------------------1------------------------|
G|--------------2---4-----------2--0--------4--2---4-------5--2--0-0-----------------------------|
D|-----------------------------------------------------------------------------------------------|
A|-----------------------------------------------------------------------------------------------|
E|-----------------------------------------------------------------------------------------------|

e|---3--5-5-5--3--3-3-5-7-8-8--8-8-10-10--10-10--7-7--10-10--8-8--10-10------|
B|---------------------------------------------------------------------------|
G|-4-------------------------------------------------------------------------|
D|---------------------------------------------------------------------------|
A|---------------------------------------------------------------------------|
E|---------------------------------------------------------------------------|


e|--10---7-7-10-10-7--10-10-10-10-10-8-8-8-8-8-10-10-10-10-10-7-7-7-7-7--10-10-10-10-10-|
B|---------------------------------------------------------------------------------------|
G|-0--0---------------0------------------------------------------------------------------|
D|---------------------------------------------------------------------------------------|
A|---------------------------------------------------------------------------------------|
E|---------------------------------------------------------------------------------------|

e|--8-8-8-8-8-10-10-10-10-10-7-7-7-7-7--10-10-10-10--8-8--8-7-5---3--3-3--1--0-0-0-|
B|-----------------------------------------------------------------------------0---|
G|---------------------------------------------------------------------------------|
D|---------------------------------------------------------------------------------|
A|---------------------------------------------------------------------------------|
E|---------------------------------------------------------------------------------|

e|-------1--1--1--8-8-8-7-5---3--3-3-1--0-0--0------1--1--1------------------|
B|-1------0-----------------------------------------1------0-----------------|
G|---2-0-----2----------------0----------------------2-0-----2---------------|
D|---------------------------------------------------------------------------|
A|---------------------------------------------------------------------------|
E|---------------------------------------------------------------------------|

e|-----0--0--0---1--0--0-----------------------------------------------------|
B|------1----------0---------------------------------------------------------|
G|--0------2---0------2---0-0----0-------------------------------------------|
D|------------------------------2-3--3-2-0--2-0------------------------------|
A|---------------------------------------------------------------------------|
E|---------------------------------------------------------------------------|


************************************

(p) pull off
(h) hammer on
/ slide up
\ slide down
(tr) tremolo picking

************************************
Tunning: Standard (E A D G B e)
-------------------------------------------------------------------------------
La Bamba - Los Lobos
-------------------------------------------------------------------------------
Tabbed by: Miguel Torres
E-mail: mtorres480@gmail.com

Tuning: EADGBe

Enjoy :D

e|------------------------------------|
B|------------------------------------|
G|-----------0---2-0------------------|
D|---------2---3-----------0-3-3-2-0--|
A|---0-2-3---------------2------------|
E|-3-------------------3--------------|

e|-------------------------------|
B|-------------------------------|
G|-----0---2-0-------------------| X2
D|---2---3-----------0-3-3-2-0---|
A|-3---------------2-------------|
E|---------------3---------------|

e|--------------|
B|--------------|
G|-----0---2-0--|
D|---2---3------|
A|-3------------|
E|--------------|

e|-1-1-1-1-1-0--------1-1-1-1-1-0----------------1-0---0----|
B|-------------1------------------1--1-1-1-3-0-3-----3---1--|
G|----------------------------------------------------------|
D|----------------------------------------------------------|
A|----------------------------------------------------------|
E|----------------------------------------------------------|

e|-1-1-1-1-1-0----------------1-0---0----|
B|-------------1--1-1-1-3-0-3-----3---1--|
G|---------------------------------------|
D|---------------------------------------|
A|---------------------------------------|
E|---------------------------------------|

e|-1-1-1-1-1-0-------------------1-0-0--------|
B|-------------1-1-1-1-3-----1-3-------3-1-0--|
G|--------------------------------------------|
D|--------------------------------------------|
A|--------------------------------------------|
E|--------------------------------------------|

e|------------------------------------|
B|------------------------------------|
G|-----------0---2-0------------------|
D|---------2---3-----------0-3-3-2-0--|
A|---0-2-3---------------2------------|
E|-3-------------------3--------------|

e|-------------------------------|
B|-------------------------------|
G|-----0---2-0-------------------| X2
D|---2---3-----------0-3-3-2-0---|
A|-3---------------2-------------|
E|---------------3---------------|

e|--------------|
B|--------------|
G|-----0---2-0--|
D|---2---3------|
A|-3------------|
E|--------------|

Song info
La Bamba
Los Lobos
2001
  • Latin
  • Rock
  • Stage & Screen
  • Pop Rock
  • Soundtrack
Alternative tracks
Similar songs
Maluco Beleza - Raul Seixas
Turn Off The Light - Nelly Furtado
Si No Te Tengo A Ti - Hombres G

Hi! Hope you enjoy backing track experience.
If you want to help us in the development of the project, feel free to donate!