Dr Feelgood - Mötley Crüe
00:00 / 00:00
Tabs and lyrics
Tunning: Standard (E A D G B e)
e|---|---------------------------------|----------------------------------|
B|---|---------------------------------|----------------------------------|
G|---|---------------------------------|----------------------------------|
D|---|---------------------------------|----------------------------------|
A|---|---------------------------------|----------------------------------|
E|x\-|-0-0-0-0---0---0---0---0--0--0--0|-0--0--0---0--0--0--0--0--0--0----|


whammy................................... hr.
e|------------------------------------------|------------------------------|
B|------------------------------------------|------------------------------|
G|------------------------------------------|-7-7-7-7-7-7-7-7-5-5-5-5-5-5-5|
D|------------------------------------------|-----------------5-5-5-5-5-5-5|
A|-12--12---12-----12-12-12-----12-12-12-12-|------------------------------|
E|------------------------------------------|------------------------------|

Whammy.......
e|-------------------------------------------------------------------------|
B|---------------------------------------------7-7-7-7-7-7-7-7-------------|
G|-7-7-7-7-7-7-7-7---12-12-12-12-12-12-12-12---7-7-7-7-7-7-7-7-------------|
D|-------------------12-12-12-12-12-12-12-12-------------------------------|
A|-------------------------------------------------------------------------|
E|-------------------------------------------------------------------------|
________________________________________________________

e|-------------------------------------------------------------------------|
B|-------------------7-7-7-7-7-7-7-7---------------------------------------|
G|-5-5-5-5-5-5-5-5---7-7-7-7-7-7-7-7--12-12-12-12-12-----------------------|
D|-5-5-5-5-5-5-5-5--------------------12-12-12-12-12-----------------------|
A|-------------------------------------------------------------------------|
E|------------------------------------------------------0--0---0\----------|
________________________________________


e|---------------------------------------------------------3----3----------|
B|-----------------------3----2----------------------------3----3----------|
G|-----------------------2----2--------------------------------------------|
D|-------------------------------------------------------------------------|
A|-------------------------------------------------------------------------|
E|----0-0-0-2-2-3-3-4-5----------------0-0-0-2-2-3-3-4-5-------------------|


e|-------------------------------------------------------------------------|
B|-------------------------------------------------------------------------|
G|-2-------2--2-----------------------------2------------------------------|
D|-2-------2--2-----------------------------2--------2---------------------|
A|-0-------0--0-----------------------------0--------2---------------------|
E|------3----------------------------------------3---0---------------------|

e|-------------------------------------------------------------------------|
B|-------------------------------------------------------------------------|
G|-2-------2--2-----------------------------2------------------------------|
D|-2-------2--2-----------------------------2--------2---------------------|
A|-0-------0--0-----------------------------0--------2---------------------|
E|------3----------------------------------------3---0---------------------|


e|-------------------------------------------------------------------------|
B|-------------------------------------------------------------------------|
G|-2-------2--2------------------------2-----------------------------------|
D|-2-------2--2------------------------2--------2--------------------------|
A|-0-------0--0-----0---0---0---0------0--------2--------------------------|
E|------3-----------------------------------3---0-----0---0---0---0--------|

e|-------------------------------------------------------------------------|
B|-------------------------------------------------------------------------|
G|-2-------2--2-------------2----------2-----------------------------------|
D|-2-------2--2-------------2----------2--------2--------------------------|
A|-0-------0--0-----0---0---0---0------0--------2--------------------------|
E|------3-----------------------------------3---0-----0---0---0---0--------|

e|----------------------------------------------------------------3----3---|
B|-----------------------3----2-----------------------------------3----3---|
G|-----------------------2----2--------------------------------------------|
D|-------------------------------------------------------------------------|
A|-------------------------------------------------------------------------|
E|0-0-0-2-2-3-3-4-5-------------------0-0-0-2-2-3-3-4-5--------------------|

e|---------------------------------------------------------3----3----------|
B|-----------------------3----2----------------------------3----3----------|
G|-----------------------2----2--------------------------------------------|
D|-------------------------------------------------------------------------|
A|-------------------------------------------------------------------------|
E|--0-0-0-2-2-3-3-4-5-------------------0-0-0-2-2-3-3-4-5------------------|



e|--------------------------------------------------------------------|
B|--------------------------------------------------------------------|
G|---------------------------9\---------------------------------------|
D|-5-----------7-------------9\---------------------------------------|
A|-5-----------7-------------7\---------------------------------------|
E|-3-----------5---------------------0---0---0---0---0---0---0---0----|

e|--------------------------------------------------------------------|
B|--------------------------------------------------------------------|
G|---------------------------9\---------------------------------------|
D|-5-----------7-------------9\---------------------------------------|
A|-5-----------7-------------7\---------------------------------------|
E|-3-----------5---------------------0---0---0---0---0---0---0---0----|

e|--------------------------------------------------------------------|
B|--------------------------------------------------------------------|
G|---------------------------9\---------------------------------------|
D|-5-----------7-------------9\---------------------------------------|
A|-5-----------7-------------7\---------------------------------------|
E|-3-----------5---------------------0---0---0---0---0---0---0---0----|


e|-----------------------------------------------------------------------|
B|-----------------------------------------------------------------------|
G|-----------------------------------------------------------------------|
D|-5----------------7----------------9-----------------------------------|
A|-5----------------7----------------9-----------------------------------|
E|-3----------------5----------------7-----------------------------------|


[Solo]

e|-12b-----12b---12-------------------------------------------17b-----b---|
B|-15b-----15b------15-15-14-13-12----------------------------------------|
G|---------------------------------12-14p12-------------------------------|
D|------------------------------------------14-12h14p12-------------------|
A|------------------------------------------------------14----------------|
E|------------------------------------------------------------------------|

hr. pick scrapes________________________________
e|--15--------------------------------------------------------------------|
B|---------x------x------x---------x--------x----------x------4p2p0\------|
G|------------------------------------------------------------------------|
D|------------------------------------------------------------------------|
A|------------------------------------------------------------------------|
E|------------------------------------------------------------------------|

(whammy___________________________________________)
e|------------------------------------------------------------------------|
B|------------------------------------------------------------------------|
G|------------------------------------------------------------------------|
D|------------------------------------------------------------------------|
A|------------------------------------------------------------------------|
E|-0-0-0---0--0--0--0--0--0--0--0--0-0-0--0-0--0--0--0--0--0-0-0--0--0-0--|

hr.
e|------------------------------|---------------------------------------|
B|------------------------------|---------------------------------------|
G|-7-7-7-7-7-7-7-7-5-5-5-5-5-5-5|--7-7-7-7-7-7-7-7-7--12-12-12-12-12-12-|
D|-----------------5-5-5-5-5-5-5|--7-7-7-7-7-7-7-7-7--12-12-12-12-12-12-|
A|------------------------------|---------------------------------------|
E|------------------------------|---------------------------------------|
---------------------------------------------------------------


e|-12---12----12-------------12h14h15----------12h14h15---------12h14h15--|
B|-15b--15b---15b---12h14h15----------12h14h15----------12h14h15----------|
G|------------------------------------------------------------------------|
D|------------------------------------------------------------------------|
A|------------------------------------------------------------------------|
E|------------------------------------------------------------------------|


e|----------12h14h15----------12h14h15----------12h14h15----------12h14h15|
B|-12h14h15----------12h14h15----------12h14h15----------12h14h15---------|
G|------------------------------------------------------------------------|
D|------------------------------------------------------------------------|
A|------------------------------------------------------------------------|
E|------------------------------------------------------------------------|


e|-0---/--0--/---0-------------------------15b--x\x\x\\x\x\--------------|
B|------------------17b--17b--17b-17b--17--------------------------------|
G|-----------------------------------------------------------------------|
D|-----------------------------------------------------------------------|
A|----------------------------------------------------------14-14-13-13--|
E|-----------------------------------------------------------------------|


e|-----------------------------------------------6/7---7-----9-----9-----|
B|----------------------------------------8-8-8------9---9p7---7h9---9p7-|
G|---------------------------6-6-6--9-9-9--------------------------------|
D|--------------------5-5--7---------------------------------------------|
A|-7p5h7-5\4h5-5--7-7----------------------------------------------------|
E|-----------------------------------------------------------------------|


e|-7----7-------7-------7-----7-----7------7----7---7----7---------------|
B|-----------------7\5--------------------------------------------5\-----|
G|---9-----7h9--------------8----9-----8-----6----8---6-----8\-----------|
D|-----------------------------------------------------------------------|
A|-----------------------------------------------------------------------|
E|-----------------------------------------------------------------------|



e|---------------------------------------------------------3----3----------|
B|-----------------------3----2----------------------------3----3----------|
G|-----------------------2----2--------------------------------------------|
D|-------------------------------------------------------------------------|
A|-------------------------------------------------------------------------|
E|----0-0-0-2-2-3-3-4-5----------------0-0-0-2-2-3-3-4-5-------------------|

e|--------------------------------------------------------------------|
B|------------------------------------------------------------3---2---|
G|---------------------------9\-------------------------------2---2---|
D|-5-----------7-------------9\---------------------------------------|
A|-5-----------7-------------7\---------------------------------------|
E|-3-----------5-------------------------0-0-0-2-2-3-3-4-5------------|

e|--------------------------------------------------------------------|
B|------------------------------------------------------------3---2---|
G|---------------------------9\-------------------------------2---2---|
D|-5-----------7-------------9\---------------------------------------|
A|-5-----------7-------------7\---------------------------------------|
E|-3-----------5-------------------------0-0-0-2-2-3-3-4-5------------|

e|--------------------------------------------------------------------|
B|------------------------------------------------------------3---2---|
G|---------------------------9\-------------------------------2---2---|
D|-5-----------7-------------9\---------------------------------------|
A|-5-----------7-------------7\---------------------------------------|
E|-3-----------5-------------------------0-0-0-2-2-3-3-4-5------------|

e|--------------------------------------------------------------------|
B|--------------------------------------------------------------------|
G|--------------------------------------------------------------------|
D|-5-----------7----------------9-------------------------------------|
A|-5-----------7----------------9-------------------------------------|
E|-3-----------5----------------7-------------------------------------|


e|-3--3-0--3--3-0----------3--3-0---3---3-3----------3--3-0---3--3/5-5---|
B|-3--3-0--3--3-2----------3--3-0---3---3-3----------3--3-0---3--3/5-5---|
G|-----------------------------------------------------------------------|
D|-----------------------------------------------------------------------|
A|-----------------------------------------------------------------------|
E|-----------------------------------------------------------------------|



************************************

| x Dead note
| h Hammer-on
| p Pull-off
| b Bend
| / Slide up
| \ Slide down

************************************
Tunning: Standard (E A D G B e)
DR. FEELGOOD Mötley Crüe


Gtr I (D G C F A D)
Gtr II (D G C F A D)


Intro
Heavy Rock Q=109
4/4
Gtr I
PM--------------------------
E.S +S S E E E E E E S S
|------||-----------------------|
|------||-----------------------|
|------||-----------------------|
|------||-----------------------|
|------||-----------------------|
|-15S0-||-(0)-0-0-0-0-0-0-0-0-0-|
|
| Gtr II
| PM--------------------------
| E.S +S S E E E E E E S S
|------||-----------------------|
|------||-----------------------|
|------||-----------------------|
|------||-----------------------|
|------||-----------------------|
|-15S0-||-(0)-0-0-0-0-0-0-0-0-0-|


---------------------------------------------|
+S S E E E E E E S S +S S E E E E E E S S
|-----------------------|------------------------|
|-----------------------|------------------------|
|-----------------------|------------------------|
|-----------------------|------------------------|
|-----------------------|------------------------|
|-(0)-0-0-0-0-0-0-0-0-0-|-(0)-0-0-0-0-0-0-0-0-0--|
|
|---------------------------------------------|
| +S S E E E E E E S S +S S E E E E E E S S
|-----------------------|------------------------|
|-----------------------|------------------------|
|-----------------------|------------------------|
|-----------------------|------------------------|
|-----------------------|------------------------|
|-(0)-0-0-0-0-0-0-0-0-0-|-(0)-0-0-0-0-0-0-0-0-0--|


PM-------------------------------------------------------------------
+S S E E E E E E S S +S S E E E E E E S S
|--------------------------|-------------------------------------------|
|--------------------------|-------------------------------------------|
|--------------------------|-------------------------------------------|
|--------------------------|-------------------------------------------|
|--------------------------|-------------------------------------------|
|-(0)-0-0-0-0-0-0-0-0---0--|---(0)----0-0----0---0----0---0-0----0---0-|
|
| \0.5_________\1_______/
| PM---------------|
| +S S E E E E E E S S +Q +Q +Q. +E
|--------------------------|-------------------------------------------|
|--------------------------|-------------------------------------------|
|--------------------------|-------------------------------------------|
|--------------------------|-------------------------------------------|
|----------------------|-()-------()---()-----()---|
|-(0)-0-0-0-0-0-0-0-0------|-------------------------------------------|


----------------------------------------------------------|
+S S E E E E E E S S
|------------------------------------------------------------|
|------------------------------------------------------------|
|------------------------------------------------------------|
|------------------------------------------------------------|
|------------------------------------------------------------|
|---(0)----0----0-----0----0------0--------0------0----0---0-|
|
| \0.5_______/0.5_______\1_____\1.5_____/ \2/
| +E +Q +E +E +E +E E
|------------------------------------------------------------|
|------------------------------------------------------------|
|---------------------------------------------------------|
|------------------------------------------------------------|
|-()-----()-----()-()---()-()--------|
|------------------------------------------------------------|


PM---------------------------------------------------------------------------------------------------
+S S E E E E E E S S +S S E E E E E E S S
|---------------------------------------------------|---------------------------------------------------|
|---------------------------------------------------|---------------------------------------------------|
|---------------------------------------------------|---------------------------------------------------|
|---------------------------------------------------|---------------------------------------------------|
|---------------------------------------------------|---------------------------------------------------|
|--(0)--0---0-----0-----0-----0-----0-----0---0--0--|--(0)--0---0-----0-----0-----0-----0-----0---0--0--|
|
| \2/ \2/ \2/ \2/ \2/ \2/ \2/ \2/ \2/ \2/ \2/ \2/ \2/
| +E +E +E +E +E +E +E S S +E +E +E +E +E +E +E S S
|---------------------------------------------------|---------------------------------------------------|
|---------------------------------------------------|---------------------------------------------------|
|-()---()-()-()-()-()-()----|-()---()-()-()-()-()-()----|
|------------------------------------------------|-()---()-()-()-()-()-()-------|
|---------------------------------------------------|---------------------------------------------------|
|---------------------------------------------------|---------------------------------------------------|


-----------------------------------------------|
+S S E E E E E E S S
|----------------------------------------------------|
|----------------------------------------------------|
|----------------------------------------------------|
|----------------------------------------------------|
|----------------------------------------------------|
|--(0)--0---0-----0-----0-----0-----0-----0---0---0--|
|
| \2/ \2/ \2/ \2/ \2/ \2/
| +E +E +E +E +E +E +E S S
|----------------------------------------------------|
|----------------------------------------------------|
|-()---()-()-()-()-()-()----|
|------------------------------------------------|
|----------------------------------------------------|
|----------------------------------------------------|


PM-----------------------------------------------------
+S S E E E E E E S S
|----------------------------------------------------------|
|----------------------------------------------------------|
|----------------------------------------------------------|
|----------------------------------------------------------|
|----------------------------------------------------------|
|---(0)--0----0------0------0------0------0------0---0--0--|
|
| \2/ \2/ \2/ \2/ \2/ \2/
| +E +E +E +E +E +E +E S S
|----------------------------------------------------------|
|----------------------------------------------------------|
|-()---()-()-()-()-()-()----|
|-()---()-()-()-()-()-()----|
|----------------------------------------------------------|
|----------------------------------------------------------|


---------------------------------------------------------------------------------------------------|
+S S E E E E E E S S +S S E E E E E E S S
|---------------------------------------------------|---------------------------------------------------|
|---------------------------------------------------|---------------------------------------------------|
|---------------------------------------------------|---------------------------------------------------|
|---------------------------------------------------|---------------------------------------------------|
|---------------------------------------------------|---------------------------------------------------|
|--(0)--0---0-----0-----0-----0-----0-----0---0--0--|--(0)--0---0-----0-----0-----0-----0-----0---0--0--|
|
| \2/ \2/ \2/ \2/ \2/ \2/ \2/ \2/ \2/ \2/ \2/ \2/
| +E +E +E +E +E +E +E S S +E +E +E +E +E +E +E S S
|---------------------------------------------------|---------------------------------------------------|
|---------------------------------------------------|---------------------------------------------------|
|-()---()-()-()-()-()-()----|-()---()-()-()-()-()-()----|
|-()---()-()-()-()-()-()----|-()---()-()-()-()-()-()----|
|---------------------------------------------------|---------------------------------------------------|
|---------------------------------------------------|---------------------------------------------------|


PM------------------------------------------------
+S S E E E E E E S S
|----------------------------------------------------|
|----------------------------------------------------|
|----------------------------------------------------|
|----------------------------------------------------|
|----------------------------------------------------|
|--(0)--0---0-----0-----0-----0-----0-----0---0---0--|
|
| \2/ \2/ \2/ \2/ \2/ \2/
| +E +E +E +E +E +E +E S S
|----------------------------------------------------|
|----------------------------------------------------|
|-()---()-()-()-()-()-()----|
|-()---()-()-()-()-()-()----|
|----------------------------------------------------|
|----------------------------------------------------|


------------------------| PM--------------| ~~~
+S S E E E Q E. S +S S S S S S S S E S S +E. S
|------------------------------------------||----------------------------------|
|------------------------------------------||o---------------------3---2-(2)---|
|------------------------------------------||----------------------2---2-(2)---|
|------------------------------------------||----------------------------------|
|--------------------------------x\---x\---||o---------------------------------|
|---(0)--0----0------0------0----x\---x\-0-||---(0)--0-2-2-3-3-4-5-----------0-|
|
| \2/ \2/ \2/ \7
| +E +E +E +E Q Q +W
|------------------------------------------||----------------------------------|
|------------------------------------------||o---------------------------------|
|-()---()-()-()------||--()---------------------------|
|-()---()-()-()------------||----------------------------------|
|------------------------------------------||o---------------------------------|
|------------------------------------------||----------------------------------|


PM-------------| ~~~PM------------------| ~~~PM
+S S S S S S S S E S S +E. S +S S S S S S S S E S S +E. S
|-------------------------------|-------------------------------|
|-------------------8---8-(8)---|-------------------3---2-(2)---|
|-------------------7---7-(7)---|-------------------2---2-(2)---|
|-------------------6---6-(6)---|-------------------------------|
|-------------------7---7-(7)---|-------------------------------|
|-(0)-0-2-2-3-3-4-5-----------0-|-(0)-0-2-2-3-3-4-5-----------0-|


1. 2.
PM-------------| ~~~PM--------------------| ~~~
+S S S S S S S S E S S +E. S +S S S S S S S S E S S +E. S
|--------------------------------||-------------------------------||
|-------------------8---8-(8)---o||-------------------8---8-(8)---||
|-------------------7---7-(7)----||-------------------7---7-(7)-2-||
|-------------------6---6-(6)----||-------------------6---6-(6)-2-||
|-------------------7---7-(7)---o||-------------------7---7-(7)-0-||
|-(0)-0-2-2-3-3-4-5-----------0--||-(0)-0-2-2-3-3-4-5-------------||


1st & 2nd Verses
+E E S E. Q E. S +E E S E. Q E. S
||---------------------|--------------------|
||o--------------------|--------------------|
||--(2)---2-2--------2-|-(2)--------------2-|
||--(2)---2-2--------2-|-(2)---2-2--------2-|
||o-(0)---0-0--------0-|-(0)---2-2--------0-|
||------3--------------|-----3-0-0----------|


+E E S E. Q E. S +E E S E. Q E. S
|--------------------|--------------------|
|--------------------|--------------------|
|-(2)---2-2--------2-|-(2)--------------2-|
|-(2)---2-2--------2-|-(2)---2-2--------2-|
|-(0)---0-0--------0-|-(0)---2-2--------0-|
|-----3--------------|-----3-0-0----------|


PM----| PM----|
+E E S E. E E E S S +E E S E. E E E S S
|----------------------|----------------------|
|----------------------|----------------------|
|-(2)---2-2----------2-|-(2)----------------2-|
|-(2)---2-2----------2-|-(2)---2-2----------2-|
|-(0)---0-0--0-0-0-0-0-|-(0)---2-2----------0-|
|-----3----------------|-----3-0-0--0-0-0-0---|


PM----| PM------|
+E E S E. E E E S S +E E S E. E E E S S
|----------------------|-----------------------||
|----------------------|-----------------------||
|-(2)---2-2----------2-|-(2)-------------------||
|-(2)---2-2----------2-|-(2)---2-2-------------||
|-(0)---0-0--0-0-0-0-0-|-(0)---2-2-------------||
|-----3----------------|-----3-0-0--0-0-0-0-0--||


Chorus
PM-------------| ~~~PM------------------| ~~~
+S S S S S S S S E S S +E. S +S S S S S S S S E S S +E. S
|-------------------------------|-------------------------------|
|-------------------3---2-(2)---|-------------------8---8-(8)---|
|-------------------2---2-(2)---|-------------------7---7-(7)---|
|-------------------------------|-------------------6---6-(6)---|
|-------------------------------|-------------------7---7-(7)---|
|-(0)-0-2-2-3-3-4-5-----------0-|-(0)-0-2-2-3-3-4-5-----------0-|


1.
PM-------------| ~~~PM------------------| ~~~
+S S S S S S S S E S S +E. S +S S S S S S S S E S S +E. S
|-------------------------------|--------------------------------||
|-------------------3---2-(2)---|-------------------8---8-(8)---o||
|-------------------2---2-(2)---|-------------------7---7-(7)-2--||
|-------------------------------|-------------------6---6-(6)-2--||
|-------------------------------|-------------------7---7-(7)-0-o||
|-(0)-0-2-2-3-3-4-5-----------0-|-(0)-0-2-2-3-3-4-5--------------||


2.
PM-------------| ~~~
S S S S S S S S E S S +E S S
|---------------------------------|
|-------------------8---8-(8)-----|
|-------------------7---7-(7)-----|
|-------------------6---6-(6)---5-|
|-------------------7---7-(7)---5-|
|-(0)-0-2-2-3-3-4-5-------------3-|


Bridge
PM----------|
+Q +E. S +Q +E. S +E E E E E E E S S
|-----------------------|----------------------|
|-----------------------|----------------------|
|---------------------9-|-(9)\-----------------|
|-(5)--(5)-7-(7)--(7)-9-|-(9)\---------------5-|
|-(5)--(5)-7-(7)--(7)-7-|-(7)\---------------5-|
|-(3)--(3)-5-(5)--(5)---|------0-0-0-0-0-0-0-3-|


PM----------|
+Q +E. S +Q +E. S +E E E E E E E S S
|-----------------------|-----------------------|
|-----------------------|-----------------------|
|---------------------9-|-(9)\------------------|
|-(5)--(5)-7-(7)--(7)-9-|-(9)\---------------5--|
|-(5)--(5)-7-(7)--(7)-7-|-(7)\---------------5--|
|-(3)--(3)-5-(5)--(5)---|------0-0-0-0-0-0-0-3--|


PM----------|
+Q +E. S +Q +E. S +E E E E E E E S S +Q +E. S +H W
|-----------------------|----------------------|-------------------|------|
|-----------------------|----------------------|-------------------|------|
|---------------------9-|-(9)\-----------------|-------------------|------|
|-(5)--(5)-7-(7)--(7)-9-|-(9)\---------------5-|-(5)--(5)-7-(7)----|-9----|
|-(5)--(5)-7-(7)--(7)-7-|-(7)\---------------5-|-(5)--(5)-7-(7)----|-9----|
|-(3)--(3)-5-(5)--(5)---|------0-0-0-0-0-0-0-3-|-(3)--(3)-5-(5)----|-7----|


PM| PM-----
+H E S S E. S
|-----------------------||
|-----------------------||
|-----------------------||
|-(9)----9-x-x-9\-------||
|-(9)----9-x-x-9\-------||
|-(7)----7-x-x-7\--0----||
|
| Gtr II
| H Q E. S
|-----------------12----||
|-----------------15b17-||
|-----------------------||
|-----------------------||
|-----------------------||
|-----------------------||


Interlude
--------------------------| ~~~ PM
+S S S S S S S S E S S +E. S
|------------------------------------------------------------|
|------------------------------3-------2-(2)-----------------|
|------------------------------2-------2-(2)-----------------|
|------------------------------------------------------------|
|------------------------------------------------------------|
|--(0)-0-2-2--3-------3--4-5----------------------------0----|
|
| |-------6--------|
| +Q S +E. +E s s S S S S S S
|-(12)-------12-----(12)-----------12------------------------|
|-(15)-------15b17==(15)-----(15)r----15-14----12------------|
|-------------------------------------------------15-12h==14-|
|------------------------------------------------------------|
|------------------------------------------------------------|
|------------------------------------------------------------|


PM-----------------------------------------------| ~~~ PM----
+S S S S S S S S E S S +E. S
|-------------------------------------------------------------------------|
|-------------------------------------------------------8-----8-(8)-------|
|-------------------------------------------------------7-----7-(7)-------|
|-------------------------------------------------------6-----6-(6)-------|
|-------------------------------------------------------7-----7-(7)-------|
|-(0)----0-----2-----2-----3-----3---------------4--5----------------0----|
|
| ~~~~~~~~~~~
| T T T T T T T T T T T T a +E +E E E. S
|-------------------------------------------------------------------15b17-|
|-------------------------------------------------------------------------|
|-12h14p12----------------------------------------------------------------|
|----------14-12h14p12----------------------------------------------------|
|----------------------14-12s10-------[12]b14==(12)---(12)r---------------|
|-------------------------------12p10-------------------------------------|


------------------| ~~~~~~ PM
+S S S S S S S S E S S +E. S
|----------------------------------------------------------|
|--------------------3--------------2--(2)-----------------|
|--------------------2--------------2--(2)-----------------|
|----------------------------------------------------------|
|----------------------------------------------------------|
|--(0)-0-2-2-3-3-4-5-----------------------------------0---|
|
| +Q. E S +S S +S S +S S +S
|-(15)-----------------------------------------------------|
|----------------------------------------------------------|
|--------------------2pb4r(2)-2pb4r(2)--2pb4r(2)-2pb4r(2)--|
|----------------------------------------------------------|
|----------------------------------------------------------|
|----------------------------------------------------------|


PM---------------------------------------------------| ~~~
+S S S S S S S S E S S +E. S
|-----------------------------------------------------------------------||
|---------------------------------------------------------8-----8-(8)---||
|---------------------------------------------------------7-----7-(7)-2-||
|---------------------------------------------------------6-----6-(6)-2-||
|---------------------------------------------------------7-----7-(7)-0-||
|-(0)-------0-------2-------2-----3--------3------4-----5---------------||
|
| \7
| |-------------6-------------| |--------3---------|
| S +S S +S S +S S +S E +E E +E +E. S
|-----------------------------------------------------------------------||
|-----------------------------------------------------------------------||
|--2pb4r(2)---2pb4r(2)-2pb4r==(2)-2pb4r(2)---2pb4r==(2)---0-(0)---(0)---||
|-----------------------------------------------------------------------||
|-----------------------------------------------------------------------||
|-----------------------------------------------------------------------||


3rd Verse
+E E S E. Q E. S +E E S E. Q E. S
|--------------------|--------------------|
|--------------------|--------------------|
|-(2)---2-2--------2-|-(2)--------------2-|
|-(2)---2-2--------2-|-(2)---2-2--------2-|
|-(0)---0-0--------0-|-(0)---2-2--------0-|
|-----3--------------|-----3-0-0----------|
|
| W W
|--------------------|--------------------|
|--------------------|--------------------|
|--------------------|--------------------|
|--------------------|--------------------|
|--------------------|--------------------|
|--------------------|--------------------|


PM---------|
+E E S E. Q E. S +E E S E. Q E. S +E E S E. E E E S S
|--------------------|------------------------|------------------------------|
|--------------------|------------------------|------------------------------|
|-(2)---2-2--------2-|-(2)------------------2-|--(2)---2-2-----------------2-|
|-(2)---2-2--------2-|-(2)---2-2------------2-|--(2)---2-2-----------------2-|
|-(0)---0-0--------0-|-(0)---2-2------------0-|--(0)---0-0----0----0---0-0-0-|
|-----3--------------|-----3-0-0--------------|------3-----------------------|
|
| ~~~~~~~~~~~~~~~~~~~~~~~~
| W H S E. Q +H +E +E Q
|--------------------|------------------------|------------------------------|
|--------------------|--------------13--------|------------------------------|
|--------------------|------------------14----|-(14)--------(14)-(14)\-------|
|--------------------|------------------------|------------------------------|
|--------------------|------------------------|------------------------------|
|--------------------|------------------------|------------------------------|


PM------------| PM| PM
+E E S E. E E E S S +E E S E. E E E S S
|-------------------------------|----------------------------|
|-------------------------------|----------------------------|
|-(2)-------------------------2-|--(2)-------2-2-------2---2-|
|-(2)---2-2-------------------2-|--(2)-------2-2-------2---2-|
|-(0)---2-2--0----------------0-|--(0)-------0-0---0-0-0-0-0-|
|-----3-0-0--0--0-----0----0----|--------3-------------------|
|
| TP
| H E S S S E S +E +E Q H
|--------------20p17-20-20---17-|-(17)-(17)\------17---------|
|--------------19p17-19-19---17-|-(17)-(17)\-----------------|
|-------------------------------|----------------------------|
|-------------------------------|----------------------------|
|-------------------------------|----------------------------|
|-------------------------------|----------------------------|


PM--------------------------|
+E E S E. E E E S S
|-----------------------------------------------||
|-----------------------------------------------||
|--(2)------------------------------------------||
|--(2)----2-2-----------------------------------||
|--(0)----2-2-----------------------------------||
|------3--0-0--0-------0-------0-------0---0----||
|
| TP
| |------6------| |------6------|
| +Q Q S S S S S S S S S S S S
|-(17)---17S===8h10h12--------------------------||
|----------------------8h10h12------------------||
|------------------------------9h11h12-9-----9--||
|--------------------------------------------9--||
|-----------------------------------------------||
|-----------------------------------------------||


Chorus
PM--------------| ~~~PM------------------| ~~~
+S S S S S S S S E S S +E. S +S S S S S S S S E S S +E. S
|--------------------------------|-------------------------------|
|--------------------3---2-(2)---|-------------------8---8-(8)---|
|--------------------2---2-(2)---|-------------------7---7-(7)---|
|--------------------------------|-------------------6---6-(6)---|
|--------------------------------|-------------------7---7-(7)---|
|-(0)--0-2-2-3-3-4-5-----------0-|-(0)-0-2-2-3-3-4-5-----------0-|
|
| +E E Q H W
|--------------------------------|-------------------------------|
|--------------------------------|-------------------------------|
|-(9)\---------------------------|-------------------------------|
|-(9)\---------------------------|-------------------------------|
|--------------------------------|-------------------------------|
|--------------------------------|-------------------------------|


PM-------------| ~~~PM------------------| ~~~
+S S S S S S S S E S S +E. S +S S S S S S S S E S S +E S S
|-------------------------------|---------------------------------||
|-------------------3---2-(2)---|-------------------8---8-(8)-----||
|-------------------2---2-(2)---|-------------------7---7-(7)-----||
|-------------------------------|-------------------6---6-(6)---5-||
|-------------------------------|-------------------7---7-(7)---5-||
|-(0)-0-2-2-3-3-4-5-----------0-|-(0)-0-2-2-3-3-4-5-------------3-||


Bridge
PM----------|
+Q +E. S +Q +E. S +E E E E E E E S S
|-----------------------|----------------------|
|-----------------------|----------------------|
|---------------------9-|-(9)\-----------------|
|-(5)--(5)-7-(7)--(7)-9-|-(9)\---------------5-|
|-(5)--(5)-7-(7)--(7)-7-|-(7)\---------------5-|
|-(3)--(3)-5-(5)--(5)---|------0-0-0-0-0-0-0-3-|


PM----------|
+Q +E. S +Q +E. S +E E E E E E E S S
|-----------------------|-----------------------|
|-----------------------|-----------------------|
|---------------------9-|-(9)\------------------|
|-(5)--(5)-7-(7)--(7)-9-|-(9)\---------------5--|
|-(5)--(5)-7-(7)--(7)-7-|-(7)\---------------5--|
|-(3)--(3)-5-(5)--(5)---|------0-0-0-0-0-0-0-3--|


PM----------|
+Q +E. S +Q +E. S +E E E E E E E S S
|-----------------------|----------------------|
|-----------------------|----------------------|
|---------------------9-|-(9)\-----------------|
|-(5)--(5)-7-(7)--(7)-9-|-(9)\---------------5-|
|-(5)--(5)-7-(7)--(7)-7-|-(7)\---------------5-|
|-(3)--(3)-5-(5)--(5)---|------0-0-0-0-0-0-0-3-|


+Q +E. S +H W +H. E. S
|-------------------|----------|---------------||
|-------------------|----------|---------------||
|-------------------|----------|---------------||
|-(5)--(5)-7-(7)----|-9--------|-(9)------9\---||
|-(5)--(5)-7-(7)----|-9--------|-(9)------9\---||
|-(3)--(3)-5-(5)----|-7--------|-(7)------7\-0-||


PM--------------------------------------------
+S S E E E E E E S S +S S E E E E E E S S
|-----------------------|-----------------------|
|-----------------------|-----------------------|
|-----------------------|-----------------------|
|-----------------------|-----------------------|
|-----------------------|-----------------------|
|-(0)-0-0-0-0-0-0-0-0-0-|-(0)-0-0-0-0-0-0-0-0-0-|
|
| Gtr II
| \7
| W +W
|-----------------------|-----------------------|
|-----------------------|-----------------------|
|-----------------------|-----------------------|
|-----------------------|-----------------------|
|--x--------------------|-(x)-------------------|
|-----------------------|-----------------------|


------------------------------------------------|
+S S E E E E E E S S +S S E E E E E E S S
|-----------------------|----------------------------|
|-----------------------|----------------------------|
|-----------------------|----------------------------|
|-----------------------|----------------------------|
|-----------------------|----------------------------|
|-(0)-0-0-0-0-0-0-0-0-0-|-(0)--0-0-0-0-0-0-0--0--0---|
|
| +W +H.. E
|-----------------------|----------------------------|
|-----------------------|----------------------------|
|-----------------------|-------------------------|
|-----------------------|----------------------------|
|-(x)-------------------|-(x)------------------------|
|-----------------------|----------------------------|


PM---------------------------------------------------------------------------------------------------
+S S E E E E E E S S +S S E E E E E E S S
|---------------------------------------------------|---------------------------------------------------|
|---------------------------------------------------|---------------------------------------------------|
|---------------------------------------------------|---------------------------------------------------|
|---------------------------------------------------|---------------------------------------------------|
|---------------------------------------------------|---------------------------------------------------|
|--(0)--0---0-----0-----0-----0-----0-----0---0--0--|--(0)--0---0-----0-----0-----0-----0-----0---0--0--|
|
| \2/ \2/ \2/ \2/ \2/ \2/ \2/ \2/ \2/ \2/ \2/ \2/ \2/
| +E +E +E +E +E +E +E S S +E +E +E +E +E +E +E S S
|---------------------------------------------------|---------------------------------------------------|
|---------------------------------------------------|---------------------------------------------------|
|-()---()-()-()-()-()-()----|-()---()-()-()-()-()-()----|
|------------------------------------------------|-()---()-()-()-()-()-()----|
|---------------------------------------------------|---------------------------------------------------|
|---------------------------------------------------|---------------------------------------------------|


------------------------------------------------------------------------------------|
+S S E E E E E E S S +S S E E E E E E. S
|----------------------------------------------------|-----------------------------------------------------||
|----------------------------------------------------|-----------------------------------------------------||
|----------------------------------------------------|-----------------------------------------------------||
|----------------------------------------------------|-------------------------------------------------5---||
|----------------------------------------------------|-------------------------------------------------5---||
|--(0)--0---0-----0-----0-----0-----0-----0---0---0--|---(0)--0----0------0------0------0--------------3---||
|
| \2/ \2/ \2/ \2/ \2/ \2/ \2/ \2/ \2/
| +E +E +E +E +E +E +E S S +E +E +E +E +Q E S S
|----------------------------------------------------|-----------------------------------------------------||
|----------------------------------------------------|-----------------------------------------15p12---||
|-()---()-()-()-()-()-()----|-()---()-()-()-()------------||
|-()---()-()-()-()-()-()----|-()---()-()-()-()----------------||
|----------------------------------------------------|-----------------------------------------------------||
|----------------------------------------------------|-----------------------------------------------------||


Guitar Solo
+Q +E. S +Q +E. S
|------------------------------------------------------------------------------|
|------------------------------------------------------------------------------|
|-------------------------------------------------------------------------9----|
|---------(5)---(5)--------7-----------(7)----------------(7)-------------9----|
|---------(5)---(5)--------7-----------(7)----------------(7)-------------7----|
|---------(3)---(3)--------5-----------(5)----------------(5)------------------|
|
| |---3---| |-------6-------| |--------6--------|
| a +Q +E S S S a +S S S S S S S S S S S S
|-12-----(12)--(12)--12-12---12-12----(12)-12-12-12-12-12-12--12-12-12-12---12-|
|-15b17==(15)--(15)r------------15b17-(15)-------------------------------------|
|------------------------------------------------------------------------------|
|------------------------------------------------------------------------------|
|------------------------------------------------------------------------------|
|------------------------------------------------------------------------------|


PM---------------------------------------------------|
+E E E E E E E S S
|------------------------------------------------------------------------------|
|------------------------------------------------------------------------------|
|-(9)\-------------------------------------------------------------------------|
|-(9)\-------------------------------------------------------------------5-----|
|-(7)\-------------------------------------------------------------------5-----|
|-------------0--------0--------0--------0--------0--------0--------0----3-----|
|
| |-------6--------| |------6-------| |------6-------| |-------6--------|
| S S S S S S S S S S S S S S S S S S S S S S S S
|------------12-14-15----------12-14-15----------12-14-15----------12-14---15--|
|-12---14-15----------12-14-15----------12-14-15----------12-14-15-------------|
|------------------------------------------------------------------------------|
|------------------------------------------------------------------------------|
|------------------------------------------------------------------------------|
|------------------------------------------------------------------------------|


+Q +E. S +Q +E. S
|--------------------------------------------------------------------|
|--------------------------------------------------------------------|
|------------------------------------------------------------------9-|
|-(5)----------------(5)-------------7----(7)----------------(7)---9-|
|-(5)----------------(5)-------------7----(7)----------------(7)---7-|
|-(3)----------------(3)-------------5----(5)----------------(5)-----|
|
| |-------6-------| |--------6--------| |-------6-------|
| S S S S S S S S S S S S S S S S S S E S S
|-----------12-14-15-----------12-14---15-----------12-14-15--x\-0-x-|
|-12--14-15----------12--14-15------------12--14-15------------------|
|--------------------------------------------------------------------|
|--------------------------------------------------------------------|
|--------------------------------------------------------------------|
|--------------------------------------------------------------------|


PM-----------------------|
+E E E E E E E S S
|--------------------------------------------|
|--------------------------------------------|
|-(9)\---------------------------------------|
|-(9)\--------------------------------5------|
|-(7)\--------------------------------5------|
|--------0--0------0---0--0---0---0---3------|
|
| +S S E S E. +Q +E S S
|-(x)/-0-x/-0/-15----(15)---(15)\---[15]b17==|
|--------------------------------------------|
|--------------------------------------------|
|--------------------------------------------|
|--------------------------------------------|
|--------------------------------------------|


+Q +E. S +Q +E. S
|------------------------------------------------|
|------------------------------------------------|
|--------------------------------------------9---|
|---(5)--------(5)-----7-(7)-------(7)-------9---|
|---(5)--------(5)-----7-(7)-------(7)-------7---|
|---(3)--------(3)-----5-(5)-------(5)-----------|
|
| |--3--|
| +E. S +S S S S S S S S S S S S S
|-([15])r----------------------------------------|
|------------------------------------------------|
|---------2b4==(2)-2-2-2--2--2-2-2--2--2-2-2---2-|
|------------------------------------------------|
|------------------------------------------------|
|------------------------------------------------|


PM------------------------------|
+E E E E E E E S S
|---------------------------------------------|
|---------------------------------------------|
|-(9)\----------------------------------------|
|-(9)\-------------------------------------5--|
|-(7)\-------------------------------------5--|
|--------0---0-----0-------0------0--0---0-3--|
|
| \2/
| |-3-|
| S S S S S S S T T T T T T E. +Q
|---------------------------------------------|
|---------------------------------------------|
|--2---2-2r2-2p0---0--------------------------|
|----------------2---2p0h2p0h2p0----(0)-------|
|---------------------------------------------|
|---------------------------------------------|


+Q +E. S +H
|-----------------------------------------------------|
|-----------------------------------------------------|
|---------------------------2---(2)-------------------|
|-(5)-----------(5)---------2---(2)-------------------|
|-(5)-----------(5)---------0---(0)-------------------|
|-(3)-----------(3)-----------------------------------|
|
| |----6-----| |-----6------| |----6-----| |-3-|
| S S S S S S S S S S S S S S S S S S S S S E
|---------------------------------------------------6-|
|---------------------------------------5-5-5-8-8-8---|
|--------------------------------6--6-6---------------|
|----------------5--5-5-7-7---7-----------------------|
|--5--5-5-7-7-7---------------------------------------|
|-----------------------------------------------------|


W
|-----------------------------------------------------------|
|-----------------------------------------------------------|
|-4---------------------------------------------------------|
|-4---------------------------------------------------------|
|-2---------------------------------------------------------|
|-----------------------------------------------------------|
|
| T T T T T T T T
| |-----6-----| |-----6-----| |-----6-----| |-----6-----|
| S S S S S S S S S S S S S S S S S S S S S S S S
|-----------------------------------------------------------|
|-0h7h12p0h9h12p0h7h12p0h9h12p0h7h12p0h5h12p0h7h12p0h5h12p==|
|-----------------------------------------------------------|
|-----------------------------------------------------------|
|-----------------------------------------------------------|
|-----------------------------------------------------------|


+H. +E. S
|-------------------------------------------------------------|
|-------------------------------------------------------------|
|-(4)----------------------------------------(4)--------------|
|-(4)----------------------------------------(4)--------------|
|-(2)----------------------------------------(2)--------------|
|--------------------------------------------------------0----|
|
| T T T T T T T T
| |-----6-----| |-----6-----| |-----6-----| |------6------|
| S S S S S S S S S S S S S S S S S S S S S S S S
|-------------------------------------------------------------|
|--0h4h12p0h5h12p0h4h12p0h2h12p0h4h12p0h2h12p=0h4h12p0h4h==12-|
|-------------------------------------------------------------|
|-------------------------------------------------------------|
|-------------------------------------------------------------|
|-------------------------------------------------------------|


PM-------------| ~~~~PM
+S S S S S S S S E S S +E. S
|----------------------------------|
|-------------------3---2--(2)-----|
|-------------------2---2--(2)-----|
|----------------------------------|
|----------------------------------|
|-(0)-0-2-2-3-3-4-5-------------0--|
|
| \2
| H. +Q
|----------------------------------|
|----------------------()----|
|----------------------------------|
|----------------------------------|
|----------------------------------|
|----------------------------------|


PM--------------| ~~~PM-
+S S S S S S S S E S S +E. S
|---------------------------------|
|---------------------8---8-(8)---|
|---------------------7---7-(7)---|
|---------------------6---6-(6)---|
|---------------------7---7-(7)---|
|--(0)--0-2-2-3-3-4-5-----------0-|
|
| \7
| +W
|---------------------------------|
|-()---------------------------|
|---------------------------------|
|---------------------------------|
|---------------------------------|
|---------------------------------|


-----------------| ~~~PM------------------| ~~~PM
+S S S S S S S S E S S +E. S +S S S S S S S S E S S +E. S
|-------------------------------|--------------------------------|
|-------------------3---2-(2)---|-------------------8---8-(8)----|
|-------------------2---2-(2)---|-------------------7---7-(7)----|
|-------------------------------|-------------------6---6-(6)----|
|-------------------------------|-------------------7---7-(7)----|
|-(0)-0-2-2-3-3-4-5-----------0-|-(0)-0-2-2-3-3-4-5-----------0--|
|
| W W
|-------------------------------|--------------------------------|
|-------------------------------|--------------------------------|
|-------------------------------|--------------------------------|
|-------------------------------|--------------------------------|
|-------------------------------|--------------------------------|
|-------------------------------|--------------------------------|


PM------------| ~~~PM------------------| ~~~ PM
+S S S S S S S S E S S +E. S +S S S S S S S S E S S +E. S
|------------------------------|-----------------------------------|
|------------------3---2-(2)---|-------------------8----8-(8)------|
|------------------2---2-(2)---|-------------------7----7-(7)------|
|------------------------------|-------------------6----6-(6)------|
|------------------------------|-------------------7----7-(7)------|
|-(0)0-2-2-3-3-4-5-----------0-|-(0)-0-2-2-3-3-4-5---------------0-|
|
| W H E E E E
|-12s==========================|=19-----------------------10-------|
|------------------------------|---------------------12-------12---|
|------------------------------|-----------------------------------|
|------------------------------|-----------------------------------|
|------------------------------|-----------------------------------|
|------------------------------|-----------------------------------|


PM------------------| ~~~ PM-
S S S S S S S S E S S +E. S
|-------------------------------------------|
|-------------------------3------2-(2)------|
|-------------------------2------2-(2)------|
|-------------------------------------------|
|-------------------------------------------|
|--0-0-2----2-3-3----4-5------------------0-|
|
| |-------3-------| |------3------|
| Q Q Q Q Q Q
|-10--------------10----------10------------|
|--------12--------------12------------12---|
|-------------------------------------------|
|-------------------------------------------|
|-------------------------------------------|
|-------------------------------------------|


-----------------------| ~~~~
+S S S S S S S S E S S +E. S
|------------------------------------------||
|--------------------------8-----8--(8)----||
|--------------------------7-----7--(7)----||
|--------------------------6-----6--(6)-5--||
|--------------------------7-----7--(7)-5--||
|-(0)-0-2----2-3-3----4-5---------------3--||
|
| ~~~~~~~
| |-------3--------|
| Q Q Q E. S +E. S
|-10---------------10-----------10-(10)----||
|---------12--------------12---------------||
|------------------------------------------||
|------------------------------------------||
|------------------------------------------||
|------------------------------------------||


Pre Chorus
Gtrs I, II
PM-------------| ~~~
+Q +E. S +Q +E. S +S S S S S S S S E S S +E. S 3x
||------------------------|--------------------------------||
||o-----------------------|-------------------3---2-(2)---o||
||-----------2-(2)--(2)---|-------------------2---2-(2)----||
||--(5)--(5)-2-(2)--(2)---|-----------------------------5--||
||o-(5)--(5)-0-(0)--(0)---|-----------------------------5-o||
||--(3)--(3)------------0-|-(0)-0-2-2-3-3-4-5-----------3--||


+Q +E. S +H W H Q Q
|-------------------|----------|-----------------||
|-------------------|----------|-----------/15\--||
|----------2-(2)----|-4--------|-(4)-------/14\--||
|-(5)--(5)-2-(2)----|-4--------|-(4)-------------||
|-(5)--(5)-0-(0)----|-2--------|-(2)-------------||
|-(3)--(3)----------|----------|-----------------||
+W


Outro Chorus
Gtr I
PM----------------| ~~~~PM-
S S S S S S S S E S S +E. S
||------------------------------------------|
||o-----------------------3-------2--(2)----|
||------------------------2-------2--(2)----|
||------------------------------------------|
||o-----------------------------------------|
||---0-0--2-2--3--3--4-5------------------0-|
|
| Gtr II
| E S S S E. S S S S +E. S
||------------------------------------------|
||o-----------------------------------------|
||-------12-x-12---------12-x-12------------|
||--14---12-x-12-14------12-x-12-14-(14)-14-|
||o-14-----------14--------------14-(14)-14-|
||------------------------------------------|


---------------------| ~~~~
+S S S S S S S S E S S +E. S
|-------------------------------------------|
|------------------------8-------8--(8)-----|
|------------------------7-------7--(7)-----|
|------------------------6-------6--(6)-----|
|------------------------7-------7--(7)-----|
|-(0)-0--2-2--3--3--4-5------------------0--|
|
| E S S S E. S S S S +E. S
|-------------------------------------------|
|-------------------------------------------|
|-------12-x-12---------12-x-12-14-(14)-14--|
|-14----12-x-12-14------12-x-12-14-(14)-14--|
|-14------------14--------------------------|
|-------------------------------------------|


PM-----------------| ~~~~PM-
+S S S S S S S S E S S +E. S
|------------------------------------------|
|------------------------3-------2--(2)----|
|------------------------2-------2--(2)----|
|------------------------------------------|
|------------------------------------------|
|-(0)-0--2-2--3--3--4-5------------------0-|
|
| E S S S E. S S S S +E. S
|------------------------------------------|
|------------------------------------------|
|-------12-x-12---------12-x-12------------|
|-14----12-x-12-14------12-x-12-14-(14)-14-|
|-14------------14--------------14-(14)-14-|
|------------------------------------------|


---------------------| ~~~~
+S S S S S S S S E S S +E. S 5x
|-------------------------------------------||
|------------------------8-------8--(8)----o||
|------------------------7-------7--(7)-----||
|------------------------6-------6--(6)-----||
|------------------------7-------7--(7)----o||
|-(0)-0--2-2--3--3--4-5------------------0--||
|
| E S S S E. S S S S +E. S 5x
|-------------------------------------------||
|------------------------------------------o||
|-------12-x-12---------12-x-12-14-(14)-14--||
|-14----12-x-12-14------12-x-12-14-(14)-14--||
|-14------------14-------------------------o||
|-------------------------------------------||

Tunning: D tuning (D G C F A D)
Motley Crue

Dr. Feel Good

Tabbed by: James Flint

Tune Down 1 step
DGCFAD



Rhythm Guitar 1



Intro
H Q E. S S S E E E E E E S S
D||------------------------|--------------------------------|
A||------------------------|--------------------------------|
F||------------------------|--------------------------------|
C||------------------------|--------------------------------|
G||----------------------x-|--------x-x--x--x--x--x--x--x-x-|
D||----------------12S---0-|--L-----0-0--0--0--0--0--0--0-0-|


S S E E E E E E S S S S E E E E E E S S
----------------------------|----------------------------|
----------------------------|----------------------------|
----------------------------|----------------------------|
----------------------------|----------------------------|
----x-x--x--x--x--x--x--x-x-|----x-x--x--x--x--x--x--x-x-|
--L-0-0--0--0--0--0--0--0-0-|--L-0-0--0--0--0--0--0--0-0-|


S S E E E E E E S S S S E E E E E E S S
----------------------------|----------------------------|
----------------------------|----------------------------|
----------------------------|----------------------------|
----------------------------|----------------------------|
----x-x--x--x--x--x--x--x-x-|----x-x--x--x--x--x--x--x-x-|
--L-0-0--0--0--0--0--0--0-0-|--L-0-0--0--0--0--0--0--0-0-|


S S E E E E E E S S S S E E E E E E S S
----------------------------|----------------------------|
----------------------------|----------------------------|
----------------------------|----------------------------|
----------------------------|----------------------------|
----x-x--x--x--x--x--x--x-x-|----x-x--x--x--x--x--x--x-x-|
--L-0-0--0--0--0--0--0--0-0-|--L-0-0--0--0--0--0--0--0-0-|


S S E E E E E E S S S S E E E E E E S S
----------------------------|----------------------------|
----------------------------|----------------------------|
----------------------------|----------------------------|
----------------------------|----------------------------|
----x-x--x--x--x--x--x--x-x-|----x-x--x--x--x--x--x--x-x-|
--L-0-0--0--0--0--0--0--0-0-|--L-0-0--0--0--0--0--0--0-0-|


S S E E E E E E S S S S E E E E E E S S
----------------------------|----------------------------|
----------------------------|----------------------------|
----------------------------|----------------------------|
----------------------------|----------------------------|
----x-x--x--x--x--x--x--x-x-|----x-x--x--x--x--x--x--x-x-|
--L-0-0--0--0--0--0--0--0-0-|--L-0-0--0--0--0--0--0--0-0-|


S S E E E E E E S S S S E E E E E E S S
----------------------------|----------------------------|
----------------------------|----------------------------|
----------------------------|----------------------------|
----------------------------|----------------------------|
----x-x--x--x--x--x--x--x-x-|----x-x--x--x--x--x--x--x-x-|
--L-0-0--0--0--0--0--0--0-0-|--L-0-0--0--0--0--0--0--0-0-|


Riff B
S S E Q Q E. S S S S S S S S S E S S E. S
-------------------------|-------------------------------------|
-------------------------|-----------------------3----2~-L-----|
-------------------------|-----------------------2----2~-L-----|
--------------x----x-----|-------------------------------------|
----x-x--x----x----x---x-|---------x-x-x-x-x-x-0-------------x-|
--L-0-0--0----x----x---0-|--L------0-2-2-3-3-4-x-------------0-|


S S S S S S S S E S S E. S S S S S S S S S E S S E. S
--------------------------------|--------------------------------|
------------------8----8~-L-----|------------------3----2~-L-----|
------------------7----7~-L-----|------------------2----2~-L-----|
------------------6----6~-------|--------------------------------|
----x-x-x-x-x-x-0-7----7~-----x-|----x-x-x-x-x-x-0-------------x-|
--L-0-2-2-3-3-4-x-------------0-|--L-0-2-2-3-3-4-x-------------0-|


S S S S S S S S E S S E. S S S S S S S S S E S S E. S
--------------------------------|--------------------------------|
------------------8----8~-L-----|------------------3----2~-L-----|
------------------7----7~-L-----|------------------2----2~-L-----|
------------------6----6~-------|--------------------------------|
----x-x-x-x-x-x-0-7----7~-----x-|----x-x-x-x-x-x-0-------------x-|
--L-0-2-2-3-3-4-x-------------0-|--L-0-2-2-3-3-4-x-------------0-|


S S S S S S S S E S S E. S S S S S S S S S E S S E. S
--------------------------------|--------------------------------|
------------------8----8~-L-----|------------------3----2~-L-----|
------------------7----7~-L-----|------------------2----2~-L-----|
------------------6----6~-------|--------------------------------|
----x-x-x-x-x-x-0-7----7~-----x-|----x-x-x-x-x-x-0-------------x-|
--L-0-2-2-3-3-4-x-------------0-|--L-0-2-2-3-3-4-x-------------0-|


Verse 1
S S S S S S S S E S S E. S E E S E. Q E. S
--------------------------------|------------------------------|
------------------8----8~-L-----|------------------------------|
------------------7----7~-L---2-|--L------------2------------2-|
------------------6----6~-----2-|--L------------2------------2-|
----x-x-x-x-x-x-0-7----7~-----0-|--L-------x--x-0------------0-|
--L-0-2-2-3-3-4-x---------------|----------3--3----------------|


E E S E. Q E. S E E S E. Q E. S E E S E. Q E. S
-------------------------|-------------------------|-------------------------|
-------------------------|-------------------------|-------------------------|
--L--------------------2-|--L-------2------------2-|--L--------------------2-|
--L--0----2------------2-|--L-------2------------2-|--L--0----2------------2-|
--L-----x-2------------0-|--L--x--x-0------------0-|--L-----x-2------------0-|
-----3--2-0--------------|-----3--3----------------|-----3--2-0--------------|


E E S E. E E E S S E E S E. E E E S S
---------------------------|---------------------------|
---------------------------|---------------------------|
--L--0--0-2---x--x--x----2-|--L--0-------------------2-|
--L--0--0-2---x--x--x----2-|--L--0----2---x--x--x----2-|
--L-------0---0--0--0--x-0-|--L-----x-2---x--x--x--x-0-|
-----3--3--------------3---|-----3--2-0---0--0--0--3---|


E E S E. E E E S S E E S E. E E E S S
---------------------------|---------------------------|
---------------------------|---------------------------|
--L--0--0-2---x--x--x----2-|--L--0---------------------|
--L--0--0-2---x--x--x----2-|--L--0----2---x--x--x--x-x-|
--L-------0---0--0--0--x-0-|--L-----x-2---x--x--x--x-x-|
-----3--3--------------3---|-----3--2-0---0--0--0--0-0-|


Chorus
S S S S S S S S E S S E. S S S S S S S S S E S S E. S
-------------------------------------|--------------------------------|
-----------------------3----2~-L-----|------------------8----8~-L-----|
-----------------------2----2~-L-----|------------------7----7~-L-----|
-------------------------------------|------------------6----6~-------|
---------x-x-x-x-x-x-0-------------x-|----x-x-x-x-x-x-0-7----7~-----x-|
--L------0-2-2-3-3-4-x-------------0-|--L-0-2-2-3-3-4-x-------------0-|


S S S S S S S S E S S E. S S S S S S S S S E S S E. S
--------------------------------|--------------------------------|
------------------3----2~-L-----|------------------8----8~-L-----|
------------------2----2~-L-----|------------------7----7~-L---2-|
--------------------------------|------------------6----6~-----2-|
----x-x-x-x-x-x-0-------------x-|----x-x-x-x-x-x-0-7----7~-----0-|
--L-0-2-2-3-3-4-x-------------0-|--L-0-2-2-3-3-4-x---------------|


Verse 2
E E S E. Q E. S E E S E. Q E. S
------------------------------|-------------------------|
------------------------------|-------------------------|
--L------------2------------2-|--L--------------------2-|
--L------------2------------2-|--L--0----2------------2-|
--L-------x--x-0------------0-|--L-----x-2------------0-|
----------3--3----------------|-----3--2-0--------------|


E E S E. Q E. S E E S E. Q E. S E E S E. E E E S S
-------------------------|-------------------------|---------------------------|
-------------------------|-------------------------|---------------------------|
--L-------2------------2-|--L--------------------2-|--L--0--0-2---x--x--x----2-|
--L-------2------------2-|--L--0----2------------2-|--L--0--0-2---x--x--x----2-|
--L--x--x-0------------0-|--L-----x-2------------0-|--L-------0---0--0--0--x-0-|
-----3--3----------------|-----3--2-0--------------|-----3--3--------------3---|


E E S E. E E E S S E E S E. E E E S S
---------------------------|---------------------------|
---------------------------|---------------------------|
--L--0-------------------2-|--L--0--0-2---x--x--x----2-|
--L--0----2---x--x--x----2-|--L--0--0-2---x--x--x----2-|
--L-----x-2---x--x--x--x-0-|--L-------0---0--0--0--x-0-|
-----3--2-0---0--0--0--3---|-----3--3--------------3---|


Chorus
E E S E. E E E S S S S S S S S S S E S S E. S
---------------------------|-------------------------------------|
---------------------------|-----------------------3----2~-L-----|
--L--0---------------------|-----------------------2----2~-L-----|
--L--0----2---x--x--x--x-x-|-------------------------------------|
--L-----x-2---x--x--x--x-x-|---------x-x-x-x-x-x-0-------------x-|
-----3--2-0---0--0--0--0-0-|--L------0-2-2-3-3-4-x-------------0-|


S S S S S S S S E S S E. S S S S S S S S S E S S E. S
--------------------------------|--------------------------------|
------------------8----8~-L-----|------------------3----2~-L-----|
------------------7----7~-L-----|------------------2----2~-L-----|
------------------6----6~-------|--------------------------------|
----x-x-x-x-x-x-0-7----7~-----x-|----x-x-x-x-x-x-0-------------x-|
--L-0-2-2-3-3-4-x-------------0-|--L-0-2-2-3-3-4-x-------------0-|


Bridge
S S S S S S S S E S S E. S Q. S S Q. S S
--------------------------------|------------------------|
------------------8----8~-L-----|-----------2-L------L---|
------------------7----7~-L---0-|--L------L-2-L------L---|
------------------6----6~-----0-|--L------L-2-L------L-9-|
----x-x-x-x-x-x-0-7----7~-------|-----------0-L------L-7-|
--L-0-2-2-3-3-4-x-------------3-|--L------L------------0-|


E E E E E E E S S Q. S S Q. S S
---------------------------|------------------------|
---------------------------|-----------2-L------L---|
-------------------------0-|--L------L-2-L------L---|
--L----------------------0-|--L------L-2-L------L-9-|
--L--x--x--x--x--x--x--x---|-----------0-L------L-7-|
--L--0--0--0--0--0--0--0-3-|--L------L------------0-|


E E E E E E E S S Q. S S Q E. S
---------------------------|------------------------|
---------------------------|-----------2-L----------|
-------------------------0-|--L------L-2-L----2-----|
--L----------------------0-|--L------L-2-L----2---9-|
--L--x--x--x--x--x--x--x---|-----------0-L----0---7-|
--L--0--0--0--0--0--0--0-3-|--L------L------------0-|


E E E E E E E S S Q. S S H W
---------------------------|----------------------|-------------------|
---------------------------|-----------2-L--------|-------------------|
-------------------------0-|--L------L-2-L--------|--4----------------|
--L----------------------0-|--L------L-2-L--------|--4----------------|
--L--x--x--x--x--x--x--x---|-----------0-L--------|--2----------------|
--L--0--0--0--0--0--0--0-3-|--L------L------------|-------------------|


H Q E S S S S S S S S S S E S S E. S
-----------------------|--------------------------------|
-----------------------|------------------3----2~-L-----|
--L--------L----L--L---|------------------2----2~-L-----|
--L--------L----L--L---|--------------------------------|
--L--------L----L--L-x-|----x-x-x-x-x-x-0-------------x-|
---------------------0-|--L-0-2-2-3-3-4-x-------------0-|


S S S S S S S S E S S E. S S S S S S S S S E S S E. S
--------------------------------|--------------------------------|
------------------8----8~-L-----|------------------3----2~-L-----|
------------------7----7~-L-----|------------------2----2~-L-----|
------------------6----6~-------|--------------------------------|
----x-x-x-x-x-x-0-7----7~-----x-|----x-x-x-x-x-x-0-------------x-|
--L-0-2-2-3-3-4-x-------------0-|--L-0-2-2-3-3-4-x-------------0-|


Verse 3
S S S S S S S S E S S E. S E E S E. Q E. S
--------------------------------|------------------------------|
------------------8----8~-L-----|------------------------------|
------------------7----7~-L---2-|--L------------2------------2-|
------------------6----6~-----2-|--L------------2------------2-|
----x-x-x-x-x-x-0-7----7~-----0-|--L-------x--x-0------------0-|
--L-0-2-2-3-3-4-x---------------|----------3--3----------------|


E E S E. Q E. S E E S E. Q E. S E E S E. Q E. S
-------------------------|-------------------------|-------------------------|
-------------------------|-------------------------|-------------------------|
--L--------------------2-|--L-------2------------2-|--L--------------------2-|
--L--0----2------------2-|--L-------2------------2-|--L--0----2------------2-|
--L-----x-2------------0-|--L--x--x-0------------0-|--L-----x-2------------0-|
-----3--2-0--------------|-----3--3----------------|-----3--2-0--------------|


E E S E. E E E S S E E S E. E E E S S
---------------------------|---------------------------|
---------------------------|---------------------------|
--L--0--0-2---x--x--x----2-|--L--0-------------------2-|
--L--0--0-2---x--x--x----2-|--L--0----2---x--x--x----2-|
--L-------0---0--0--0--x-0-|--L-----x-2---x--x--x--x-0-|
-----3--3--------------3---|-----3--2-0---0--0--0--3---|


E E S E. E E E S S E E S E. E E E S S
---------------------------|---------------------------|
---------------------------|---------------------------|
--L--0--0-2---x--x--x----2-|--L--0---------------------|
--L--0--0-2---x--x--x----2-|--L--0----2---x--x--x--x-x-|
--L-------0---0--0--0--x-0-|--L-----x-2---x--x--x--x-x-|
-----3--3--------------3---|-----3--2-0---0--0--0--0-0-|


Chorus
S S S S S S S S E S S E. S S S S S S S S S E S S E. S
-------------------------------------|--------------------------------|
-----------------------3----2~-L-----|------------------8----8~-L-----|
-----------------------2----2~-L-----|------------------7----7~-L-----|
-------------------------------------|------------------6----6~-------|
---------x-x-x-x-x-x-0-------------x-|----x-x-x-x-x-x-0-7----7~-----x-|
--L------0-2-2-3-3-4-x-------------0-|--L-0-2-2-3-3-4-x-------------0-|


S S S S S S S S E S S E. S S S S S S S S S E S S E. S
--------------------------------|--------------------------------|
------------------3----2~-L-----|------------------8----8~-L-----|
------------------2----2~-L-----|------------------7----7~-L---0-|
--------------------------------|------------------6----6~-----0-|
----x-x-x-x-x-x-0-------------x-|----x-x-x-x-x-x-0-7----7~-------|
--L-0-2-2-3-3-4-x-------------0-|--L-0-2-2-3-3-4-x-------------3-|


Bridge
Q. S S Q. S S E E E E E E E S S Q. S S Q. S S
------------------------|---------------------------|------------------------|
-----------2-L------L---|---------------------------|-----------2-L------L---|
--L------L-2-L------L---|-------------------------0-|--L------L-2-L------L---|
--L------L-2-L------L-9-|--L----------------------0-|--L------L-2-L------L-9-|
-----------0-L------L-7-|--L--x--x--x--x--x--x--x---|-----------0-L------L-7-|
--L------L------------0-|--L--0--0--0--0--0--0--0-3-|--L------L------------0-|


E E E E E E E S S Q. S S Q E. S
---------------------------|------------------------|
---------------------------|-----------2-L----------|
-------------------------0-|--L------L-2-L----2-----|
--L----------------------0-|--L------L-2-L----2---9-|
--L--x--x--x--x--x--x--x---|-----------0-L----0---7-|
--L--0--0--0--0--0--0--0-3-|--L------L------------0-|


E E E E E E E S S Q. S S H W
---------------------------|----------------------|-------------------|
---------------------------|-----------2-L--------|-------------------|
-------------------------0-|--L------L-2-L--------|--4----------------|
--L----------------------0-|--L------L-2-L--------|--4----------------|
--L--x--x--x--x--x--x--x---|-----------0-L--------|--2----------------|
--L--0--0--0--0--0--0--0-3-|--L------L------------|-------------------|


Interlude
H Q E S S S S E E E E E E S S
-----------------------|------------------------------------|
-----------------------|------------------------------------|
--L--------L----L--L---|------------------------------------|
--L--------L----L--L---|------------------------------------|
--L--------L----L--L-x-|------------x-x--x--x--x--x--x--x-x-|
---------------------0-|--L---------0-0--0--0--0--0--0--0-0-|


S S E E E E E E S S S S E E E E E E S S
----------------------------|----------------------------|
----------------------------|----------------------------|
----------------------------|----------------------------|
----------------------------|----------------------------|
----x-x--x--x--x--x--x--x-x-|----x-x--x--x--x--x--x--x-x-|
--L-0-0--0--0--0--0--0--0-0-|--L-0-0--0--0--0--0--0--0-0-|


S S E E E E E E S S S S E E E E E E S S
----------------------------|----------------------------|
----------------------------|----------------------------|
----------------------------|----------------------------|
----------------------------|----------------------------|
----x-x--x--x--x--x--x--x-x-|----x-x--x--x--x--x--x--x-x-|
--L-0-0--0--0--0--0--0--0-0-|--L-0-0--0--0--0--0--0--0-0-|


S S E E E E E E S S S S E E E E E E S S
----------------------------|----------------------------|
----------------------------|----------------------------|
----------------------------|----------------------------|
----------------------------|----------------------------|
----x-x--x--x--x--x--x--x-x-|----x-x--x--x--x--x--x--x-x-|
--L-0-0--0--0--0--0--0--0-0-|--L-0-0--0--0--0--0--0--0-0-|


Guitar Solo
S S E E E E E E. S Q. S S Q. S S
---------------------------|-----------------------------|
---------------------------|----------------2-L------L---|
-------------------------0-|--L-----------L-2-L------L---|
-------------------------0-|--L-----------L-2-L------L-9-|
--x-x-x--x--x--x-----------|----------------0-L------L-7-|
--0-0-0--0--0--0---------3-|--L-----------L------------0-|


E E E E E E E S S Q. S S Q. S S
---------------------------|------------------------|
---------------------------|-----------2-L------L---|
-------------------------0-|--L------L-2-L------L---|
--L----------------------0-|--L------L-2-L------L-9-|
--L--x--x--x--x--x--x--x---|-----------0-L------L-7-|
--L--0--0--0--0--0--0--0-3-|--L------L------------0-|


E E E E E E E S S Q. S S Q E. S
---------------------------|------------------------|
---------------------------|-----------2-L----------|
-------------------------0-|--L------L-2-L----2-----|
--L----------------------0-|--L------L-2-L----2---9-|
--L--x--x--x--x--x--x--x---|-----------0-L----0---7-|
--L--0--0--0--0--0--0--0-3-|--L------L------------0-|


E E E E E E E S S Q. S S H W
---------------------------|----------------------|-------------------|
---------------------------|-----------2-L--------|-------------------|
-------------------------0-|--L------L-2-L--------|--4----------------|
--L----------------------0-|--L------L-2-L--------|--4----------------|
--L--x--x--x--x--x--x--x---|-----------0-L--------|--2----------------|
--L--0--0--0--0--0--0--0-3-|--L------L------------|-------------------|


H Q E S S S S S S S S S S E S S E. S
-----------------------|--------------------------------|
-----------------------|------------------3----2~-L-----|
--L--------L----L--L---|------------------2----2~-L-----|
--L--------L----L--L---|--------------------------------|
--L--------L----L--L-x-|----x-x-x-x-x-x-0-------------x-|
---------------------0-|--L-0-2-2-3-3-4-x-------------0-|


S S S S S S S S E S S E. S S S S S S S S S E S S E. S
--------------------------------|--------------------------------|
------------------8----8~-L-----|------------------3----2~-L-----|
------------------7----7~-L-----|------------------2----2~-L-----|
------------------6----6~-------|--------------------------------|
----x-x-x-x-x-x-0-7----7~-----x-|----x-x-x-x-x-x-0-------------x-|
--L-0-2-2-3-3-4-x-------------0-|--L-0-2-2-3-3-4-x-------------0-|


S S S S S S S S E S S E. S S S S S S S S S E S S E. S
--------------------------------|--------------------------------|
------------------8----8~-L-----|------------------3----2~-L-----|
------------------7----7~-L-----|------------------2----2~-L-----|
------------------6----6~-------|--------------------------------|
----x-x-x-x-x-x-0-7----7~-----x-|----x-x-x-x-x-x-0-------------x-|
--L-0-2-2-3-3-4-x-------------0-|--L-0-2-2-3-3-4-x-------------0-|


S S S S S S S S E S S E. S S S S S S S S S E S S E. S
--------------------------------|--------------------------------|
------------------8----8~-L-----|------------------3----2~-L-----|
------------------7----7~-L-----|------------------2----2~-L-----|
------------------6----6~-------|--------------------------------|
----x-x-x-x-x-x-0-7----7~-----x-|----x-x-x-x-x-x-0-------------x-|
--L-0-2-2-3-3-4-x-------------0-|--L-0-2-2-3-3-4-x-------------0-|


S S S S S S S S E S S E. S Q. S S Q. S S
--------------------------------|------------------------|
------------------8----8~-L-----|-----------2-L------L---|
------------------7----7~-L---0-|--L------L-2-L------L---|
------------------6----6~-----0-|--L------L-2-L------L-9-|
----x-x-x-x-x-x-0-7----7~-------|-----------0-L------L-7-|
--L-0-2-2-3-3-4-x-------------3-|--L------L------------0-|


S S S S S S S S E S S E. S Q. S S Q. S S
--------------------------------|------------------------|
------------------3----2~-L-----|-----------2-L------L---|
------------------2----2~-L---0-|--L------L-2-L------L---|
------------------------------0-|--L------L-2-L------L-9-|
----x-x-x-x-x-x-0---------------|-----------0-L------L-7-|
--L-0-2-2-3-3-4-x-------------3-|--L------L------------0-|


S S S S S S S S E S S E. S Q. S S Q E. S
--------------------------------|------------------------|
------------------3----2~-L-----|-----------2-L----------|
------------------2----2~-L---0-|--L------L-2-L----2-----|
------------------------------0-|--L------L-2-L----2---9-|
----x-x-x-x-x-x-0---------------|-----------0-L----0---7-|
--L-0-2-2-3-3-4-x-------------3-|--L------L------------0-|


S S S S S S S S E S S E. S Q. S S H W
--------------------------------|----------------------|-------------------|
------------------3----2~-L-----|-----------2-L--------|-------------------|
------------------2----2~-L---0-|--L------L-2-L--------|--4----------------|
------------------------------0-|--L------L-2-L--------|--4----------------|
----x-x-x-x-x-x-0---------------|-----------0-L--------|--2----------------|
--L-0-2-2-3-3-4-x-------------3-|--L------L------------|-------------------|


Outro
H Q E S S S S S S S S S S E S S E. S
-----------------------|------------------------------------|
-----------------------|----------------------3----2~-L-----|
--L--------L----L--L---|----------------------2----2~-L-----|
--L--------L----L--L---|------------------------------------|
--L--------L----L--L-x-|--------x-x-x-x-x-x-0-------------x-|
---------------------0-|--L-----0-2-2-3-3-4-x-------------0-|


S S S S S S S S E S S E. S S S S S S S S S E S S E. S
--------------------------------|--------------------------------|
------------------8----8~-L-----|------------------3----2~-L-----|
------------------7----7~-L-----|------------------2----2~-L-----|
------------------6----6~-------|--------------------------------|
----x-x-x-x-x-x-0-7----7~-----x-|----x-x-x-x-x-x-0-------------x-|
--L-0-2-2-3-3-4-x-------------0-|--L-0-2-2-3-3-4-x-------------0-|


S S S S S S S S E S S E. S S S S S S S S S E S S E. S
--------------------------------|--------------------------------|
------------------8----8~-L-----|------------------3----2~-L-----|
------------------7----7~-L-----|------------------2----2~-L-----|
------------------6----6~-------|--------------------------------|
----x-x-x-x-x-x-0-7----7~-----x-|----x-x-x-x-x-x-0-------------x-|
--L-0-2-2-3-3-4-x-------------0-|--L-0-2-2-3-3-4-x-------------0-|


S S S S S S S S E S S E. S S S S S S S S S E S S E. S
--------------------------------|--------------------------------|
------------------8----8~-L-----|------------------3----2~-L-----|
------------------7----7~-L-----|------------------2----2~-L-----|
------------------6----6~-------|--------------------------------|
----x-x-x-x-x-x-0-7----7~-----x-|----x-x-x-x-x-x-0-------------x-|
--L-0-2-2-3-3-4-x-------------0-|--L-0-2-2-3-3-4-x-------------0-|


S S S S S S S S E S S E. S S S S S S S S S E S S E. S
--------------------------------|--------------------------------|
------------------8----8~-L-----|------------------3----2~-L-----|
------------------7----7~-L-----|------------------2----2~-L-----|
------------------6----6~-------|--------------------------------|
----x-x-x-x-x-x-0-7----7~-----x-|----x-x-x-x-x-x-0-------------x-|
--L-0-2-2-3-3-4-x-------------0-|--L-0-2-2-3-3-4-x-------------0-|


S S S S S S S S E S S E. S S S S S S S S S E S S E. S
--------------------------------|--------------------------------|
------------------8----8~-L-----|------------------3----2~-L-----|
------------------7----7~-L-----|------------------2----2~-L-----|
------------------6----6~-------|--------------------------------|
----x-x-x-x-x-x-0-7----7~-----x-|----x-x-x-x-x-x-0-------------x-|
--L-0-2-2-3-3-4-x-------------0-|--L-0-2-2-3-3-4-x-------------0-|


S S S S S S S S E S S E. S S S S S S S S S E S S E. S
--------------------------------|--------------------------------|
------------------8----8~-L-----|------------------3----2~-L-----|
------------------7----7~-L-----|------------------2----2~-L-----|
------------------6----6~-------|--------------------------------|
----x-x-x-x-x-x-0-7----7~-----x-|----x-x-x-x-x-x-0-------------x-|
--L-0-2-2-3-3-4-x-------------0-|--L-0-2-2-3-3-4-x-------------0-|


S S S S S S S S E S S E. S S S S S S S S S E S S E. S
--------------------------------|--------------------------------|
------------------8----8~-L-----|------------------3----2~-L-----|
------------------7----7~-L-----|------------------2----2~-L-----|
------------------6----6~-------|--------------------------------|
----x-x-x-x-x-x-0-7----7~-----x-|----x-x-x-x-x-x-0-------------x-|
--L-0-2-2-3-3-4-x-------------0-|--L-0-2-2-3-3-4-x-------------0-|


S S S S S S S S E S S E. S S S S S S S S S E S S E. S
--------------------------------|--------------------------------|
------------------8----8~-L-----|------------------3----2~-L-----|
------------------7----7~-L-----|------------------2----2~-L-----|
------------------6----6~-------|--------------------------------|
----x-x-x-x-x-x-0-7----7~-----x-|----x-x-x-x-x-x-0-------------x-|
--L-0-2-2-3-3-4-x-------------0-|--L-0-2-2-3-3-4-x-------------0-|


S S S S S S S S E S S E. S S S S S S S S S E S S E. S
--------------------------------|--------------------------------|
------------------8----8~-L-----|------------------3----2~-L-----|
------------------7----7~-L-----|------------------2----2~-L-----|
------------------6----6~-------|--------------------------------|
----x-x-x-x-x-x-0-7----7~-----x-|----x-x-x-x-x-x-0-------------x-|
--L-0-2-2-3-3-4-x-------------0-|--L-0-2-2-3-3-4-x-------------0-|


S S S S S S S S E S S E. S
--------------------------------||
------------------8----8~-L-----||
------------------7----7~-L-----||
------------------6----6~-------||
----x-x-x-x-x-x-0-7----7~-----x-||
--L-0-2-2-3-3-4-x-------------0-||




Duration Legend
---------------
W - whole
H - half
Q - quarter
E - 8th
S - 16th
T - 32nd
X - 64th
. - note dotted
|-n-| - n-tuplets


Tablature Legend
----------------
L - tied note
x - dead note
g - grace note
(n) - ghost note
> - accentuded note
NH - natural harmonic
AH - artificial harmonic
TH - tapped harmonic
SH - semi harmonic
PH - pitch harmonic
h - hammer on
p - pull off
b - bend
br - bendRelease
pb - preBend
pbr - preBendRelease
brb - bendReleaseBend
\n/ - tremolo bar dip
\n - tremolo bar dive
-/n - tremolo bar Release up
/n\ - tremolo bar inverted dip
/n - tremolo bar return
-\n - tremolo bar Release down
S - shift slide
s - legato slide
/ - slide into from below or out of upwards
\ - slide into from above or out of downwards
~ - vibrato
W - wide vibrato
tr - trill
TP - tremolo picking
T - tapping
S - slap
P - pop




Suggest correction


What's this?

You can suggest a correction to this tab. Community and Mods will review your correction and vote to approve or reject it.




Song info
Dr Feelgood
Mötley Crüe
2001
  • Rock
  • Glam
  • Hard Rock
Alternative tracks
Similar songs
Love Hate Love - Alice in Chains
Tears In My Eyes - Uriah Heep
Am I Going Insane - Black Sabbath
Poison - Alice Cooper

Hi! Hope you enjoy backing track experience.
If you want to help us in the development of the project, feel free to donate!