Fight Song - Marilyn Manson
00:00 / 00:00
Tabs and lyrics
Tunning: Standard (E A D G B e)
This Is a pretty easy song but fun to play!!!!!!
Tabbed by THE WARLOCK

Intro/Verse

E---2-xx55---2-xx55
B---2-xx55---2-xx55
G-----xx66-----xx66
D-----xx77-----xx77
A-----xx77-----xx77
E--2--xx55--2--xx55

Intro/Chorus
E---------------------------------------------------------
B---------------------------------------------------------
G---------------------------------------------------------
D--44-22-4-7---44-22-4-7---44-22-4-7---44-22-4-2----------
A--44-22-4-7---44-22-4-7---44-22-4-7---44-22-4-2----------
E--22-00-2-5---22-00-2-5---22-00-2-5---22-00-2-0----------
Im not a slave....


After Chorus
E---------------------------------------------------------
B---------------------------------------------------------
G---------------------------------------------------------
D--77777--44444--77777--44444--99999--66666--77777--44444
A--77777--44444--77777--44444--99999--66666--77777--44444
E--55555--22222--55555--22222--77777--44444--55555--22222

Play Chorus When He screams fight.

Verse

Then The Thing That was Played After The Chorus

Bridge

E-----------------------------------------------------------
B-----------------------------------------------------------
G-----------------------------------------------------------
D--777777-9-4444-777777-9-4444-777777-9-4444-777777-9-4444-7
A--777777-9-4444-777777-9-4444-777777-9-4444-777777-9-4444-7
E--555555-7-2222-555555-7-2222-555555-7-2222-555555-7-2222-5

Chorus
Thats It!!!!!!!!!!! Have fun playing this
Tunning: Standard (E A D G B e)
Marilyn Manson - The Fight Song
From Total Guitar - so is %100 correct.

Intro W/light distortion (also used in verses)
----------------------------------------------------------------
--------------------------------xxx-----------------------------
--------------------------------xxx-----------------------------
----11--11----------11--14--14--xxx-----------------------------
----9---9-----------9---12--12----------------------------------
------------0---0-----------------------------------------------

----------------------------------------------------------------
--------------------------------xxx-----------------------------
--------------------------------xxx-----------------------------
----11--11----------11--14--14--xxx-----------------------------
----9---9-----------9---12--12----------------------------------
------------0---0-----------------------------------------------

Intro Cont'd (Also used in Chorus)

-----------------------1/4-b------------------------------------
------------------------/---------------------------------------
-----------------------/----------------------------------------
--4--4--2--2--4--7----7-----------------------------------------
--4--4--2--2--4--7----7-----------------------------------------
--2--2--0--0--2--5----5-----------------------------------------

-----------------------1/4-b------------------------------------
------------------------/---------------------------------------
-----------------------/----------------------------------------
--4--4--2--2--4--7----7-----------------------------------------
--4--4--2--2--4--7----7-----------------------------------------
--2--2--0--0--2--5----5-----------------------------------------

-----------------------1/4-b------------------------------------
------------------------/---------------------------------------
-----------------------/----------------------------------------
--4--4--2--2--4--7----7-----------------------------------------
--4--4--2--2--4--7----7-----------------------------------------
--2--2--0--0--2--5----5-----------------------------------------

----------------------------------------------------------------
----------------------------------------------------------------
----------------------------------------------------------------
--4--4--2--2--4--2--2--2----------------------------------------
--4--4--2--2--4--2--2--2----------------------------------------
--2--2--0--0--2--0--0--0----------------------------------------

Pre-Chorus Lead

-----5-----5-----5-----5-----------------5------5---5-----------
--7(10)--(10)--(10)--(10)---(7)---7---7(10)--7(10)----7(10)-7~~~
----------------------------------------------------------------
----------------------------------------------------------------
----------------------------------------------------------------
----------------------------------------------------------------

----------------------------------------------------------------
-----7-----7-----7-----7---------7------7------7---7-----7------
--9(11)--(11)--(11)--(11)--9--9(11)--9(11)--9(11)--11--(11)--9~~
----------------------------------------------------------------
----------------------------------------------------------------
----------------------------------------------------------------

Comments and hatemail to - Clangerfreak@hotmail.com

~*jinxx*~
Tunning: Standard (E A D G B e)
Artist:Marilyn Manson
Album:Holywood
Song:The Fight Song
----------------------
as tabbed by Posthuman
posthuman696@hotmail.com
------------------------

Standard tuning


[Intro]
NH
e|-----(12)-----------------------------------------------------|
B|--------------------------------------------------------------|
G|--------------------------------------------------------------|
D|-11------------11---14--14--14--11--11------11--14--14--14----|
A|-9-------------9----12--12--12--9---9-------9---12--12--12----|
E|----------0-----------------------------0---------------------|


[Main Riff]

e|--------------------------------------------------------------|
B|--------------------------------------------------------------|
G|----------------2---------------------------------------------|
D|-4--4--------4--2----------4--4--------4--2--2--2-------------|
A|-4--4--------4--0---(x3)---4--4--------4--2--2--2-------------|
E|-2--2--0--0--2-------------2--2--0--0--2--0--0--0-------------|


[Riff 1]

NH
e|-----(12)-----------------------------------------------------|
B|--------------------------------------------------------------|
G|--------------------------------------------------------------|
D|-11------------11---14--14--14--11--11------11--14--14--14----|
A|-9-------------9----12--12--12--9---9-------9---12--12--12----|
E|----------0-----------------------------0---------------------|

Riff 1(continues):

e|--------------------------------------------------------------|
B|--------------------------------------------------------------|
G|--------------------------------------------------------------|
D|-11--11------11--14--14--14--11--11-----11--9--9--9-----------|
A|-9---9-------9---12--12--12--9---9------9---7--7--7-----------|
E|---------0---------------------------0------------------------|


[Riff 2]

e|-------------------------------------------------------------------|
B|-------------------------------------------------------------------|
G|-------------------------------------------------------------------|
D|-9------7------9------7------12------9------7------14------15------|
A|-9-(x8)-7-(x8)-9-(x8)-7-(x8)-12-(x8)-9-(x8)-7-(x8)-14-(x6)-15-(x2)-|
E|-7------5------7------5------10------7------5------12------13------|


[Riff 3]

e|-----------------------------------|
B|-----------------------------------|
G|-----------------------------------|
D|-10------12--7---------------------|
A|-10-(x8)-12--7-(x8)----------------|
E|--8------10--5---------------------|
("the death of one is a tragedy....")


[Riff 4]

e|------------------------------------------|
B|------------------------------------------|
G|------------------------------------------|
D|-10---------------------------------------|
A|-10-(x16)---------------------------------|
E|--8---------------------------------------|
("the death of million is just a statistic.....")

nice song............. :--)



************************************

| (n) Ghost note

************************************
Tunning: Standard (E A D G B e)
THE FIGHT SONG
As recorded by Marilyn Manson
(From the 2000 Album HOLYWOOD)

Words by Marilyn Manson

Music by John 5

Gtr I (D A D G B E) - 'John 5'
Gtr II (D A D G B E) - 'John 5'
Gtr III (D A D G B E) - 'M.W. Gacy'

Intro
Q=130
4/4
Gtr I
E E E S S E E E E E E E S S E E E E
|----12----------------|----------------------|
|----------------------|----------------------|
|----------------9-9---|----------------9-9---|
|-11----9-9---11-7-7-9-|-11-11-9-9---11-7-7-9-|
|--9----7-7----9-----7-|--9--9-7-7----9-----7-|
|----------------------|----------------------|


F#5 E5 A5 F#5 E5 A5
Gtr II
E E E E E E E E E E E E E E E E
|-----------------|-----------------|
|-----------------|-----------------|
|-----------2-2-2-|-----------2-2-2-|
|-4-4-2-2-4-2-2-2-|-4-4-2-2-4-2-2-2-|
|-4-4-2-2-4-0-0-0-|-4-4-2-2-4-0-0-0-|
|-4-4-2-2-4-------|-4-4-2-2-4-------|


F#5 E5 A5 F#5 E5 E5 F#5 E5 A5 F#5 E5 A5
E E E E E E E E E E E E E E E E E E E E E E E E E E E E E E E E
|-----------------|-----------------|-----------------|------------------|
|-----------------|-----------------|-----------------|------------------|
|-----------2-2-2-|-----------------|-----------2-2-2-|-----------2-2-2--|
|-4-4-2-2-4-2-2-2-|-4-4-2-2-4-2-2-2-|-4-4-2-2-4-2-2-2-|-4-4-2-2-4-2-2-2--|
|-4-4-2-2-4-0-0-0-|-4-4-2-2-4-2-2-2-|-4-4-2-2-4-0-0-0-|-4-4-2-2-4-0-0-0--|
|-4-4-2-2-4-------|-4-4-2-2-4-2-2-2-|-4-4-2-2-4-------|-4-4-2-2-4--------|


F#5 E5 A5 F#5 E5
E E E E E E E E E E E E E E E E
|-----------------|-----------------|
|-----------------|-----------------|
|-----------2-2-2-|-----------------|
|-4-4-2-2-4-2-2-2-|-4-4-2-2-4-2-2-2-|
|-4-4-2-2-4-0-0-0-|-4-4-2-2-4-2-2-2-|
|-4-4-2-2-4-------|-4-4-2-2-4-2-2-2-|


Gtr I
E E E S S E E E E E E E S S E E E E
|----12----------------|-----------------------|
|----------------------|-----------------------|
|----------------9-9---|----------------9-9----|
|-11----9-9---11-7-7-9-|-11-11-9-9---11-7-7-9--|
|--9----7-7----9-----7-|--9--9-7-7----9-----7--|
|----------------------|-----------------------|


E E E S S E E E E E E E S S E E E E
|----------------------|----------------------||
|----------------------|----------------------||
|----------------9-9---|----------------------||
|-11-11-9-9---11-7-7-9-|-11-11-9-9---11-9-9-9-||
|--9--9-7-7----9-----7-|--9--9-7-7----9-7-7-7-||
|----------------------|----------------------||


Verse
E E E S S E E E E E E E S S E E E E
|----12----------------|------------------------|
|----------------------|------------------------|
|----------------9-9---|----------------9-9-----|
|-11----9-9---11-7-7-9-|-11-11-9-9---11-7-7-9---|
|--9----7-7----9-----7-|--9--9-7-7----9-----7---|
|----------------------|------------------------|


E E E S S E E E E E E E S S E E E E
|----------------------|----------------------|
|----------------------|----------------------|
|----------------9-9---|----------------------|
|-11-11-9-9---11-7-7-9-|-11-11-9-9---11-9-9-9-|
|--9--9-7-7----9-----7-|--9--9-7-7----9-7-7-7-|
|----------------------|----------------------|


E E E S S E E E E E E E S S E E E E
|----12----------------|------------------------|
|----------------------|------------------------|
|----------------9-9---|----------------9-9-----|
|-11----9-9---11-7-7-9-|-11-11-9-9---11-7-7-9---|
|--9----7-7----9-----7-|--9--9-7-7----9-----7---|
|----------------------|------------------------|


E E E S S E E E E E E E S S E E E E
|----------------------|----------------------||
|----------------------|----------------------||
|----------------9-9---|----------------9-9---||
|-11-11-9-9---11-7-7-9-|-11-11-9-9---11-7-7-9-||
|--9--9-7-7----9-----7-|--9--9-7-7----9-----7-||
|----------------------|----------------------||


Pre-Chorus
F#5 E5 A5 F#5 E5 A5
Gtr II
E E E E E E E E E E E E E E E E
|-----------------|------------------|
|-----------------|------------------|
|-----------2-2-2-|-----------2-2-2--|
|-4-4-2-2-4-2-2-2-|-4-4-2-2-4-2-2-2--|
|-4-4-2-2-4-0-0-0-|-4-4-2-2-4-0-0-0--|
|-4-4-2-2-4-------|-4-4-2-2-4--------|


F#5 E5 A5 F#5 E5 F#5 E5 A5 F#5 E5 A5
E E E E E E E E E E E E E E E E E E E E E E E E E E E E E E E E
|-----------------|-----------------|-----------------|------------------|
|-----------------|-----------------|-----------------|------------------|
|-----------2-2-2-|-----------------|-----------2-2-2-|-----------2-2-2--|
|-4-4-2-2-4-2-2-2-|-4-4-2-2-4-2-2-2-|-4-4-2-2-4-2-2-2-|-4-4-2-2-4-2-2-2--|
|-4-4-2-2-4-0-0-0-|-4-4-2-2-4-2-2-2-|-4-4-2-2-4-0-0-0-|-4-4-2-2-4-0-0-0--|
|-4-4-2-2-4-------|-4-4-2-2-4-2-2-2-|-4-4-2-2-4-------|-4-4-2-2-4--------|


F#5 E5 A5 F#5 E5 B5 A5
E E E E E E E E E E E E E E E E E E E E E E E E E E E E E E E E
|-----------------|-----------------|-----------------|------------------|
|-----------------|-----------------|-----------------|------------------|
|-----------2-2-2-|-----------------|-4-4-4-4-4-4-4-4-|-2-2-2-2-2-2-2-2--|
|-4-4-2-2-4-2-2-2-|-4-4-2-2-4-2-2-2-|-4-4-4-4-4-4-4-4-|-2-2-2-2-2-2-2-2--|
|-4-4-2-2-4-0-0-0-|-4-4-2-2-4-2-2-2-|-2-2-2-2-2-2-2-2-|-0-0-0-0-0-0-0-0--|
|-4-4-2-2-4-------|-4-4-2-2-4-2-2-2-|-----------------|------------------|


B5 A5 D5 B5
E E E E E E E E E E E E E E E E E E E E E E E E E E E E E E E E
|-----------------|-----------------|-----------------|------------------|
|-----------------|-----------------|-3-3-3-3-3-3-3-3-|------------------|
|-4-4-4-4-4-4-4-4-|-2-2-2-2-2-2-2-2-|-2-2-2-2-2-2-2-2-|-4-4-4-4-4-4-4-4--|
|-4-4-4-4-4-4-4-4-|-2-2-2-2-2-2-2-2-|-0-0-0-0-0-0-0-0-|-4-4-4-4-4-4-4-4--|
|-2-2-2-2-2-2-2-2-|-0-0-0-0-0-0-0-0-|-----------------|-2-2-2-2-2-2-2-2--|
|-----------------|-----------------|-----------------|------------------|


Chorus
A5 E5 F#5 E5 A5 F#5 E5 A5
E E E E E E E E E E E E E E E E E E E E E E E E E E E E E E E E
|-----------------|-----------------||-----------------|------------------|
|-----------------|-----------------||-----------------|------------------|
|-2-2-2-2-2-2-2-2-|-----------------||-----------2-2-2-|-----------2-2-2--|
|-2-2-2-2-2-2-2-2-|-2-2-2-2-2-2-2-2-||-4-4-2-2-4-2-2-2-|-4-4-2-2-4-2-2-2--|
|-0-0-0-0-0-0-0-0-|-2-2-2-2-2-2-2-2-||-4-4-2-2-4-0-0-0-|-4-4-2-2-4-0-0-0--|
|-----------------|-2-2-2-2-2-2-2-2-||-4-4-2-2-4-------|-4-4-2-2-4--------|


F#5 E5 A5 F#5 E5 F#5 E5 A5 F#5 E5 A5
E E E E E E E E E E E E E E E E E E E E E E E E E E E E E E E E
|-----------------|-----------------|-----------------|------------------|
|-----------------|-----------------|-----------------|------------------|
|-----------2-2-2-|-----------------|-----------2-2-2-|-----------2-2-2--|
|-4-4-2-2-4-2-2-2-|-4-4-2-2-4-2-2-2-|-4-4-2-2-4-2-2-2-|-4-4-2-2-4-2-2-2--|
|-4-4-2-2-4-0-0-0-|-4-4-2-2-4-2-2-2-|-4-4-2-2-4-0-0-0-|-4-4-2-2-4-0-0-0--|
|-4-4-2-2-4-------|-4-4-2-2-4-2-2-2-|-4-4-2-2-4-------|-4-4-2-2-4--------|


F#5 E5 A5 F#5 E5
E E E E E E E E E E E E E E E E
|-----------------|-----------------||
|-----------------|-----------------||
|-----------2-2-2-|-----------------||
|-4-4-2-2-4-2-2-2-|-4-4-2-2-4-2-2-2-||
|-4-4-2-2-4-0-0-0-|-4-4-2-2-4-2-2-2-||
|-4-4-2-2-4-------|-4-4-2-2-4-2-2-2-||


Verse
Gtr I
E E E S S E E E E E E E S S E E E E
|----12----------------|-----------------------|
|----------------------|-----------------------|
|----------------9-9---|----------------9-9----|
|-11----9-9---11-7-7-9-|-11-11-9-9---11-7-7-9--|
|--9----7-7----9-----7-|--9--9-7-7----9-----7--|
|----------------------|-----------------------|


E E E S S E E E E E E E S S E E E E
|----------------------|----------------------|
|----------------------|----------------------|
|----------------9-9---|----------------------|
|-11-11-9-9---11-7-7-9-|-11-11-9-9---11-9-9-9-|
|--9--9-7-7----9-----7-|--9--9-7-7----9-7-7-7-|
|----------------------|----------------------|


E E E S S E E E E E E E S S E E E E
|----12----------------|------------------------|
|----------------------|------------------------|
|----------------9-9---|----------------9-9-----|
|-11----9-9---11-7-7-9-|-11-11-9-9---11-7-7-9---|
|--9----7-7----9-----7-|--9--9-7-7----9-----7---|
|----------------------|------------------------|


E E E S S E E E E E E E S S E E E E
|----------------------|----------------------||
|----------------------|----------------------||
|----------------9-9---|----------------------||
|-11-11-9-9---11-7-7-9-|-11-11-9-9---11-9-9-9-||
|--9--9-7-7----9-----7-|--9--9-7-7----9-7-7-7-||
|----------------------|----------------------||


Pre-Chorus
B5 A5
Gtr II
E E E E E E E E E E E E E E E E
|-----------------|------------------|
|-----------------|------------------|
|-4-4-4-4-4-4-4-4-|-2-2-2-2-2-2-2-2--|
|-4-4-4-4-4-4-4-4-|-2-2-2-2-2-2-2-2--|
|-2-2-2-2-2-2-2-2-|-0-0-0-0-0-0-0-0--|
|-----------------|------------------|


B5 A5 D5 B5
E E E E E E E E E E E E E E E E E E E E E E E E E E E E E E E E
|-----------------|-----------------|-----------------|------------------|
|-----------------|-----------------|-3-3-3-3-3-3-3-3-|------------------|
|-4-4-4-4-4-4-4-4-|-2-2-2-2-2-2-2-2-|-2-2-2-2-2-2-2-2-|-4-4-4-4-4-4-4-4--|
|-4-4-4-4-4-4-4-4-|-2-2-2-2-2-2-2-2-|-0-0-0-0-0-0-0-0-|-4-4-4-4-4-4-4-4--|
|-2-2-2-2-2-2-2-2-|-0-0-0-0-0-0-0-0-|-----------------|-2-2-2-2-2-2-2-2--|
|-----------------|-----------------|-----------------|------------------|


Chorus
A5 E5 F#5 E5 A5 F#5 E5 A5
E E E E E E E E E E E E E E E E E E E E E E E E E E E E E E E E
|-----------------|-----------------||-----------------|------------------|
|-----------------|-----------------||-----------------|------------------|
|-2-2-2-2-2-2-2-2-|-----------------||-----------2-2-2-|-----------2-2-2--|
|-2-2-2-2-2-2-2-2-|-2-2-2-2-2-2-2-2-||-4-4-2-2-4-2-2-2-|-4-4-2-2-4-2-2-2--|
|-0-0-0-0-0-0-0-0-|-2-2-2-2-2-2-2-2-||-4-4-2-2-4-0-0-0-|-4-4-2-2-4-0-0-0--|
|-----------------|-2-2-2-2-2-2-2-2-||-4-4-2-2-4-------|-4-4-2-2-4--------|


F#5 E5 A5 F#5 E5 F#5 E5 A5 F#5 E5 A5
E E E E E E E E E E E E E E E E E E E E E E E E E E E E E E E E
|-----------------|-----------------|-----------------|------------------|
|-----------------|-----------------|-----------------|------------------|
|-----------2-2-2-|-----------------|-----------2-2-2-|-----------2-2-2--|
|-4-4-2-2-4-2-2-2-|-4-4-2-2-4-2-2-2-|-4-4-2-2-4-2-2-2-|-4-4-2-2-4-2-2-2--|
|-4-4-2-2-4-0-0-0-|-4-4-2-2-4-2-2-2-|-4-4-2-2-4-0-0-0-|-4-4-2-2-4-0-0-0--|
|-4-4-2-2-4-------|-4-4-2-2-4-0-0-0-|-4-4-2-2-4-------|-4-4-2-2-4--------|


Bridge
F#5 E5 A5 F#5 E5 C5 D5 A5
E E E E E E E E E E E E E E E E E E E E E E E E E E E E E E E E
|-----------------|-----------------||-----------------|------------------|
|-----------------|-----------------||-----------------|------------------|
|-----------2-2-2-|-----------------||-5-5-5-5-5-5-5-7-|-2-2-2-2-2-2-2-2--|
|-4-4-2-2-4-2-2-2-|-4-4-2-2-4-2-2-2-||-5-5-5-5-5-5-5-7-|-2-2-2-2-2-2-2-2--|
|-4-4-2-2-4-0-0-0-|-4-4-2-2-4-2-2-2-||-3-3-3-3-3-3-3-5-|-0-0-0-0-0-0-0-0--|
|-4-4-2-2-4-------|-4-4-2-2-4-0-0-0-||-----------------|------------------|


C5 D5 A5 C5 D5 A5
E E E E E E E E E E E E E E E E E E E E E E E E E E E E E E E E
|-----------------|-----------------|-----------------|------------------|
|-----------------|-----------------|-----------------|------------------|
|-5-5-5-5-5-5-5-7-|-2-2-2-2-2-2-2-2-|-5-5-5-5-5-5-5-7-|-2-2-2-2-2-2-2-2--|
|-5-5-5-5-5-5-5-7-|-2-2-2-2-2-2-2-2-|-5-5-5-5-5-5-5-7-|-2-2-2-2-2-2-2-2--|
|-3-3-3-3-3-3-3-5-|-0-0-0-0-0-0-0-0-|-3-3-3-3-3-3-3-5-|-0-0-0-0-0-0-0-0--|
|-----------------|-----------------|-----------------|------------------|


Out-Chorus
C5 A5 B5 F#5 E5 A5 F#5 E5 A5
E E E E E E E E E E E E E E E E E E E E E E E E E E E E E E E E
|-----------------|-----------------||-------------------|--------------------|
|-----------------|-----------------||-------------------|--------------------|
|-5-5-5-5-5-5-5-5-|-2-2-2-2-4-4-4-4-||-------------2-2-2-|-------------2-2-2--|
|-5-5-5-5-5-5-5-5-|-2-2-2-2-4-4-4-4-||--4-4-2-2--4-2-2-2-|--4-4-2-2--4-2-2-2--|
|-3-3-3-3-3-3-3-3-|-0-0-0-0-2-2-2-2-||--4-4-2-2--4-0-0-0-|--4-4-2-2--4-0-0-0--|
|-----------------|-----------------||--2-2-2-2--2-------|--2-2-2-2--2--------|
|
| Gtr III
| W W H H H H
|-----------------|-----------------||-------------------|--------------------|
|-----------------|-----------------||----------14-------|----------14--------|
|-----------------|-----------------||----------16-------|----------16--------|
|-----------------|-----------------||-16----------------|-16-----------------|
|-----------------|-----------------||-------------------|--------------------|
|-----------------|-----------------||-------------------|--------------------|


F#5 E5 A5 F#5 E5
E E E E E E E E E E E E E E E E
|-------------------|-------------------|
|-------------------|-------------------|
|-------------2-2-2-|-------------------|
|--4-4-2-2--4-2-2-2-|--4-4-2-2--4-2-2-2-|
|--4-4-2-2--4-0-0-0-|--4-4-2-2--4-2-2-2-|
|--2-2-2-2--2-------|--2-2-2-2--2-2-2-2-|
|
| H H H H
|-------------------|-------------------|
|----------14-------|----------14-------|
|----------16-------|----------16-------|
|-16----------------|-16----------------|
|-------------------|-------------------|
|-------------------|-------------------|


F#5 E5 A5 F#5 E5 A5
E E E E E E E E E E E E E E E E
|-------------------|--------------------|
|-------------------|--------------------|
|-------------2-2-2-|-------------2-2-2--|
|--4-4-2-2--4-2-2-2-|--4-4-2-2--4-2-2-2--|
|--4-4-2-2--4-0-0-0-|--4-4-2-2--4-0-0-0--|
|--2-2-2-2--2-------|--2-2-2-2--2--------|
|
| H H H H
|-------------------|--------------------|
|----------14-------|----------14--------|
|----------16-------|----------16--------|
|-16----------------|-16-----------------|
|-------------------|--------------------|
|-------------------|--------------------|


F#5 E5 A5 F#5 E5
E E E E E E E E E E E E E E E E
|-------------------|-------------------||
|-------------------|-------------------||
|-------------2-2-2-|-------------------||
|--4-4-2-2--4-2-2-2-|--4-4-2-2--4-2-2-2-||
|--4-4-2-2--4-0-0-0-|--4-4-2-2--4-2-2-2-||
|--2-2-2-2--2-------|--2-2-2-2--2-2-2-2-||
|
| H H H H
|-------------------|-------------------||
|----------14-------|----------14-------||
|----------16-------|----------16-------||
|-16----------------|-16----------------||
|-------------------|-------------------||
|-------------------|-------------------||


Outro
F#5 E5 A5 F#5 E5 A5
E E E E E E E E E E E E E E E E
|-------------------|--------------------|
|-------------------|--------------------|
|-------------2-2-2-|-------------2-2-2--|
|--4-4-2-2--4-2-2-2-|--4-4-2-2--4-2-2-2--|
|--4-4-2-2--4-0-0-0-|--4-4-2-2--4-0-0-0--|
|--2-2-2-2--2-------|--2-2-2-2--2--------|
|
| H H H H
|-------------------|--------------------|
|----------14-------|----------14--------|
|----------16-------|----------16--------|
|-16----------------|-16-----------------|
|-------------------|--------------------|
|-------------------|--------------------|


F#5 E5 A5 F#5 E5
E E E E E E E E E E E E E E E E
|-------------------|-------------------|
|-------------------|-------------------|
|-------------2-2-2-|-------------------|
|--4-4-2-2--4-2-2-2-|--4-4-2-2--4-2-2-2-|
|--4-4-2-2--4-0-0-0-|--4-4-2-2--4-2-2-2-|
|--2-2-2-2--2-------|--2-2-2-2--2-2-2-2-|
|
| H H H H
|-------------------|-------------------|
|----------14-------|----------14-------|
|----------16-------|----------16-------|
|-16----------------|-16----------------|
|-------------------|-------------------|
|-------------------|-------------------|


F#5 E5 A5 F#5 E5 A5
E E E E E E E E E E E E E E E E
|-------------------|--------------------|
|-------------------|--------------------|
|-------------2-2-2-|-------------2-2-2--|
|--4-4-2-2--4-2-2-2-|--4-4-2-2--4-2-2-2--|
|--4-4-2-2--4-0-0-0-|--4-4-2-2--4-0-0-0--|
|--2-2-2-2--2-------|--2-2-2-2--2--------|
|
| H H H H
|-------------------|--------------------|
|----------14-------|----------14--------|
|----------16-------|----------16--------|
|-16----------------|-16-----------------|
|-------------------|--------------------|
|-------------------|--------------------|


F#5 E5 A5 F#5 E5
E E E E E E E E E E E E E E E E
|-------------------|-------------------*|
|-------------------|-------------------*|
|-------------2-2-2-|-------------------*|
|--4-4-2-2--4-2-2-2-|--4-4-2-2--4-2-2-2-*|
|--4-4-2-2--4-0-0-0-|--4-4-2-2--4-2-2-2-*|
|--2-2-2-2--2-------|--2-2-2-2--2-2-2-2-*|
|
| H H H H
|-------------------|-------------------*|
|----------14-------|----------14-------*|
|----------16-------|----------16-------*|
|-16----------------|-16----------------*|
|-------------------|-------------------*|
|-------------------|-------------------*|


Duration Legend
---------------
W - whole; H - half; Q - quarter; E - 8th; S - 16th; T - 32nd; X - 64th; a - acciaccatura
+ - note tied to previous; . - note dotted; .. - note double dotted
Uncapitalized letters represent notes that are staccato (1/2 duration)
Irregular groupings are notated above the duration line
Duration letters will always appear directly above the note/fret number it represents the
duration for. Duration letters with no fret number below them represent rests. Multi-
bar rests are notated in the form Wxn, where n is the number of bars to rest for. Low
melody durations appear below the staff

Tablature Legend
----------------
h - hammer-on
p - pull-off
b - bend
pb - pre-bend
r - bend release (if no number after the r, then release immediately)
/\ - slide into or out of (from/to "nowhere")
s - legato slide
S - shift slide
- natural harmonic
[n] - artificial harmonic
n(n) - tapped harmonic
~ - vibrato
tr - trill
T - tap
TP - trem. picking
PM - palm muting
\n/ - tremolo bar dip; n = amount to dip
\n - tremolo bar down
n/ - tremolo bar up
/n\ - tremolo bar inverted dip
= - hold bend; also acts as connecting device for hammers/pulls
- volume swell (louder/softer)
x - on rhythm slash represents muted slash
o - on rhythm slash represents single note slash

Misc Legend
-----------
| - bar
|| - double bar
||o - repeat start
o|| - repeat end
*| - double bar (ending)
: - bar (freetime)
$ - Segno
& - Coda
Tempo markers - = BPM(8/16=s8/s16), where s8 = swing 8ths, s16 = swing 16ths
Song info
Fight Song
Marilyn Manson
2001
  • Rock
  • Industrial
Similar songs
Disassociative - Marilyn Manson
Archetype - Fear Factory
Engel - Rammstein
The Hand That Feeds - Nine Inch Nails
Just One Fix - Ministry

Hi! Hope you enjoy backing track experience.
If you want to help us in the development of the project, feel free to donate!