She Will Be Loved - Maroon 5
00:00 / 00:00
Tabs and lyrics
Tunning: Standard (E A D G B e)
Band - Maroon 5 (Acoustic)
Song - She Will Be Loved (from 1.22.03. Acoustic)


[Intro]

e|--------------------------------3---------------------------|
B|----4-4-4-4-------3-3-------------4-4-4-4-------3-----------|
G|----------------------3-3-------------------------3-3-------|
D|----------------3------3----------------------3----3--------|
A|--3-----------1-------------3---------------1-----------3---|
E|------------------------------------------------------------|


[Verse]

e|--------------------------------3---------------------------|
B|----4-4-4-4-------3-3-------------4-4-4-4-------3-----------|
G|----------------------3-3-------------------------3-3-------|
D|----------------3------3----------------------3----3--------| x4
A|--3-----------1-------------3---------------1-----------3---|
E|------------------------------------------------------------|


[Chorus]

e|-----------------------------------------------------------------|
B|-----------------------------------------------------------------|
G|--8-8-8-8-8-8-8-8-7-7-7-7-7-7-7-7-5-5-5-5-5-5-5-5-5-5-5-5-5-5-5-5|
D|--8-8-8-8-8-8-8-8-8-8-8-8-8-8-8-8-5-5-5-5-5-5-5-5-6-6-6-6-6-6-6-6| x4
A|--6-6-6-6-6-6-6-6-8-8-8-8-8-8-8-8-3-3-3-3-3-3-3-3-6-6-6-6-6-6-6-6|
E|------------------6-6-6-6-6-6-6-6-----------------4-4-4-4-4-4-4-4|


[Bridge]

e|-------------------------------3-------------|
B|-----4-4-4-4-------3-3-----------4-4-4-4-----|
G|-----------------------3---3-----------------|
D|----------------3--------3-------------------|
A|--3-----------1--------------3------------1--|
E|---------------------------------------------|


[Chorus]

e|-----------------------------------------------------------------|
B|-----------------------------------------------------------------|
G|--8-8-8-8-8-8-8-8-7-7-7-7-7-7-7-7-5-5-5-5-5-5-5-5-5-5-5-5-5-5-5-5|
D|--8-8-8-8-8-8-8-8-8-8-8-8-8-8-8-8-5-5-5-5-5-5-5-5-6-6-6-6-6-6-6-6| x6
A|--6-6-6-6-6-6-6-6-8-8-8-8-8-8-8-8-3-3-3-3-3-3-3-3-6-6-6-6-6-6-6-6|
E|------------------6-6-6-6-6-6-6-6-----------------4-4-4-4-4-4-4-4|
Tunning: Standard (E A D G B e)
She Will Be Loved
Maroon 5

sounds like a pretty easy song, but when you dissect it....
well, you get this:


Standard Tuning, 2 Guitars

-------------------------------------------------------------------------
Structure:

Intro (Guitar 1)
Verse (Guitar 1) ("beauty queen...")
Verse con't (Guitar 1 + 2) ("i drove for miles and miles...")
Pre-Chorus (Guitar 1 + 2) ("i don't mind spending every day...")
Chorus - last 4 measures (Guitar 1 + 2) ("and she will be loved...")
Verse (Guitar 1 + 2) ("tap on my window...")
Verse (Guitar 1 + 2) ("it's not always rainbows and butterflies...")
Pre-Chorus (Guitar 1 + 2) ("i don't mind spending every day...")
Chorus - last 4 measures x2 (Guitar 1 + 2) ("and she will be loved...")
Bridge (Piano) ("i know where you hide, alone in your car..."
Verse (Guitar 1) ("tap on my window...")
Pre-Chours (Guitar 1 + 2) ("i don't mind spending every day...")
Chorus (Guitar 1) ("and she will be loved...")
Chorus (Guitar 1 + 2) ("please don't try so hard to say goodbye...")
Outro (Guitar 1) ("please don't try so hard to say goodbye..."


-------------------------------------------------------------------------
[Intro/Verse]


Guitar 1
Chord Analysis

Cm7 Bb7 Cm7 Bb7
e|------------------------------------------------------------------|
B|------------------------------------8-----------------------------|
G|------8-8-8-8-------7---7-------7-----8-8-8-8-------7---7-------7-|
D|------8-8-8-8-------6---6---6---------8-8-8-8-------6---6---6-----|
A|------6-6-6-6-------8---8-------------6-6-6-6-------8---8---------|
E|--8-------------6-------------6---8-------------6-------------6---|
| | | | | | | | | | | | | | | |
| | | |
1 2 3 4


Guitar 2
(comes in at "i drove for miles and miles")
(first note is a pickup note)
e|-----------------------------------|
B|---6-8-6-----6-------6-------------|
G|-7-------7-8-----7-------7---8-7-8-|
D|-----------------------------------|
A|-----------------------------------|
E|-----------------------------------|
| | | | | | | |
| |
1 2


-------------------------------------------------------------------------
[Pre-Chorus/Chorus]

Guitar 1

first four measures:
Ebsus2 Bbsus4 Cm7 Bbsus4
e|----6-----6---6-----6-----6---6-----6-----6---6-----6-----6---6-|
B|------6---------------6---------------6---------------6---------|
G|--8---------8-----8---------8-----8---------8-----8---------8---|
D|----------------------------------------------------------------|
A|6---------------------------------------------------------------|
E|----------------6---------------8---------------6---------------|
| | | | | | | | | | | | | | | |
| | | |

last four measures:
Ebsus2 Bbsus4 Cm7 Abadd9
e|----6-----6---6-----6-----6---6-----6-----6---6-----6-----6---6-|
B|------6---------------6---------------6---------------6---------|
G|--8---------8-----8---------8-----8---------8-----8---------8---|
D|------------------------------------------------6---------------|
A|6---------------------------------------------------------------|
E|----------------6---------------8-------------------------------|
| | | | | | | | | | | | | | | |
| | | |

Guitar 2

VERY QUIET on distortion in the background
stay on a Eb power chord
----
----
-8--
-8--
-6--
----

(LAST 2 choruses)

Guitar 2 does some high notes on distortion
each note lasts a measure

e|------13~-----------/15~--/16~--/18~--/16~--/11~--|
B|-----------13~--11~-------------------------------|
G|-12~----------------------------------------------|
D|--------------------------------------------------|
A|--------------------------------------------------|
E|--------------------------------------------------|

----------------------------------------------------------------------------
Bridge - No Guitar, here are the chords from Piano
(conceivably, they could be playing the verse riff here, but it's far too quiet to be sure)
(if you want to play along, either play these bar chords, or verse riff, whichever
better)
(i normally go with the bar chords so that it gives contrast between this and the verse)

Cm7 - Bb7 - Cm7 - Bb7 - Cm7 - Bb7 - Cm7 - Bb7 - Ab~


----------------------------------------------------------------------------
[Outro]

Guitar 1

e|----------------------------------------------------------|
B|-------6~-------------6~-------------8~-------------9~----|
G|-----8~-------------8~-------------8~-------------8~------|
D|---8~-------------8~-------------8~-------------8~--------|
A|-6~-------------------------------------------------------|
E|----------------6~-------------8~-------------6~----------|


----------------------------------------------------------------------------
Look at the top for a breakdown (structure) of the song.



************************************

| / Slide up
| ~ Vibrato

************************************
Tunning: Standard (E A D G B e)
Song: She Will Be Loved
Band: Maroon 5
Album: Songs About Jane

Tuning: Standard
Tabbed by: IrEnE

This is my very first tab...So any corrections are welcome...I tried my best so I hope
this is fine...
I just want to tab my favorite song...btw this is ma first one...rate it please =) thankzzz

Intro:
e--------------------------------------3--------------------------------|
B-----4--4--4--4-----3--3-----3-----------4--------4-----3--3-----3-----|
G--------5-----5-----3--3--3--------------------4--------3--3--3--------|
D-----------------------------------5--------5--------------------------|
A---3-------------1-----------------------------------1-----------------|
E-----------------------------------------------------------------------|



Verse: Just keep playing
e--------------------------------------3--------------------------------|
B-----4--4--4--4-----3--3-----3-----------4--------4-----3--3-----3-----|
G--------5-----5-----3--3--3--------------------4--------3--3--3--------|4x
D-----------------------------------5--------5--------------------------|
A---3-------------1-----------------------------------1-----------------|
E-----------------------------------------------------------------------|
or
Just play it like this...It's easier...


e----3----1----3----1----|
B----4----3----4----3----|
G----5----3----5----3----| 4x
D----5----3----5----3----|
A----3----1----3----1----|
E----x----x----x----x----|

Beauty queen of only eighteen
She had some trouble with herself
He was always there to help her
She always belonged to someone else

I drove for miles and miles
And wound up at your door
I've had you so many times but somehow
I want more


Chorus: Play this 3x
E-----------------------------------------6---6---6---6---6---6---6---6----|
B-----------------------------------------6---6---6---6---6---6---6---6----|
G----8---8---8---8---8---8---8---8--------7---7---7---7---7---7---7---7----|
D----8---8---8---8---8---8---8---8--------8---8---8---8---8---8---8---8----|
A----6---6---6---6---6---6---6---6--------8---8---8---8---8---8---8---8----|
E----x---x---x---x---x---x---x---x--------6---6---6---6---6---6---6---6----|


E----5---5---5---5---5---5---5---5--------4---4---4---4---4---4---4---4----|
B----4---4---4---4---4---4---4---4--------4---4---4---4---4---4---4---4----|
G----5---5---5---5---5---5---5---5--------5---5---5---5---5---5---5---5----|
D----5---5---5---5---5---5---5---5--------6---6---6---6---6---6---6---6----|
A----3---3---3---3---3---3---3---3--------6---6---6---6---6---6---6---6----|
E----x---x---x---x---x---x---x---x--------4---4---4---4---4---4---4---4----|

I don't mind spending everyday
Out on your corner in the pouring rain
Look for the girl with the broken smile
Ask her if she wants to stay awhile
And she will be loved
She will be loved


Verse2: Just keep playing
e--------------------------------------3--------------------------------|
B-----4--4--4--4-----3--3-----3-----------4--------4-----3--3-----3-----|
G--------5-----5-----3--3--3--------------------4--------3--3--3--------|4x
D-----------------------------------5--------5--------------------------|
A---3-------------1-----------------------------------1-----------------|
E-----------------------------------------------------------------------|
or
Just play it like this


e----3----1----3----1----|
B----4----3----4----3----|
G----5----3----5----3----| 4x
D----5----3----5----3----|
A----3----1----3----1----|
E----x----x----x----x----|

Tap on my window knock on my door
I want to make you feel beautiful
I know I tend to get insecure
It doesn't matter anymore

It's not always rainbows and butterflies
It's compromise that moves us along
My heart is full and my door's always open
You can come anytime you want


Chorus:
E-----------------------------------------6---6---6---6---6---6---6---6----|
B-----------------------------------------6---6---6---6---6---6---6---6----|
G----8---8---8---8---8---8---8---8--------7---7---7---7---7---7---7---7----|
D----8---8---8---8---8---8---8---8--------8---8---8---8---8---8---8---8----|
A----6---6---6---6---6---6---6---6--------8---8---8---8---8---8---8---8----|
E----x---x---x---x---x---x---x---x--------6---6---6---6---6---6---6---6----|


E----5---5---5---5---5---5---5---5--------4---4---4---4---4---4---4---4----|
B----4---4---4---4---4---4---4---4--------4---4---4---4---4---4---4---4----|
G----5---5---5---5---5---5---5---5--------5---5---5---5---5---5---5---5----|
D----5---5---5---5---5---5---5---5--------6---6---6---6---6---6---6---6----|
A----3---3---3---3---3---3---3---3--------6---6---6---6---6---6---6---6----|
E----x---x---x---x---x---x---x---x--------4---4---4---4---4---4---4---4----|

I don't mind spending everyday
Out on your corner in the pouring rain
Look for the girl with the broken smile
Ask her if she wants to stay awhile
And she will be loved
She will be loved

Bridge: It sounds like the verses
...falls
e----3----1----3----1----| --4--
B----4----3----4----3----| --4--
G----5----3----5----3----| 2x --5--
D----5----3----5----3----| --6--
A----3----1----3----1----| --6--
E----x----x----x----x----| --4--

I know where you hide
Alone in your car
Know all of the things that make you who you are
I know that goodbye means nothing at all
Comes back and begs me to catch her every time she falls


Verse:
e--------------------------------------3--------------------------------|
B-----4--4--4--4-----3--3-----3-----------4--------4-----3~~------------|
G--------5-----5-----3--3--3--------------------4--------3~~------------|
D-----------------------------------5--------5--------------------------|
A---3-------------1-----------------------------------1-----------------|
E-----------------------------------------------------------------------|

Tap on my window knock on my door
I want to make you feel beautiful



Chorus: Play this 6x until it ends
E-----------------------------------------6---6---6---6---6---6---6---6----|
B-----------------------------------------6---6---6---6---6---6---6---6----|
G----8---8---8---8---8---8---8---8--------7---7---7---7---7---7---7---7----|
D----8---8---8---8---8---8---8---8--------8---8---8---8---8---8---8---8----|
A----6---6---6---6---6---6---6---6--------8---8---8---8---8---8---8---8----|
E----x---x---x---x---x---x---x---x--------6---6---6---6---6---6---6---6----|


E----5---5---5---5---5---5---5---5--------4---4---4---4---4---4---4---4----|
B----4---4---4---4---4---4---4---4--------4---4---4---4---4---4---4---4----|
G----5---5---5---5---5---5---5---5--------5---5---5---5---5---5---5---5----|
D----5---5---5---5---5---5---5---5--------6---6---6---6---6---6---6---6----|
A----3---3---3---3---3---3---3---3--------6---6---6---6---6---6---6---6----|
E----x---x---x---x---x---x---x---x--------4---4---4---4---4---4---4---4----|

I don't mind spending everyday
Out on your corner in the pouring rain
Look for the girl with the broken smile
Ask her if she wants to stay awhile
And she will be loved
She will be loved
And she will be loved
She will be loved
(Please don't try so hard to say goodbye)
yeah eah
yeah eah yeah eah
oooooooh oooooooh oh oh oh oh
out in the corner in the pouring rain
(Please don't try so hard to say goodbye)


Any comments, corrections, suggestions, discriminations?
Mail me ilfacelo_05@yahoo.com
Friendsters invite nyo rin poh akoh ah! Filipino Tabbers/Guitarist Rockzzz!
14 yr. old lang poh ako, kaya kung may mali poh, mail nyo lang ako =)
Tunning: Standard (E A D G B e)
---------------------------------------------------------------------
Maroon 5 - She Will Be Loved
---------------------------------------------------------------------
Tabbed by: MusicWanderer
Tuning: Standard (EADGBE)


(Main Riff)

e|-----------------|-----------------|-----------------|---------------|
B|-----------------|-----------------|----8------------|---------------|
G|-----8-8-8-8-----|------7-7-----7--|----8-8-8-8------|-----7-7-----7-|
D|-----------------|----------6------|-----------------|----------6----|
A|-----------------|----8-------8----|-----------------|---8--------8--|
E|--8------8-8-----|-6------6--------|--8-----8-8------|-6-----6-------|


[Chorus]

e|-----------------|-----------------|
B|-----------------|-----------------|
G|--8-8-8----------|-----------------|
D|--8-8-8---8-8-8--|-10-10-10--8-8-8-|
A|--6-6-6---8-8-8--|-10-10-10--8-8-8-|
E|----------6-6-6--|-8--8--8---6-6-6-|
I don't mind......, out on your.....,

e|-----------------|-----------------|
B|-----------------|-----------------|
G|--8-8-8----------|-----------------|
D|--8-8-8---8-8-8--|-10-10-10--6-6-6-|
A|--6-6-6---8-8-8--|-10-10-10--6-6-6-|
E|----------6-6-6--|-8--8--8---4-4-4-|
Look for the......, ask her if......,

e|-----------------|-----------------|
B|-----------------|-----------------|
G|--8-8-8----------|-----------------|
D|--8-8-8---8-8-8--|-10-10-10--6-6-6-|
A|--6-6-6---8-8-8--|-10-10-10--6-6-6-|
E|----------6-6-6--|-8--8--8---4-4-4-|
And she will be loved, she will be loved.

Repeat Main Riff

e|-----------------|-----------------|-----------------|---------------|
B|-----------------|-----------------|----8------------|---------------|
G|-----8-8-8-8-----|------7-7-----7--|----8-8-8-8------|-----7-7-----7-|
D|-----------------|----------6------|-----------------|----------6----|
A|-----------------|----8-------8----|-----------------|---8--------8--|
E|--8------8-8-----|-6------6--------|--8-----8-8------|-6-----6-------|


[Chorus]

e|-----------------|-----------------|
B|-----------------|-----------------|
G|--8-8-8----------|-----------------|
D|--8-8-8---8-8-8--|-10-10-10--8-8-8-|
A|--6-6-6---8-8-8--|-10-10-10--8-8-8-|
E|----------6-6-6--|-8--8--8---6-6-6-|
I don't mind......, out on your.....,

e|-----------------|-----------------|
B|-----------------|-----------------|
G|--8-8-8----------|-----------------|
D|--8-8-8---8-8-8--|-10-10-10--6-6-6-|
A|--6-6-6---8-8-8--|-10-10-10--6-6-6-|
E|----------6-6-6--|-8--8--8---4-4-4-|
Look for the......, ask her if......,

e|-----------------|-----------------|
B|-----------------|-----------------|
G|--8-8-8----------|-----------------|
D|--8-8-8---8-8-8--|-10-10-10--6-6-6-|
A|--6-6-6---8-8-8--|-10-10-10--6-6-6-|
E|----------6-6-6--|-8--8--8---4-4-4-|
And she will be loved, she will be loved.

e|-----------------|-----------------|
B|-----------------|-----------------|
G|--8-8-8----------|-----------------|
D|--8-8-8---8-8-8--|-10-10-10--6-6-6-|
A|--6-6-6---8-8-8--|-10-10-10--6-6-6-|
E|----------6-6-6--|-8--8--8---4-4-4-|
And she will be loved, she will be loved.


[Bridge]

e|-----------------|-----------------| e|---|
B|-----------------|-----------------| B|---|
G|--5-5-5--3-3-3---|--5-5-5--3-3-3---| End with G|---|
D|--5-5-5--3-3-3---|--5-5-5--3-3-3---| ~ D|-6-|
A|--3-3-3--1-1-1---|--3-3-3--1-1-1---| A|-6-|
E|-----------------|-----------------| E|-4-|

I know where you hide, alone in your car
Know all of the things that make you who you are
I know that goodbye means nothing at all
Comes back and begs me to catch her every time she falls

(Repeat Riff, Chorus)
Tunning: Nashville (E A D G B E)
Want The Ladies? This Maybe Just The Song Your Looking For.

Guitar 1- Acoustic
Guitar 2 (Optional)- Electric
(Sounds Good With A Good Steel Strung Acoustic However)


[Intro/verse 1]

- Guitar 1 -
E|----------------|------------------|
B|----------------|--6---------------|
G|----8-8-8-8-----|------7-7------7--|
D|----------------|-------------6----|\
A|----------------|-----------8------| \
E|-8----8-8-8-----|--6-----6---------| \
>x10
E|-----------------|------------------| /
B|---8-------------|--6---------------|/
G|-----8-8-8-8-----|------7-7------7--|
D|-----------------|--------------6---|
A|-----------------|-----------8------|
E|-8-----8-8-8-----|--6-----6---------|


[Chorus]

- Guitar 1 -
E|------------------------------------------------------|
B|-8--8--8--8--8--8--8--8--8----------------------------|
G|-8--8--8--8--8--8--8--8--8--7--7--7--7--7--7--7--7--7-|
D|-8--8--8--8--8--8--8--8--8--8--8--8--8--8--8--8--8--8-|
A|-6--6--6--6--6--6--6--6--6--8--8--8--8--8--8--8--8--8-|
E|----------------------------6--6--6--6--6--6--6--6--6-|
I don't mind spending every day................

E|-------------------------------------------------------|
B|-------------------------------------------------------|
G|-8--8--8--8--8--8--8--8--8---7--7--7--7--7--7--7--7--7-|
D|-10-10-10-10-10-10-10-10-10--8--8--8--8--8--8--8--8--8-|
A|-10-10-10-10-10-10-10-10-10--8--8--8--8--8--8--8--8--8-|
E|-8--8--8--8--8--8--8--8--8---6--6--6--6--6--6--6--6--6-|
Out on your corner in the pouring rain.............

E|------------------------------------------------------|
B|-8--8--8--8--8--8--8--8--8----------------------------|
G|-8--8--8--8--8--8--8--8--8--7--7--7--7--7--7--7--7--7-|
D|-8--8--8--8--8--8--8--8--8--8--8--8--8--8--8--8--8--8-|
A|-6--6--6--6--6--6--6--6--6--8--8--8--8--8--8--8--8--8-|
E|----------------------------6--6--6--6--6--6--6--6--6-|
Look for the girl with the broken smile.............

E|-------------------------------------------------------|
B|-------------------------------------------------------|
G|-8--8--8--8--8--8--8--8--8---5--5--5--5--5--5--5--5--5-|
D|-10-10-10-10-10-10-10-10-10--6--6--6--6--6--6--6--6--6-|
A|-10-10-10-10-10-10-10-10-10--6--6--6--6--6--6--6--6--6-|
E|-8--8--8--8--8--8--8--8--8---4--4--4--4--4--4--4--4--4-|
Ask her if she wants to stay awhile.....And She

E|------------------------------------------------------|
B|-8--8--8--8--8--8--8--8--8----------------------------|
G|-8--8--8--8--8--8--8--8--8--7--7--7--7--7--7--7--7--7-|
D|-8--8--8--8--8--8--8--8--8--8--8--8--8--8--8--8--8--8-|
A|-6--6--6--6--6--6--6--6--6--8--8--8--8--8--8--8--8--8-|
E|----------------------------6--6--6--6--6--6--6--6--6-|
Will.......................Be Loved..........And She

E|-------------------------------------------------------|
B|-------------------------------------------------------|
G|-8--8--8--8--8--8--8--8--8---5--5--5--5--5--5--5--5--5-|
D|-10-10-10-10-10-10-10-10-10--6--6--6--6--6--6--6--6--6-|
A|-10-10-10-10-10-10-10-10-10--6--6--6--6--6--6--6--6--6-|
E|-8--8--8--8--8--8--8--8--8---4--4--4--4--4--4--4--4--4-|
Will........................Be Loved................

(Optional Guitar 2)
This is played during the chorus, sounds good without it anyway, so if you
don't have a second guitarist it's fine

E|-----6---------6--------6--------6---------6-------6----|
B|---6---------6-----------------6---------6--------------|
G|-8---------8---------8-------7---------7---------7------|
D|--------------------------------------------------------|
A|--------------------------------------------------------| \
E|--------------------------------------------------------| \
> x3
E|-----6---------6--------6---------6--------6-------6----| /
B|---6---------6------------------6--------6--------------| /
G|-8---------8---------8--------8--------8--------8-------|
D|--------------------------------------------------------|
A|--------------------------------------------------------|
E|--------------------------------------------------------|


[Verse 2]

- Guitar 1 -
E|----------------|------------------|
B|----------------|--6---------------|
G|----8-8-8-8-----|------7-7------7--|
D|----------------|-----------6------|
A|----------------|-------------8----|
E|-8------8-8-----|--6-----6---------| x8


[Chorus]

- Guitar 1 -
E|------------------------------------------------------|
B|-8--8--8--8--8--8--8--8--8----------------------------|
G|-8--8--8--8--8--8--8--8--8--7--7--7--7--7--7--7--7--7-|
D|-8--8--8--8--8--8--8--8--8--8--8--8--8--8--8--8--8--8-|
A|-6--6--6--6--6--6--6--6--6--8--8--8--8--8--8--8--8--8-|
E|----------------------------6--6--6--6--6--6--6--6--6-|
I don't mind spending every day................

E|-------------------------------------------------------|
B|-------------------------------------------------------|
G|-8--8--8--8--8--8--8--8--8---7--7--7--7--7--7--7--7--7-|
D|-10-10-10-10-10-10-10-10-10--8--8--8--8--8--8--8--8--8-|
A|-10-10-10-10-10-10-10-10-10--8--8--8--8--8--8--8--8--8-|
E|-8--8--8--8--8--8--8--8--8---6--6--6--6--6--6--6--6--6-|
Out on your corner in the pouring rain.............

E|------------------------------------------------------|
B|-8--8--8--8--8--8--8--8--8----------------------------|
G|-8--8--8--8--8--8--8--8--8--7--7--7--7--7--7--7--7--7-|
D|-8--8--8--8--8--8--8--8--8--8--8--8--8--8--8--8--8--8-|
A|-6--6--6--6--6--6--6--6--6--8--8--8--8--8--8--8--8--8-|
E|----------------------------6--6--6--6--6--6--6--6--6-|
Look for the girl with the broken smile.............

E|-------------------------------------------------------|
B|-------------------------------------------------------|
G|-8--8--8--8--8--8--8--8--8---5--5--5--5--5--5--5--5--5-|
D|-10-10-10-10-10-10-10-10-10--6--6--6--6--6--6--6--6--6-|
A|-10-10-10-10-10-10-10-10-10--6--6--6--6--6--6--6--6--6-|
E|-8--8--8--8--8--8--8--8--8---4--4--4--4--4--4--4--4--4-|
Ask her if she wants to stay awhile.....And She

E|------------------------------------------------------|
B|-8--8--8--8--8--8--8--8--8----------------------------|
G|-8--8--8--8--8--8--8--8--8--7--7--7--7--7--7--7--7--7-|
D|-8--8--8--8--8--8--8--8--8--8--8--8--8--8--8--8--8--8-|
A|-6--6--6--6--6--6--6--6--6--8--8--8--8--8--8--8--8--8-|
E|----------------------------6--6--6--6--6--6--6--6--6-|
Will.......................Be Loved..........And She

E|-------------------------------------------------------|
B|-------------------------------------------------------|
G|-8--8--8--8--8--8--8--8--8---5--5--5--5--5--5--5--5--5-|
D|-10-10-10-10-10-10-10-10-10--6--6--6--6--6--6--6--6--6-|
A|-10-10-10-10-10-10-10-10-10--6--6--6--6--6--6--6--6--6-|
E|-8--8--8--8--8--8--8--8--8---4--4--4--4--4--4--4--4--4-|
Will........................Be Loved.........And She

E|------------------------------------------------------|
B|-8--8--8--8--8--8--8--8--8----------------------------|
G|-8--8--8--8--8--8--8--8--8--7--7--7--7--7--7--7--7--7-|
D|-8--8--8--8--8--8--8--8--8--8--8--8--8--8--8--8--8--8-|
A|-6--6--6--6--6--6--6--6--6--8--8--8--8--8--8--8--8--8-|
E|----------------------------6--6--6--6--6--6--6--6--6-|
Will.......................Be Loved...........And She

E|-------------------------------------------------------|
B|-------------------------------------------------------|
G|-8--8--8--8--8--8--8--8--8---5--5--5--5--5--5--5--5--5-|
D|-10-10-10-10-10-10-10-10-10--6--6--6--6--6--6--6--6--6-|
A|-10-10-10-10-10-10-10-10-10--6--6--6--6--6--6--6--6--6-|
E|-8--8--8--8--8--8--8--8--8---4--4--4--4--4--4--4--4--4-|
Will........................Be Loved.............Oh..

- Guitar 2 - (Still Optional)
E|-----6---------6--------6--------6---------6-------6----|
B|---6---------6-----------------6---------6--------------|
G|-8---------8---------8-------7---------7---------7------|
D|--------------------------------------------------------|
A|--------------------------------------------------------| \
E|--------------------------------------------------------| \
> x4
E|-----6---------6--------6---------6--------6-------6----| /
B|---6---------6------------------6--------6--------------| /
G|-8---------8---------8--------8--------8--------8-------|
D|--------------------------------------------------------|
A|--------------------------------------------------------|
E|--------------------------------------------------------|


[Bridge]

E|-------------------------------------------------------|
B|-------------------------------------------------------|
G|-8--8--8---8--8--8--8-8--8---7--7--7--7--7--7--7--7--7-|
D|-10-10-10-10-10-10-10-10-10--8--8--8--8--8--8--8--8--8-|
A|-10-10-10-10-10-10-10-10-10--8--8--8--8--8--8--8--8--8-|
E|-8--8--8--8--8--8--8--8--8---6--6--6--6--6--6--6--6--6-| x4

I know where you hide, alone in your car..........

Know all of the things that make you who you are.

I know that goodbye means nothing at all.....

Comes back and begs me to catch her every time she falls.

E|----|
B|----|
G|-8--|
D|-10-|
A|-10-|
E|-8--|

Yeah....

(Optional Guitar 2)
Once again optional, if you don't have a second guitarist don't sweat it,
play this during the bridge

E|-6/8---8-8-8--6------------6/8---8-8-8--6--8--10-8-|
B|-6/8---8-8-8--6--6---------6/8---8-8-8--6--8--10-8-|
G|-------------------8-7-5---------------------------|
D|---------------------------------------------------|
A|---------------------------------------------------|
E|---------------------------------------------------|
I Know Where... Know All of...

E|-11--10-8-----13--10-6-----15--13-11------18--13-10-|
B|-11--10-8-----13--10-6-----15--13-11------18--13-10-|
G|----------------------------------------------------|
D|----------------------------------------------------|
A|----------------------------------------------------|
E|----------------------------------------------------|
I Know That Goodbye... Comes Back and Makes...

E|-8--|
B|-8--|
G|-8--|
D|-10-|
A|-10-|
E|-8--|
Falls... Yeah


[Pre-chorus]

- Guitar 1 -
E|----------------|------------------|
B|----------------|--6---------------|
G|----8-8-8-8-----|------7-7------7--|
D|----------------|-----------6------|
A|----------------|-------------8----|
E|-8------8-8-----|--6-----6---------|

E|-----------------|------------------|
B|---8-------------|--6---------------|
G|-----8-8-8-8-----|------7-7------7--|
D|-----------------|-----------6------|
A|-----------------|-------------8----|
E|-8-----8-8-8-----|--6-----6---------|


[Chorus]

- Guitar 1 -
E|------------------------------------------------------|
B|-8--8--8--8--8--8--8--8--8----------------------------|
G|-8--8--8--8--8--8--8--8--8--7--7--7--7--7--7--7--7--7-|
D|-8--8--8--8--8--8--8--8--8--8--8--8--8--8--8--8--8--8-|
A|-6--6--6--6--6--6--6--6--6--8--8--8--8--8--8--8--8--8-|
E|----------------------------6--6--6--6--6--6--6--6--6-|
I don't mind spending every day................

E|-------------------------------------------------------|
B|-------------------------------------------------------|
G|-8--8--8--8--8--8--8--8--8---7--7--7--7--7--7--7--7--7-|
D|-10-10-10-10-10-10-10-10-10--8--8--8--8--8--8--8--8--8-|
A|-10-10-10-10-10-10-10-10-10--8--8--8--8--8--8--8--8--8-|
E|-8--8--8--8--8--8--8--8--8---6--6--6--6--6--6--6--6--6-|
Out on your corner in the pouring rain.............

E|------------------------------------------------------|
B|-8--8--8--8--8--8--8--8--8----------------------------|
G|-8--8--8--8--8--8--8--8--8--7--7--7--7--7--7--7--7--7-|
D|-8--8--8--8--8--8--8--8--8--8--8--8--8--8--8--8--8--8-|
A|-6--6--6--6--6--6--6--6--6--8--8--8--8--8--8--8--8--8-|
E|----------------------------6--6--6--6--6--6--6--6--6-|
Look for the girl with the broken smile.............

E|-------------------------------------------------------|
B|-------------------------------------------------------|
G|-8--8--8--8--8--8--8--8--8---5--5--5--5--5--5--5--5--5-|
D|-10-10-10-10-10-10-10-10-10--6--6--6--6--6--6--6--6--6-|
A|-10-10-10-10-10-10-10-10-10--6--6--6--6--6--6--6--6--6-|
E|-8--8--8--8--8--8--8--8--8---4--4--4--4--4--4--4--4--4-|
Ask her if she wants to stay awhile.....And She

E|------------------------------------------------------|
B|-8--8--8--8--8--8--8--8--8----------------------------|
G|-8--8--8--8--8--8--8--8--8--7--7--7--7--7--7--7--7--7-|
D|-8--8--8--8--8--8--8--8--8--8--8--8--8--8--8--8--8--8-|
A|-6--6--6--6--6--6--6--6--6--8--8--8--8--8--8--8--8--8-|
E|----------------------------6--6--6--6--6--6--6--6--6-|
Will.......................Be Loved..........And She

E|-------------------------------------------------------|
B|-------------------------------------------------------|
G|-8--8--8--8--8--8--8--8--8---5--5--5--5--5--5--5--5--5-|
D|-10-10-10-10-10-10-10-10-10--6--6--6--6--6--6--6--6--6-|
A|-10-10-10-10-10-10-10-10-10--6--6--6--6--6--6--6--6--6-|
E|-8--8--8--8--8--8--8--8--8---4--4--4--4--4--4--4--4--4-|
Will........................Be Loved.........And She

E|------------------------------------------------------|
B|-8--8--8--8--8--8--8--8--8----------------------------|
G|-8--8--8--8--8--8--8--8--8--7--7--7--7--7--7--7--7--7-|
D|-8--8--8--8--8--8--8--8--8--8--8--8--8--8--8--8--8--8-|
A|-6--6--6--6--6--6--6--6--6--8--8--8--8--8--8--8--8--8-|
E|----------------------------6--6--6--6--6--6--6--6--6-|
Will.......................Be Loved...........And She

E|-------------------------------------------------------|
B|-------------------------------------------------------|
G|-8--8--8--8--8--8--8--8--8---5--5--5--5--5--5--5--5--5-|
D|-10-10-10-10-10-10-10-10-10--6--6--6--6--6--6--6--6--6-|
A|-10-10-10-10-10-10-10-10-10--6--6--6--6--6--6--6--6--6-|
E|-8--8--8--8--8--8--8--8--8---4--4--4--4--4--4--4--4--4-|
Will........................Be Loved.................

E|------------------------------------------------------|
B|-8--8--8--8--8--8--8--8--8----------------------------|
G|-8--8--8--8--8--8--8--8--8--7--7--7--7--7--7--7--7--7-|
D|-8--8--8--8--8--8--8--8--8--8--8--8--8--8--8--8--8--8-|
A|-6--6--6--6--6--6--6--6--6--8--8--8--8--8--8--8--8--8-|
E|----------------------------6--6--6--6--6--6--6--6--6-|
Yeah....................Yeah.........oooh........

E|-------------------------------------------------------|
B|-------------------------------------------------------|
G|-8--8--8--8--8--8--8--8--8---5--5--5--5--5--5--5--5--5-|
D|-10-10-10-10-10-10-10-10-10--6--6--6--6--6--6--6--6--6-|
A|-10-10-10-10-10-10-10-10-10--6--6--6--6--6--6--6--6--6-|
E|-8--8--8--8--8--8--8--8--8---4--4--4--4--4--4--4--4--4-|
oooooooooooh...............................

- Guitar 2 -

E|-----6---------6--------6--------6---------6-------6----|
B|---6---------6-----------------6---------6--------------|
G|-8---------8---------8-------7---------7---------7------|
D|--------------------------------------------------------|
A|--------------------------------------------------------| \
E|--------------------------------------------------------| \
> x4
E|-----6---------6--------6---------6--------6-------6----| /
B|---6---------6------------------6--------6--------------| /
G|-8---------8---------8--------8--------8--------8-------|
D|--------------------------------------------------------|
A|--------------------------------------------------------|
E|--------------------------------------------------------|


E|------/13---------11--8--8--8-----------------11/16---|
B|-11-------------------------------/11-----------------|
G|------------------------------------------------------|
D|------------------------------------------------------|
A|------------------------------------------------------|
E|------------------------------------------------------|


E|-15/18------------11/16-------------11----------------|
B|------------------------------------------------------|
G|------------------------------------------------------|
D|------------------------------------------------------|
A|------------------------------------------------------|
E|------------------------------------------------------|


Should Be It, Keep Jammin'
Tunning: Standard (E A D G B e)
Tabbed by: alex4d1
Tab based on acoustic version available on Spotify
____________________________________________________________________________
**Note: There are plenty of other ways that match the song relatively well, I
just tabbed the one I think Maroon 5 plays for a majority of this particular
recording. And I was too lazy to put all the lyrics so I just demonstrated
how certain excerpts went with the guitar part, sorry. Happy playing!**

Please feel free to comment below with corrections if you find errors. This
is my first tab after all, so there definitely should be at least a few.
____________________________________________________________________________

CAPO ON SECOND FRET

+ = downbeat
x = mute/slap
()= alternate fingering
~ = sustain

[Chords]
Am7 G C Cadd9 F/C Aadd4 F
e|--0--| e|--x(3)--| e|--0--| e|--3(x)--| e|--0--| e|--0--| e|--1----|
B|--1--| B|--0(3)--| B|--1--| B|--3-----| B|--1--| B|--3--| B|--1----|
G|--0--| G|--0-----| G|--0--| G|--0-----| G|--0--| G|--2--| G|--2----|
D|--2--| D|--0-----| D|--2--| D|--2-----| D|--3--| D|--2--| D|--3----|
A|--0--| A|--2-----| A|--3--| A|--3-----| A|--x--| A|--0--| A|--3(x)-|
E|--0--| E|--3-----| E|--0--| E|--0-----| E|--x--| E|--0--| E|--1(x)-|


[Intro]

Am7 G7 (G7)
+ + + + + + + +
e|---------------------------x---------------x-----------------------|
B|-----------1---1---1---1---x-----------0---x---0---------------0---|
G|-----------0---0---0---0---x---------------x-----------------------|
D|---------------------------x-----------3---x---3-------3-----------| x2
A|---0-------0---------------x-------2-------x---------------2-------|
E|---------------------------x---3-----------x---3-------------------|


[VERSE] (same as intro)

Am7 G7 (G7)
+ + + + + + + +
e|---------------------------x---------------x-----------------------|
B|-----------1---1---1---1---x-----------0---x---0---------------0---|
G|-----------0---0---0---0---x---------------x-----------------------|
D|---------------------------x-----------3---x---3-------3-----------| x8
A|---0-------0---------------x-------2-------x---------------2-------|
E|---------------------------x---3-----------x---3-------------------|

| Beauty queen of on- ly eight- een, she
(ex. of | Had some trouble with her- self...
how lyrics|
go with | I drove for miles and, miles and, wound
the song) | up at your door...
|


[Chorus]

Cadd9 G
+ + + + + + + + +
e|---x-------------------------------------------------------------------|
B|---3~----------3-------------------------------------------------------|
G|---0~------0-----------0-----------------------2-------0---------------|
D|---2~----------------------0---------------0---------------------------|
A|---3~--------------------------3---------------------------------------|
E|-----------------------------------3-----------------------3---4-------|

I don't mind spending ev- er- y day..

Am7 G
+ + + + + + + + +
e|-------------------------------------------x---x-------x---x-----------|
B|---------------1---------------------------0---0-------x---0-----------|
G|-----------0-----------0-------------------0---0-------0---0-----------|
D|---------------------------2---------------0---0-------0---0-----------|
A|---0---------------------------0-----------2---2-------2---2-----------|
E|-----------------------------------3-------3---3-------3---3-----------|

Out on your corner in the pouring rain, oh

Cadd9 G
+ + + + + + + + +
e|-----------------------------------------------------------------------|
B|---------------3-------------------------------------------------------|
G|-----------0-----------0-----------------------2-------0---------------|
D|---------------------------0---------------0---------------------------|
A|---3---------------------------3---------------------------------------|
E|-----------------------------------3-----------------------3---4-------|

Look for the girl with the broken smile

Am7 G C
+ + + + + + + + +
e|-----------------------------------3---3---3---3---3---3---3---3---0---|
B|---------------3-------------------3---3---3---3---3---3---3---3---1---|
G|-----------0-----------0-----------0---0---0---0---0---0---0---0---0---|
D|---------------------------2-------0---0---0---0---0---0---0---0---2---|
A|---0---------------------------0---2---2---2---2---2---2---2---2---3---|
E|-----------------------------------3---3---3---3---3---3---3---3---0---|

Ask her if she wants to stay a- while, and she will-

(cont'd, chords)

Cadd9 G Amadd4 G Cadd9 G
-be loved, and she will, be loved, and she will, be loved, and she

Amadd4 G F/C(hold out)
will, be loved..


[Bridge]

Amadd4 G
I know where you hide, alone in your car
Amadd4 G
Know all of the things that make you who you are..

..(until last line)
G F
...Catch her every time she, falls



LYRICS:
Beauty queen of only eighteen, she-
Had some trouble with herself
He was always there to help her, she-
always belonged to someone else.

I drove for miles and miles
And wound up at your door
I've had you so many times but somehow I want more

I don't mind spending every day
Out on your corner in the pouring rain
Look for the girl with the broken smile
Ask her if she wants to stay awhile
And she will be loved
She will be loved

Tap on my window knock on my door, I-
want to make you feel beautiful
I know I tend to get so insecure
Doesn't matter anymore

It's not always rainbows and butterflies
It's compromise that moves us along
My heart is full and my door's always open
Come anytime you want (yeah)

I don't mind spending every day
Out on your corner in the pouring rain
Look for the girl with the broken smile
Ask her if she wants to stay awhile
She will be loved
She will be loved
She will be loved
She will be loved

I know where you hide
Alone in your car
Know all of the things that make you who you are
I know that goodbye means nothing at all
Comes back and begs me, catch her every time she falls (yeah)

Tap on my window
Knock on my door
I wanna make you feel beautiful

I don't mind spending every day
Out on your corner in the pouring rain
Look for the girl with the broken smile
Ask her if she wants to stay awhile
She will be loved
She will be loved
She will be loved
Yeah! (She will be loved)
Tunning: Nashville (E A D G B E)
Standard Tuning
No Capo
This is how they play it live on an acoustic. James Valentine (the guitarist) teaches it here:
https://www.youtube.com/watch?v=LhEcT_6xi7M
Credit to him, I (Judith) just wrote it down.
Add or subtract hammers and slaps on strings where it feels natural to you.

Intro/Verse:

E|----------------------------------------------------------------|
B|----------------------------------------------5-x----5-x-7--5-x-|
G|----7-x-------7-x----6-x-6h7-6-x----7-x-------7-x----6-x-6--6-x-|
D|----7-x----7----x----7-x-7---7-x----7-x----7----x----7-x-7--7-x-|
A|------------------0-------------------------------0-------------|
E|--7------7------------------------7------7----------------------|

E|-----------------------------------------------------------------|
B|----------------------------------------------5-x----5-x-7--8-x--|
G|----7-x-------7-x----6-x-6h7-6-x----7-x-------7-x----6-x-6--6-x--|
D|----7-x----7----x----7-x-7---7-x----7-x----7----x----7-x-7--7-x--|
A|------------------0-------------------------------0--------------|
E|--7------7------------------------7------7-----------------------|

Chorus:

E|-------------------------------------------------------------------|
B|-----7-x-------7-x----5-x-7--5-x----------------5-x-----5-x-7--8-x-|
G|-----7-x-------7-x----6-x-6--6-x-----7-x--------7-x-----6-x-6--6-x-|
D|-----7-x----7----x----7-x-7--7-x-----7-x-----7----x-----7-x-7--7-x-|
A|--5------5---------0---------------------------------0-------------|
E|---------------------------------7-------7-------------------------|

E|-----------------------------------------------------------------2--|
B|----7-x-------7-x----5-x-7--5-x---------------5-----------3-x-3--3--|
G|----7-x-------7-x----6-x-6--6-x------7--------7-----------0-x-0--0--|
D|----7-x----7----x----7-x-7--7-x------7-----7---------------------0--|
A|--5------5---------0------------------------------------------------|
E|---------------------------------7-------7--------0--2--3-----------|

E|---------------------------------------------------------------------2--|
B|-----7-x-------7-x----5-x-7--5-x----------------5-------------3-x-3--3--|
G|-----7-x-------7-x----6-x-6--6-x-----7-x--------7-------------0-x-0--0--|
D|-----7-x----7----x----7-x-7--7-x-----7-x-----7-----------------------0--|
A|--5------5---------0----------------------------------------------------|
E|---------------------------------7-------7----------0--2--3-------------|

E|----5-x-------5-x--------------------------------------------------2--|
B|----3-x-------3-x----2-x-2h3--2-x----3-x-------3------------3-x-3--3--|
G|----2-x----2----x----2-x-2----2-x----4-x-------4------------0-x-0--0--| x2
D|--0------0-----------2---------------4-x----4----------------------0--|
A|------------------0---------------2------2----------------------------|
E|--------------------------------------------------0--2--3-------------|
Song info
She Will Be Loved
Maroon 5
2001
  • Rock
  • Pop Rock
Alternative tracks
Similar songs
My Sharona - The Knack
Dreams - Fleetwood Mac
A Love So Beautiful - Roy Orbison
Dream on - Nazareth

Hi! Hope you enjoy backing track experience.
If you want to help us in the development of the project, feel free to donate!