The Right To Go Insane - Megadeth
00:00 / 00:00
Tabs and lyrics
Tunning: Nashville (E A D G B E)
The Right To Go Insane
Megadeth
Dave Mustaine

W W W
E||-------------------|-------------------|-------------------|
B||-------------------|-------------------|-------------------|
G||-------------------|-------------------|-------------------|
D||-------------------|-------------------|-------------------|
A||-------------------|-------------------|-------------------|
E||-------------------|-------------------|-------------------|


W W H H
-------------------|-------------------|--------------------|
-------------------|-------------------|--------------------|
-------------------|-------------------|--------------------|
-------------------|--5----------------|--6--------8--------|
-------------------|--5----------------|--6--------8--------|
-------------------|--3----------------|--4--------6--------|


S E. E S S E S S E S S H S S E S E. S S Q. H
-----------------------------|-------------------------|---------------------|
-----------------------------|-------------------------|---------------------|
-----------------------------|-------------------------|---------------------|
--3-5---L---------3-5-L------|--6----------------------|--3-5-L------L-------|
--3-5---L--3-5-L---------3-5-|--6--------5-4-3~--------|--3-5-L------L-------|
--1-3---L--------------------|--4----------------6-4---|--1-3-L------L-------|


H H S E. E S S E S S E S S H E S E S E
--------------------|-----------------------------|------------------------|
--------------------|-----------------------------|------------------------|
--------------------|-----------------------------|------------------------|
--6--------8--------|--3-5---L---------3-5-L------|--6--------8----8----8--|
--6--------8--------|--3-5---L--3-5-L---------3-5-|--6--------8----8----8--|
--4--------6--------|--1-3---L--------------------|--4--------6----6----6--|


PM PM PM PM PM PM PM PM PM PM PM PM PM PM PM PM
S S S S S S S S S S S S S S S S
--------------------------------------------------|
--------------------------------------------------|
--------------------------------------------------|
--------------------------------------------------|
--------------------------------------------------|
--3--0--3--2--1--0--3--0--3--2--1--0--3--2--1--0--|


PM PM PM PM PM PM PM PM PM PM PM PM PM PM PM PM
S S S S S S S S S S S S S S S S
--------------------------------------------------|
--------------------------------------------------|
--------------------------------------------------|
--------------------------------------------------|
--------------------------------------------------|
--3--0--3--2--1--0--3--0--3--2--1--0--3--2--1--0--|


PM PM PM PM PM PM PM PM PM PM PM PM PM PM PM PM
S S S S S S S S S S S S S S S S
--------------------------------------------------|
--------------------------------------------------|
--------------------------------------------------|
--------------------------------------------------|
--------------------------------------------------|
--3--0--3--2--1--0--3--0--3--2--1--0--3--2--1--0--|


PM PM PM PM PM PM PM PM PM PM PM PM PM PM PM PM
S S S S S S S S S S S S S S S S
--------------------------------------------------|
--------------------------------------------------|
--------------------------------------------------|
--------------------------------------------------|
--------------------------------------------------|
--3--0--3--2--1--0--3--0--3--2--1--0--3--2--1--0--|


PM PM PM PM PM PM PM PM PM PM PM PM PM PM PM PM
S S S S S S S S S S S S S S S S
--------------------------------------------------|
--------------------------------------------------|
--------------------------------------------------|
--------------------------------------------------|
--------------------------------------------------|
--3--0--3--2--1--0--3--0--3--2--1--0--3--2--1--0--|


PM PM PM PM PM PM PM PM PM PM PM PM PM PM PM PM
S S S S S S S S S S S S S S S S
--------------------------------------------------|
--------------------------------------------------|
--------------------------------------------------|
--------------------------------------------------|
--------------------------------------------------|
--3--0--3--2--1--0--3--0--3--2--1--0--3--2--1--0--|


PM PM PM PM PM PM PM PM PM PM PM PM PM PM PM PM
S S S S S S S S S S S S S S S S
--------------------------------------------------|
--------------------------------------------------|
--------------------------------------------------|
--------------------------------------------------|
--------------------------------------------------|
--3--0--3--2--1--0--3--0--3--2--1--0--3--2--1--0--|


PM PM PM PM PM PM PM PM
S S S S S S S S S S S S S S S S S S S S S S E S S S S S S E
----------------------------------|----------------------------------------|
----------------------------------|----------------------------------------|
----------------------------------|------------------3------------------5--|
----------------------------------|------------------3------------------5--|
----------------------------------|----------------3------------------5----|
--3-0-3-2-1-0-3-0-3-2-1-0-3-2-1-0-|--4--4--4--4--4------6--6--6--6--6------|


PM PM PM PM PM PM PM PM PM PM PM PM PM PM PM PM
S S S S S S S S S S S S S S S S
--------------------------------------------------|
--------------------------------------------------|
--------------------------------------------------|
--------------------------------------------------|
--------------------------------------------------|
--3--0--3--2--1--0--3--0--3--2--1--0--3--2--1--0--|


PM PM PM PM PM PM PM PM
S S S S S S E S S S S S S E
----------------------------------------|
----------------------------------------|
------------------3------------------5--|
------------------3------------------5--|
----------------3------------------5----|
--4--4--4--4--4------6--6--6--6--6------|


PM PM PM PM PM PM PM PM PM PM PM PM PM PM PM PM
S S S S S S S S S S S S S S S S
--------------------------------------------------|
--------------------------------------------------|
--------------------------------------------------|
--------------------------------------------------|
--------------------------------------------------|
--3--0--3--2--1--0--3--0--3--2--1--0--3--2--1--0--|


S S S S S S S S S S S S S S S S H H H H
----------------------------------|--------------------|--------------------|
----------------------------------|--------------------|--------------------|
----------------------------------|--------------------|--------------------|
----------------------------------|--5--------3--------|--------------------|
----------------------------------|--5--------3--------|--6--------5--------|
--3-0-3-2-1-0-3-0-3-2-1-0-3-2-1-0-|--3--------1--------|--6--------5--------|


H H H H H H
--------------------|--------------------|--------------------|
--------------------|--------------------|--------------------|
--------------------|--------------------|--------------------|
--5--------3--------|--------------------|--5--------3--------|
--5--------3--------|--6--------5--------|--5--------3--------|
--3--------1--------|--6--------5--------|--3--------1--------|


H H H H H H
--------------------|--------------------|--------------------|
--------------------|--------------------|--------------------|
--------------------|--------------------|--------------------|
--------------------|--5--------3--------|--------------------|
--6--------5--------|--5--------3--------|--6--------5--------|
--6--------5--------|--3--------1--------|--6--------5--------|


S S Q. H H H S S Q. H
----------------------|--------------------|----------------------|
----------------------|--------------------|----------------------|
----------------------|--------------------|----------------------|
----------------------|--------------------|----------------------|
--3-5-L------L--------|--6--------8--------|--3-5-L------L--------|
--3-5-L------L--------|--6--------8--------|--3-5-L------L--------|


H H S S Q. H H H
--------------------|----------------------|--------------------|
--------------------|----------------------|--------------------|
--------------------|----------------------|--------------------|
--------------------|--3-5-L------L--------|--6--------8--------|
--6--------8--------|--3-5-L------L--------|--6--------8--------|
--6--------8--------|--1-3-L------L--------|--4--------6--------|


S E. E S S E S S E S S H E S E S E
-----------------------------|------------------------|
-----------------------------|------------------------|
-----------------------------|------------------------|
--3-5---L---------3-5-L------|--6--------8----8----8--|
--3-5---L--3-5-L---------3-5-|--6--------8----8----8--|
--1-3---L--------------------|--4--------6----6----6--|


PM PM PM PM PM PM PM PM PM PM PM PM PM PM PM PM
S S S S S S S S S S S S S S S S
--------------------------------------------------|
--------------------------------------------------|
--------------------------------------------------|
--------------------------------------------------|
--------------------------------------------------|
--3--0--3--2--1--0--3--0--3--2--1--0--3--2--1--0--|


PM PM PM PM PM PM PM PM PM PM PM PM PM PM PM PM
S S S S S S S S S S S S S S S S
--------------------------------------------------|
--------------------------------------------------|
--------------------------------------------------|
--------------------------------------------------|
--------------------------------------------------|
--3--0--3--2--1--0--3--0--3--2--1--0--3--2--1--0--|


PM PM PM PM PM PM PM PM PM PM PM PM PM PM PM PM
S S S S S S S S S S S S S S S S
--------------------------------------------------|
--------------------------------------------------|
--------------------------------------------------|
--------------------------------------------------|
--------------------------------------------------|
--3--0--3--2--1--0--3--0--3--2--1--0--3--2--1--0--|


PM PM PM PM PM PM PM PM PM PM PM PM PM PM PM PM
S S S S S S S S S S S S S S S S
--------------------------------------------------|
--------------------------------------------------|
--------------------------------------------------|
--------------------------------------------------|
--------------------------------------------------|
--3--0--3--2--1--0--3--0--3--2--1--0--3--2--1--0--|


PM PM PM PM PM PM PM PM PM PM PM PM PM PM PM PM
S S S S S S S S S S S S S S S S
--------------------------------------------------|
--------------------------------------------------|
--------------------------------------------------|
--------------------------------------------------|
--------------------------------------------------|
--3--0--3--2--1--0--3--0--3--2--1--0--3--2--1--0--|


PM PM PM PM PM PM PM PM PM PM PM PM PM PM PM PM
S S S S S S S S S S S S S S S S
--------------------------------------------------|
--------------------------------------------------|
--------------------------------------------------|
--------------------------------------------------|
--------------------------------------------------|
--3--0--3--2--1--0--3--0--3--2--1--0--3--2--1--0--|


PM PM PM PM PM PM PM PM PM PM PM PM PM PM PM PM
S S S S S S S S S S S S S S S S
--------------------------------------------------|
--------------------------------------------------|
--------------------------------------------------|
--------------------------------------------------|
--------------------------------------------------|
--3--0--3--2--1--0--3--0--3--2--1--0--3--2--1--0--|


PM PM PM PM PM PM PM PM
S S S S S S S S S S S S S S S S S S S S S S E S S S S S S E
----------------------------------|----------------------------------------|
----------------------------------|----------------------------------------|
----------------------------------|------------------3------------------5--|
----------------------------------|------------------3------------------5--|
----------------------------------|----------------3------------------5----|
--3-0-3-2-1-0-3-0-3-2-1-0-3-2-1-0-|--4--4--4--4--4------6--6--6--6--6------|


PM PM PM PM PM PM PM PM PM PM PM PM PM PM PM PM
S S S S S S S S S S S S S S S S
--------------------------------------------------|
--------------------------------------------------|
--------------------------------------------------|
--------------------------------------------------|
--------------------------------------------------|
--3--0--3--2--1--0--3--0--3--2--1--0--3--2--1--0--|


PM PM PM PM PM PM PM PM
S S S S S S E S S S S S S E
----------------------------------------|
----------------------------------------|
------------------3------------------5--|
------------------3------------------5--|
----------------3------------------5----|
--4--4--4--4--4------6--6--6--6--6------|


PM PM PM PM PM PM PM PM PM PM PM PM PM PM PM PM
S S S S S S S S S S S S S S S S
--------------------------------------------------|
--------------------------------------------------|
--------------------------------------------------|
--------------------------------------------------|
--------------------------------------------------|
--3--0--3--2--1--0--3--0--3--2--1--0--3--2--1--0--|


S S S S S S S S S S S S S S S S H H H H
----------------------------------|--------------------|--------------------|
----------------------------------|--------------------|--------------------|
----------------------------------|--------------------|--------------------|
----------------------------------|--5--------3--------|--------------------|
----------------------------------|--5--------3--------|--6--------5--------|
--3-0-3-2-1-0-3-0-3-2-1-0-3-2-1-0-|--3--------1--------|--6--------5--------|


H H H H H H
--------------------|--------------------|--------------------|
--------------------|--------------------|--------------------|
--------------------|--------------------|--------------------|
--5--------3--------|--------------------|--5--------3--------|
--5--------3--------|--6--------5--------|--5--------3--------|
--3--------1--------|--6--------5--------|--3--------1--------|


H H H H H H
--------------------|--------------------|--------------------|
--------------------|--------------------|--------------------|
--------------------|--------------------|--------------------|
--------------------|--5--------3--------|--------------------|
--6--------5--------|--5--------3--------|--6--------5--------|
--6--------5--------|--3--------1--------|--6--------5--------|


S S Q. H H H S S Q. H
----------------------|--------------------|----------------------|
----------------------|--------------------|----------------------|
----------------------|--------------------|----------------------|
----------------------|--------------------|----------------------|
--3-5-L------L--------|--6--------8--------|--3-5-L------L--------|
--3-5-L------L--------|--6--------8--------|--3-5-L------L--------|


H H S S Q. H H H
--------------------|----------------------|--------------------|
--------------------|----------------------|--------------------|
--------------------|----------------------|--------------------|
--------------------|--3-5-L------L--------|--6--------8--------|
--6--------8--------|--3-5-L------L--------|--6--------8--------|
--6--------8--------|--1-3-L------L--------|--4--------6--------|


S E. E S S E S S E S S H E S E S E H H
-----------------------------|------------------------|--------------------|
-----------------------------|------------------------|--------------------|
-----------------------------|------------------------|--------------------|
--3-5---L---------3-5-L------|--6--------8----8----8--|--5--------4--------|
--3-5---L--3-5-L---------3-5-|--6--------8----8----8--|--5--------4--------|
--1-3---L--------------------|--4--------6----6----6--|--3--------2--------|


H E S S S S S S S S S S S S S S S S S S S S S S
--------------------------|----------------------------------|
--------------------------|----------------------------------|
--------------------------|----------------------------------|
--3--------2--------------|----------------------------------|
--3--------2--2-2-2-2-2-2-|--2-2-2-2-2-2-2-2-2-2-2-2-2-2-2-2-|
--1--------0--0-0-0-0-0-0-|--0-0-0-0-0-0-0-0-0-0-0-0-0-0-0-0-|


S S S S S S S S S S S S S S S S S S S S S S S S S S S S S S S S
----------------------------------|----------------------------------|
----------------------------------|----------------------------------|
----------------------------------|----------------------------------|
--------4---5-----------4---5-----|----------------------------------|
--2-----2---3-----------2---3---4-|--5-----4-5-----4-5-----4-5-----2-|
--0-0-0---0---0-0-0-0-0---0---0-2-|--3-3-3-2-3-3-3-2-3-3-3-2-3-3-3-0-|


S S S S S S S S S S S S S S S S S S S S S S S S S S S S S S S S
----------------------------------|----------------------------------|
----------------------------------|----------------------------------|
----------------------------------|----------------------------------|
--------4---5-----------4---5-----|----------------------------------|
--L-----2---3-----------2---3---4-|--5-----4-5-----4-5-----4-5-----2-|
--L-0-0---0---0-0-0-0-0---0---0-2-|--3-3-3-2-3-3-3-2-3-3-3-2-3-3-3-0-|


S S S S S S S S S S S S S S S S S S S S S S S S S S S S S S S S
----------------------------------|----------------------------------|
----------------------------------|----------------------------------|
----------------------------------|----------------------------------|
--------4---5-----------4---5-----|----------------------------------|
--L-----2---3-----------2---3---4-|--5-----4-5-----4-5-----4-5-----2-|
--L-0-0---0---0-0-0-0-0---0---0-2-|--3-3-3-2-3-3-3-2-3-3-3-2-3-3-3-0-|


S S S S S S S S S S S S S S S S S S S S S S S S S S S S S S S S
----------------------------------|----------------------------------|
----------------------------------|----------------------------------|
----------------------------------|----------------------------------|
--------4---5-----------4---5-----|--------------------------------9-|
--L-----2---3-----------2---3---4-|--5-----4-5-----4-5-----4-5-----7-|
--L-0-0---0---0-0-0-0-0---0---0-2-|--3-3-3-2-3-3-3-2-3-3-3-2-3-3-3---|


S S S S S S S S S S S S S S S S S S S S S S S S S S S S S S S S
----------------------------------|-------------------------------------|
----------------------------------|-------------------------------------|
----------------------------------|-------------------------------------|
--L-----8---7---------------------|-----------------------------------9-|
--L-----6---5---9-L-----8---7-----|-----------------------------------7-|
----0-0---0---0-7-L-0-0-6-0-5-0-0-|--3-3-0-5~-L-3-0-6-L-5p-0-5~-L-3-0---|


S S S S S S S S S S S S S S S S S S S S S S S S S S S S S S S S
----------------------------------|-------------------------------------|
----------------------------------|-------------------------------------|
----------------------------------|-------------------------------------|
--L-----8---7---------------------|-------------------------------------|
--L-----6---5---9-L-----8---7-----|-----------------------------------2-|
----0-0---0---0-7-L-0-0-6-0-5-0-0-|--3-3-0-5~-L-3-0-6-L-5p-0-5~-L-3-0-0-|


S S S S S S S S S S S S S S S S S S S S S S S S S S S S S S S S
----------------------------------|----------------------------------|
----------------------------------|----------------------------------|
----------------------------------|----------------------------------|
--------4---5-----------4---5-----|----------------------------------|
--L-----2---3-----------2---3---4-|--5-----4-5-----4-5-----4-5-----2-|
--L-0-0---0---0-0-0-0-0---0---0-2-|--3-3-3-2-3-3-3-2-3-3-3-2-3-3-3-0-|


S S S S S S S S S S S S S S S S S S S S S S S S S S S S S S S S
----------------------------------|----------------------------------|
----------------------------------|----------------------------------|
----------------------------------|----------------------------------|
--------4---5-----------4---5-----|----------------------------------|
--L-----2---3-----------2---3---4-|--5-----4-5-----4-5-----4-5-----2-|
--L-0-0---0---0-0-0-0-0---0---0-2-|--3-3-3-2-3-3-3-2-3-3-3-2-3-3-3-0-|


S S S S S S S S S S S S S S S S S S S S S S S S S S S S S S S S
----------------------------------|----------------------------------|
----------------------------------|----------------------------------|
----------------------------------|----------------------------------|
--------4---5-----------4---5-----|----------------------------------|
--L-----2---3-----------2---3---4-|--5-----4-5-----4-5-----4-5-----2-|
--L-0-0---0---0-0-0-0-0---0---0-2-|--3-3-3-2-3-3-3-2-3-3-3-2-3-3-3-0-|


S S S S S S S S S S S S S S S S S S S S S S S S S S S S S S S S
----------------------------------|----------------------------------|
----------------------------------|----------------------------------|
----------------------------------|----------------------------------|
--------4---5-----------4---5-----|--------------------------------9-|
--L-----2---3-----------2---3---4-|--5-----4-5-----4-5-----4-5-----7-|
--L-0-0---0---0-0-0-0-0---0---0-2-|--3-3-3-2-3-3-3-2-3-3-3-2-3-3-3---|


S S S S S S S S S S S S S S S S S S S S S S S S S S S S S S S S
----------------------------------|-------------------------------------|
----------------------------------|-------------------------------------|
----------------------------------|-------------------------------------|
--L-----8---7---------------------|-----------------------------------9-|
--L-----6---5---9-L-----8---7-----|-----------------------------------7-|
----0-0---0---0-7-L-0-0-6-0-5-0-0-|--3-3-0-5~-L-3-0-6-L-5p-0-5~-L-3-0---|


S S S S S S S S S S S S S S S S S S S S S S S S S S S S S S S S
----------------------------------|-------------------------------------|
----------------------------------|-------------------------------------|
----------------------------------|-------------------------------------|
--L-----8---7---------------------|-----------------------------------9-|
--L-----6---5---9-L-----8---7-----|-----------------------------------7-|
----0-0---0---0-7-L-0-0-6-0-5-0-0-|--3-3-0-5~-L-3-0-6-L-5p-0-5~-L-3-0---|


S S S S S S S S S S S S S S S S S S S S S S S S S S S S S S S S
----------------------------------|-------------------------------------|
----------------------------------|-------------------------------------|
----------------------------------|-------------------------------------|
--L-----8---7---------------------|-----------------------------------9-|
--L-----6---5---9-L-----8---7-----|-----------------------------------7-|
----0-0---0---0-7-L-0-0-6-0-5-0-0-|--3-3-0-5~-L-3-0-6-L-5p-0-5~-L-3-0---|


S S S S S S S S S S S S S S S S S S S S S S S S S S S S S S S S
----------------------------------|-------------------------------------|
----------------------------------|-------------------------------------|
----------------------------------|-------------------------------------|
--L-----8---7---------------------|-------------------------------------|
--L-----6---5---9-L-----8---7-----|---------------------------------2-2-|
----0-0---0---0-7-L-0-0-6-0-5-0-0-|--3-3-0-5~-L-3-0-6-L-5p-0-5~-L-3-0-0-|


S S S S Q H W
------------------------|-------------------||
------------------------|-------------------||
------------------------|-------------------||
------------------------|-------------------||
--2-2-2-----------------|-------------------||
--0-0-0-----------------|-------------------||


Duration Legend
---------------
W - whole
H - half
Q - quarter
E - 8th
S - 16th
T - 32nd
X - 64th
. - note dotted
|-n-| - n-tuplets


Tablature Legend
----------------
L - tied note
x - dead note
g - grace note
(n) - ghost note
> - accentuded note
NH - natural harmonic
AH - artificial harmonic
TH - tapped harmonic
SH - semi harmonic
PH - pitch harmonic
h - hammer on
p - pull off
b - bend
br - bendRelease
pb - preBend
pbr - preBendRelease
brb - bendReleaseBend
\n/ - tremolo bar dip
\n - tremolo bar dive
-/n - tremolo bar Release up
/n\ - tremolo bar inverted dip
/n - tremolo bar return
-\n - tremolo bar Release down
S - shift slide
s - legato slide
/ - slide into from below or out of upwards
\ - slide into from above or out of downwards
~ - vibrato
W - wide vibrato
tr - trill
TP - tremolo picking
T - tapping
S - slap
P - pop




Suggest correction


What's this?

You can suggest a correction to this tab. Community and Mods will review your correction and vote to approve or reject it.




Tunning: Standard (E A D G B e)
Megadeth: The Right To Go Insane
Transcribed by Big Bozz (brain_eatin_zombie@live.com)

Tuning: Standard

Intro
e|----------------------------------|
B|----------------------------------|
G|----------------------------------|
D|-------------------------3-5------|
A|-5----6--8---3-5----3-5-------3-5-|
E|-3----4--6---1-3------------------|

e|---------------------|
B|---------------------|
G|---------------------|
D|---------------------|
A|-6----5-4-3--------3-|
E|-4-----------6-4~--1-|

e|----------------------------------|
B|----------------------------------|
G|----------------------------------|
D|-------------------------3-5------|
A|-5----6--8---3-5----3-5-------3-5-|
E|-3----4--6---1-3------------------|

e|----------------|
B|----------------|
G|----------------|
D|----------------|
A|-6----8--8--8\--|
E|-4----6--6--6\--|


Riff 1 (Slowly stop palm muting as you get to Riff 2)
e|---------------------------------|
B|---------------------------------|
G|---------------------------------|
D|---------------------------------|
A|---------------------------------|
E|-3-0-3-2-1-0-3-0-3-2-1-0-3-2-1-0-|
* * * * * * * * * * * * * * * *


Riff 2
e|-------------------------------|
B|-------------------------------|
G|-------------3--------------5--|
D|-------------3--------------5--|
A|---------3h5------------5h7----|
E|-4-4-4-4--------6-6-6-6--------|
* * * * * * * *
e|---------------------------------|
B|---------------------------------|
G|---------------------------------|
D|---------------------------------|
A|---------------------------------|
E|-3-0-3-2-1-0-3-0-3-2-1-0-3-2-1-0-|
* * * * * * * * * * * * * * * *

Repeat the above, then:
Guitar 1
e|---------------------------------|
B|---------------------------------|
G|---------------------------------|
D|---------------------------------|
A|---------------------------------|
E|-3-0-3-2-1-0-3-0-3-2-1-0-3-2-1-0-|
* * * * * * * * * * * * * * * *
Guitar 2
e|--------------------------------------|
B|--------------------------------------|
G|--------------------------------------|
D|--------------------------------------|
A|-10-7-10-9-8-7-10-7-10-9-8-7-10-9-8-7-|
E|--------------------------------------|


Riff 3
Guitar 1
e|----------------------------------------------------|
B|----------------------------------------------------|
G|----------------------------------------------------|
D|----------7-8~--------7-8~--------7-8~--------7-8~--|
A|-10-10-10-------8-8-8-------6-6-6-------5-5-5-------|
E|----------------------------------------------------|
* * * * * * * * * * * *

Guitar 2
e|-------------------------------------------------|
B|-------------------------------------------------|
G|-------5-7~--------5-7~--------5-7~--------5-7~--|
D|-5-5-5-------------------------------------------|
A|-------------8-8-8-------6-6-6-------5-5-5-------|
E|-------------------------------------------------|
* * * * * * * * * * * *

Guitar 3 comes in later
e|-------------------------------------------------|
B|-------6-8~--------6-8~--------6-8~--------6-8~--|
G|-------------------------------------------------|
D|-5-5-5-------------------------------------------|
A|-------------8-8-8-------6-6-6-------5-5-5-------|
E|-------------------------------------------------|
* * * * * * * * * * * *


Riff 4
e|----------------------------------|
B|----------------------------------|
G|----------------------------------|
D|----------------------------------|
A|-3-5----6--8----3-5----6--8--9--3-|
E|-3-5----6--8----3-5----6--8--9--1-|

e|----------------------------------|
B|----------------------------------|
G|----------------------------------|
D|-------------------------3-5------|
A|-5----6--8---3-5----3-5-------3-5-|
E|-3----4--6---1-3------------------|

e|----------------|
B|----------------|
G|----------------|
D|----------------|
A|-6----8--8--8\--|
E|-4----6--6--6\--|

Play Riff 1
Play Riff 2
Play Riff 3
Play Riff 4


Lead into next section:
e|------------------------|
B|------------------------|
G|------------------------|
D|------------------------|
A|-5--4--3--2-------------|
E|-3--2--1--0-0-0-0-0-0-0-|
* * * * * *
e|-------------------------------------------------|
B|-------------------------------------------------|
G|-------------------------------------------------|
D|-------------------------------------------------|
A|-------------------------------------------------|
E|-0-0-0-0-0-0-0-0-0-0-0-0-0-0-0-0-0-0-0-0-0-0-0-0-|
* * * * * * * * * *



Riff 5 (Solo Rhythm)
e|-------------------------------|
B|-------------------------------|
G|-------------------------------|
D|-------4---5-----------4---5---|
A|-------2---3-----------2---3---|
E|-0-0-0---0---0-0-0-0-0---0---0-|
* * * * * * * * * * *
e|---------------------------------|
B|---------------------------------|
G|---------------------------------|
D|---------------------------------|
A|-4/5-5-5-4/5-5-5-4/5-5-5-4-5-4-3-|
E|-2/3-3-3-2/3-3-3-2/3-3-3-2-3-2-1-|
* * * * * * * * * *

Repeat the following for the rest of the riff:
e|--------------------------------|
B|--------------------------------|
G|--------------------------------|
D|--------4---5-----------4---5---|
A|-2------2---3-----------2---3---|
E|-0--0-0---0---0-0-0-0-0---0---0-|
* * * * * * * * * *
e|---------------------------------|
B|---------------------------------|
G|---------------------------------|
D|---------------------------------|
A|-4/5-5-5-4/5-5-5-4/5-5-5-4-5-4-3-|
E|-2/3-3-3-2/3-3-3-2/3-3-3-2-3-2-1-|
* * * * * * * * * *


Solo (Broderick)
e|-----------------------------------------|
B|-----------------------------------------|
G|-----------------------------------------|
D|-----------------------------12----12-14-|
A|-------10h12p10----10-12-/14----14-------|
E|-10-12----------12-----------------------|

e|----------------------------------15-17-19b22-(22)\-|
B|----------------------15----15-17-------------------|
G|-12h14p12----12-14/16----16-------------------------|
D|----------14----------------------------------------|
A|----------------------------------------------------|
E|----------------------------------------------------|

e|-[silence]--15-17b18^-17-15------------------|
B|----------------------------17~----15-17-----|
G|-----------------------------------------16~-|
D|---------------------------------------------|
A|---------------------------------------------|
E|---------------------------------------------|

e|-------------17p15p12----15p12-------------------------|
B|----15-17p15----------14-------14-15p12-17p14p12-14h15-|
G|-16----------------------------------------------------|
D|-------------------------------------------------------|
A|-------------------------------------------------------|
E|-------------------------------------------------------|

e|--------------------------------------------------|
B|-15p11-11h12-14-11h12-10-11p10----10------------0-|
G|-------------------------------12----/14\12~----0-|
D|--------------------------------------------------|
A|--------------------------------------------------|
E|--------------------------------------------------|

e|----------12-----------------15-14----|
B|-------12----15--------------------17-|
G|-14b16----------/16-15-14-------------|
D|--------------------------17----------|
A|--------------------------------------|
E|--------------------------------------|

e|-17b18-17p15----17p15-------------------------|
B|-------------18-------18p15----18p15----------|
G|----------------------------17-------17-18p17-|
D|----------------------------------------------|
A|----------------------------------------------|
E|----------------------------------------------|

e|---------------------------------|
B|---------------------------------|
G|-15----17p15---------------------|
D|----17-------17-15---------------|
A|-------------------17-16-15-14~--|
E|---------------------------------|

e|------------------------------15b18r15--|
B|----------15b18r15b18r15-12--(15b16r15)-| = touch the string above the 17th fret while
previous note(s) is(are) still ringing.

10b13* = tremolo bar bend, from the 10th fret to the 13th fret.
7d4* = tremolo bar dive, from the 7th fret to the 4th fret.
12~* = tremolo bar vibrato.

x = mute with fret-hand
* = palm mute
X\\ = pick slide
h = hammer-on
p = pull-off
~ = vibrato
t = finger tap
/ = slide up
\ = slide down
h. = natural harmonics
a = artificial harmonics
(9) = ghost note
tm = trem picking
tr = trill
Song info
The Right To Go Insane
Megadeth
2001
  • Rock
  • Heavy Metal
  • Thrash
Similar songs
In Your Words - Lamb of God
Breaking The Law - Judas Priest
Headhunter - Krokus
This Is Now - Hatebreed

Hi! Hope you enjoy backing track experience.
If you want to help us in the development of the project, feel free to donate!