Am I Evil - Metallica
00:00 / 00:00
Tabs and lyrics
Tunning: Standard (E A D G B e)
Metallica - Am I Evil?
----------------------
From the Creeping Death EP
Originally recorded by Diamond Head
Transcription by Jon Kendrew


[Gtr 1 : Distorted]

| | | | | | | | | | | |

e||---||-----------------|----------------|---------------------|
B||-4-||-----------------|----------------|---------------------|
G||---||-9-----------7-9-|-10----------12-|-9---9-9-9-9---9-9-9-|
D||-4-||-9-----------7-9-|-10----------12-|-9---9-9-9-9---9-9-9-|
A||---||-7-----------5-7-|-8-----------10-|-7---7-7-7-7---7-7-7-|
E||---||-----------------|----------------|---------------------|

| | | | | | | | | | | |

e|-----------------------|---------------------|-----------------------|
B|-----------------------|---------------------|-----------------------|
G|-9---9-9-9-7-7-7-7-7-7-|-9---9-9-9-9---9-9-9-|-9---9-9-9-7-7-7-7-7-7-|
D|-9---9-9-9-7-7-7-7-7-7-|-9---9-9-9-9---9-9-9-|-9---9-9-9-7-7-7-7-7-7-|
A|-7---7-7-7-5-5-5-5-5-5-|-7---7-7-7-7---7-7-7-|-7---7-7-7-5-5-5-5-5-5-|
E|-----------------------|---------------------|-----------------------|
|
|
| Gtr 2 : Distorted
| ( Trem Strum )
|-----------------------|
|-----------------------|
|-----------------------|
|-14-\------------------|
|-14-\------------------|
|-12-\------------------|


[Gtr 1 doubles Gtr 2]

| | | | | | | | | | | |

e|---------------------|-----------------------|---------------------|
B|---------------------|-----------------------|---------------------|
G|*--------------------|-----------------------|---------------------|
D|-2-------------------|-----------9-9-9-9-9-9-|-8-------------------|
A|*2-------------------|-----------9-9-9-9-9-9-|-8-------------------|
E|-0-------------------|-----------7-7-7-7-7-7-|-6-------------------|

| | | | | | | | | | | |

e|-----------------------|---------------------|-----------------------|
B|-----------------------|---------------------|-----------------------|
G|----------------------*|---------------------|-----------------------|
D|-----------3-3-3-3-3-3-|-2-------------------|-----------9-9-9-9-9-9-|
A|-----------3-3-3-3-3-3*|-2-------------------|-----------9-9-9-9-9-9-|
E|-----------1-1-1-1-1-1-|-0-------------------|-----------7-7-7-7-7-7-|

| | | | | | | | | | | |

e|---------------------|-----------------------------|---------------------|
B|---------------------|-----------------------------|---------------------|
G|---------------------|-----------10-10-10-10-10-10-|-9-------------------|
D|-8-------------------|-----------10-10-10-10-10-10-|-9-------------------|
A|-8-------------------|-----------8--8--8--8--8--8--|-7-------------------|
E|-6-------------------|-----------------------------|---------------------

| | | | | | | | | | | |

e|-----------------------|---------------------|-----------------------|
B|-----------------------|---------------------|-----------------------|
G|-----------------------|---------------------|-----------------------|
D|-----------9-9-9-9-9-9-|-8-------------------|-----------3-3-3-3-3-3-|
A|-----------9-9-9-9-9-9-|-8-------------------|-----------3-3-3-3-3-3-|
E|-----------7-7-7-7-7-7-|-6-------------------|-----------1-1-1-1-1-1-|

| | | | | | | | | | | |

e|---------------------|-----------------------|----------------------|
B|---------------------|-----------------------|----------------------|
G|---------------------|-----------------------|*---------------------|
D|-2-------------------|-----------7-7-7-7-7-7-|-/9---9-9-9-9---9-9-9-|
A|-2-------------------|-----------5-5-5-5-5-5-|*/7---7-7-7-7---7-7-7-|
E|-0-------------------|-----------------------|----------------------|


[Gtr 1 : Grad rit.]

| | | | | | | | | | | |
(Repeat 3 times)
~~ ~~ ~~
e|-----------------------|------------------|-------------------|
B|-----------------------|------------------|-------------------|
G|----------------------*|------------------|-------------10----|
D|-9---9-9-9-7-7-7-7-7-7-|------------------|-----9---8---------|
A|-7---7-7-7-5-5-5-5-5-5*|-------------8----|-7-----------------|
E|-----------------------|-0---7---6--------|-------------------|

~~
e|------------------------------------|
B|------------------------------------|
G|-9---10---/12---/14-----/16---------|
D|------------------------------------|
A|------------------------------------|
E|------------------------------------|


[Gtr 2 : Intro solo] (See comments at end)

HH HH HH HH HH HH HH HH HH HH HH HH HH HH HH HH
e|---------------------------------|---------------------------------|
B|-058-058-058-058-058-058-058-058-|-047-047-047-047-047-047-047-047-|
G|---------------------------------|---------------------------------|
D|---------------------------------|---------------------------------|
A|---------------------------------|---------------------------------|
E|---------------------------------|---------------------------------|

(Hold last note..)
HH HH HH HH HH HH HH HH HH HH HH HH HH HH HH
e|-----------------------------------|---------------------------------|
B|-058-058-058-058-0710-0710-058-058-|-047-047-047-047-047-047-047-----|
G|-----------------------------------|---------------------------------|
D|-----------------------------------|---------------------------------|
A|-----------------------------------|---------------------------------|
E|-----------------------------------|---------------------------------|

A A A A A A Wh~~~~~~
e|-------------------------------|
B|-------------------------------|
G|-------------------------------|
D|-----5-------------------------|
A|-5-----------5-------7---------|
E|---------5-------7-------------|



"One, Two" (Repeat Main Riff 8 times before verse)

PM---| PM-| PM---|

| | | | | | | |
[Main Riff] |------------------------------|
|------------------------------|
|*----------------------------*|
|---------------2---------3--2-|
|*2-2-2-2-5-2-2-0-2-2-2---1--0*|
|-0-0-0-0-3-0-0---0-0-0--------|

(Main Riff with verse 1)


[Verse 1] (Lyrics)

My mother was a witch, she was burned alive.
Thankless little bitch, for the tears i've cried.
Take her down now, don't want to see her face.
All blistered and burned, can't hide my disgrace.


PM---| PM-| PM---|

| | | | | | | |
[Pre-Chorus riff] |------------------------------|
|------------------------------|
|*----------------------------*|
|---------7-----9---------10-9-|
|*7-7-7-7-5-7-7-7-7-7-7---8--7*|
|-5-5-5-5---5-5---5-5-5--------|


[Pre-Chorus riff x 4 with Pre-Chorus]


[Pre-Chorus] (Lyrics)

Twenty-seven, every one is nice,
Gotta see 'em, make 'em pay the price,
See the bodies out on the ice,
Take my time.......


[Main Riff x 4 with Chorus]

[Chorus] (Lyrics)

Am I Evil?
Yes I am,
Am I Evil?
I am that, yes I am....


[Main Riff x 2]

[Main Riff x 8 with verse 2


[Verse 2] (Lyrics)

As i watched my mother die, I lost my head,
Revenge now I sought, to break with my bread,
Taking no chances, you come with me,
I split you to the bone, help set you free.


[Pre-chorus riff x 4 with pre-chorus]

[Main Riff x 4 with chorus]



[Bridge]

e|------------------|------------------------------|
B|------------------|------------------------------|
G|*9-----7-----5---*|------------------------------|
D|-9-----7-----5----|---------------2---------3--2-|
A|*7-----5-----3---*|-2-2-2-2-5-2-2-0-2-2-2---1--0*|
E|------------------|-0-0-0-0-3-0-0---0-0-0--------|

(Repeat 3 times)

. | | | | | | | | | | | |
~~~~~~~~~~~
|------------------|--------------------|------------------|
|------------------|--------------------|------------------|
|*9-----7-----5---*|-9-----11-----12----|------------------|
|-9-----7-----5----|-9-----11-----12----|------------------|
|*7-----5-----3---*|-7-----9------10----|--/7--------------|
|------------------|--------------------|------------------|


[Double Time feel]

_______________________________________
[Fast Riff 1] |1.

| | | | | | | | | | | | | | | |

PM-| PM-| PM-| PM-| PM--| PM-|
e|------------------|------------------|------------------|------------------|
B|------------------|------------------|------------------|------------------|
G|*-----------------|------------------|------------------|-----------------*|
D|------------------|-------------7----|------------------|---------5--------|
A|*7--7777-7--7777--|-7--7777-5---5----|-7--7777-7--7777--|-7--7777-3---5---*|
E|-5--5555-5--5555--|-5--5555-3--------|-5--5555-5--5555--|-5--5555-----3----|


_____________________________________
|2. Fast Riff 2 : (Note : Lyrics)

| | | | | | | | | | | | | | | |

PM-| PM--| PM------------------------|
e|------------------|-----------------||-----------------|-----------------|
B|------------------|-----------------||-----------------|-----------------|
G|------------------|-----------------||*----------------|-----------------|
D|------------------|-----------------||-----------------|------------7----|
A|-7--7777-7--7777--|-----------------||*2--2222-2-2222--|-2--2222-2--5----|
E|-5--5555-5--5555--|-555-555-555-532-||-0--0000-0-0000--|-0--0000-0-------|
| Triplets |

| | | | | | | |

PM-------------------------|
|-----------------|-----------------|
|-----------------|-----------------|
|-----------------|----------------*| Repeat whole sequence again.
|-----------------|------------7-7--|
|-2--2222-2-2222--|-2--2222-2--5-5-*|
|-0--0000-0-0000--|-0--0000-0-------|



[With Fast Riff 2] [First repeat]

[With Fast Riff 2] [Second repeat])


[Then Fast Riff 1 x 1]

| | | | | | | | | | | |

e|------------------|------------------|------------------|
B|------------------|------------------|------------------|
G|------------------|------------------|------------------|
D|-2----------------|------------------|-5-------7--------|
A|-2----------------|------------------|-5-------7--------|
E|-0----------------|------------------|-3-------5--------|


[GUITAR SOLO]


For the solo, the rhythm follows the following 'feel':

X X X X
|-X--XXXX-X-XXXX--|-X--XXXX-X-XXXX--|

Chord changes are noted above tab lines, and are 2 or 3 fingered power
chords, depending on what you feel like. For the 'XX' notes, strike the
full chord, on the others just play the lowest note (Usually the E string)

B5

| |||| | | ||| | | ||| | | || |
@ @@@@ @ @ @@@ @ @ @@@ @ @ @@ @
(Full) P
e|-----------7-------|----------------11-12--|
B|------------10-7-7/|/12-----------12-------|
G|-9^^^^^^^^^--------|-----------------------|
D|-------------------|-----------------------|
A|-------------------|-----------------------|
E|-------------------|-----------------------|

| | | | | | | | | | | |||| | ||||
@ @ @ @ @ @ @ @ @ @ @ @@@@ @ @@@@
H P H H P P P P
e|-11-12-11---11-12-14-14-14-12-11-12-11----|-----------------7---|
B|---------12----------------------------12-|-10---------/7-------|
G|------------------------------------------|---------------------|
D|------------------------------------------|---------------------|
A|------------------------------------------|---------------------|
E|------------------------------------------|---------------------|

| |||| | | | | | | | || | | ||||
@ @@@@ @ @ @ @ @ @ @ @@ @ @ @@@@
H P P P P
e|-10-9--7--7-9-7-----7--------|--------------------------|
B|----------------10----10-7---|-10-7---7-----------------|
G|-----------------------------|------9---9-7-9-7---7---7-|
D|-----------------------------|------------------9-------|
A|-----------------------------|--------------------------|
E|-----------------------------|--------------------------|

| || | | | | | | | | || | | | | | | |
@ @@ @ @ @ @ @ @ @ @ @@ @ @ @ @ @ @ @
(Full) (Full)
e|-----7-----------------------|-----7-----------------------|
B|-----7-10-7---7--------------|-----7-10-7---7--------------|
G|-9^^--------9---9-7-7------7-|-9^^--------9---9-7-7------7-|
D|-----------------------------|-----------------------------|
A|-----------------------------|-----------------------------|
E|-----------------------------|-----------------------------|

| || | | | | | | | | | | | | | | | | |
@ @@ @ @ @ @ @ @ @ @ @ @ @ @ @ @ @ @ @
(Full)
e|-----7-----------------------|-/19--/20---/22---/24----------|
B|-----7-10-7---7--------------|-------------------------------|
G|-9^^--------9---9-7-7------7-|-------------------------------|
D|-----------------------------|-------------------------------|
A|-----------------------------|-------------------------------|
E|-----------------------------|-------------------------------|

E5
| | | | | | | | | | | | | | | | | | | |
@ @ @ @ @ @ @ @ @ @ @ @ @ @ @ @ @ @ @ @
P P P P P P P P
e|-15-14-12----12-14-15-14-12----12-14-|-15-14-12----12-14-15-14-12----12-14-|
B|----------15----------------15-------|----------15----------------15-------|
G|-------------------------------------|-------------------------------------|
D|-------------------------------------|-------------------------------------|
A|-------------------------------------|-------------------------------------|
E|-------------------------------------|-------------------------------------|

| | | | | | | | | | | | | | | | | | | |
@ @ @ @ @ @ @ @ @ @ @ @ @ @ @ @ @ @ @ @

e|-15---14---12--------12---------|--------------------------------|
B|----------------15--------15----|-14---12---14-------------------|
G|--------------------------------|----------------12======--------|
D|--------------------------------|--------------------------------|
A|--------------------------------|--------------------------------|
E|--------------------------------|--------------------------------|

B5
| | | | | | | | | | | | | | | | | | | |
@ @ @ @ @ @ @ @ @ @ @ @ @ @ @ @ @ @ @ @
(Full) P P P P P P P
e|------7-0-0-9-0-0-10-0-0-|-12-0-0-10-0-0-9-0-0-7-0-0-|
B|----7--------------------|---------------------------|
G|-9^----------------------|---------------------------|
D|-------------------------|---------------------------|
A|-------------------------|---------------------------|
E|-------------------------|---------------------------|

| | | | | | | | | | | | | | | | | | | |
@ @ @ @ @ @ @ @ @ @ @ @ @ @ @ @ @ @ @ @

e|-10---9---7--------7---------|----------------------------|
B|--------------10-------10----|-9---7---9------------------|
G|-----------------------------|-------------7======\-------|
D|-----------------------------|----------------------------|
A|-----------------------------|----------------------------|
E|-----------------------------|----------------------------|


| |||| | |||| | |||| | |||| | |||| | |||| | |||| | ||||
@ @@@@ @ @@@@ @ @@@@ @ @@@@ @ @@@@ @ @@@@ @ @@@@ @ @@@@
HH HH HH HH HH HH HH HH HH HH HH HH HH HH HH HH
e|-----------------|-----------------|-----------------|-047-047-047-047-|
B|-047-047-047-047-|-058-058-058-058-|-047-047-047-047-|-----------------|
G|-----------------|-----------------|-----------------|-----------------|
D|-----------------|-----------------|-----------------|-----------------|
A|-----------------|-----------------|-----------------|-----------------|
E|-----------------|-----------------|-----------------|-----------------|

A5
| |||| | |||| | |||| | |||| | |||| | ||||
@ @@@@ @ @@@@ @ @@@@ @ @@@@ @ @@@@ @ @@@@
HH HH HH HH HH HH HH HH T PP T PP T PP T PP
e|-058-058-058-058-|-047-047-047-047-|-1285-1285-1285-1285-|
B|-----------------|-----------------|---------------------|
G|-----------------|-----------------|*-------------------*|
D|-----------------|-----------------|---------------------|
A|-----------------|-----------------|*-------------------*|
E|-----------------|-----------------|---------------------|

F5 A#5 F#5
| |||| | |||| | |||| | |||| | |||| | ||||
@ @@@@ @ @@@@ @ @@@@ @ @@@@ @ @@@@ @ @@@@
T PP T PP T PP T PP T PP T PP T PP T PP T PP T PP T PP T PP
e|-1385-1385-1385-1385-|-1396-1396-1396-1396-|-1496-1496-1496-1496-|
B|---------------------|---------------------|---------------------|
G|*-------------------*|*-------------------*|---------------------|
D|---------------------|---------------------|---------------------|
A|*-------------------*|*-------------------*|---------------------|
E|---------------------|---------------------|---------------------|

B5
| || | | | || | | | |||| | |||| | |||| | ||||
@ @@ @ @ @ @@ @ @ @ @@@@ @ @@@@ @ @@@@ @ @@@@
T P P T P P T P P T P P HH HH HH HH HH HH HH HH
e|-14107-14107-14107-14107-|-047-----047-----|-047-----047-----|
B|-------------------------|-----047-----047-|-----047-----047-|
G|*-----------------------*|-----------------|-----------------|
D|-------------------------|-----------------|-----------------|
A|*-----------------------*|-----------------|-----------------|
E|-------------------------|-----------------|-----------------|

| |||| | |||| | |||| | |||| | |||| | |||| | |||| | ||||
@ @@@@ @ @@@@ @ @@@@ @ @@@@ @ @@@@ @ @@@@ @ @@@@ @ @@@@
HH HH HH HH HH HH HH HH HH HH HH HH HH HH HH HH
e|-----------------|-----------------|-----------------|-----------------|
B|-047-----047-----|-047-----047-----|-----------------|-----------------|
G|-----047-----047-|-----047-----047-|-047-----047-----|-047-----047-----|
D|-----------------|-----------------|-----047-----047-|-----047-----047-|
A|-----------------|-----------------|-----------------|-----------------|
E|-----------------|-----------------|-----------------|-----------------|

E5
| |||| | |||| | |||| | |||| | | | | | | | | | |
@ @@@@ @ @@@@ @ @@@@ @ @@@@ @ @ @ @ @ @ @ @ @ @
HH HH HH HH P P P P P P P P
e|-----------------|-------------------|-------------------------------------|
B|-----------------|----------------12-|-1514-0-0-1715-0-0-1514-0-0-1715-0-0-|
G|-----------------|-------------/14---|-------------------------------------|
D|-047-----047-----|-------------------|-------------------------------------|
A|-----047-----047-|-------------------|-------------------------------------|
E|-----------------|-7\----------------|-------------------------------------|

| | | | | | | | | | | | | | | | ||| |
@ @ @ @ @ @ @ @ @ @ @ @ @ @ @ @ @@@ @
P P P P P P P P
e|-------------------------------------|---------------------------------|
B|-1514-0-0-1715-0-0-1514-0-0-1715-0-0-|-1514-0-1412-0-1210-0-109-0-97-0-|
G|-------------------------------------|---------------------------------|
D|-------------------------------------|---------------------------------|
A|-------------------------------------|---------------------------------|
E|-------------------------------------|---------------------------------|
B5
| |||| | |||| | |||| | || || | |||| | ||||
@ @@@@ @ @@@@ @ @@@@ @ @@ @@ @ @@@@ @ @@@@
(Full) P (Full)
e|-------------------|----------------------|------------10^====|
B|-7-----------------|-10^------107---7-----|-------------------|
G|-7-9-7---7---------|--------------9---9-7-|-9-7---7-----------|
D|-------------------|----------------------|-----9-------------|
A|-------------------|----------------------|-------------------|
E|-------------------|----------------------|-------------------|

| || || | || | | | || | | | | | | | (END SOLO)
@ @@ @@ @ @@ @ @ @ @@ @ @ @ @ @ @ @
H P H P H P H P ~~~~~~~~
e|-9----12-------------------|--------------------------|
B|-----------10-12-10-8-10-8-|-7-8-7-5-6-5--3========---|
G|---------------------------|--------------------------|
D|---------------------------|--------------------------|
A|---------------------------|--------------------------|
E|---------------------------|--------------------------|


[Fast Riff 1 x 2]

( Note : Only repeat the first section )

On fourth repeat, Gtr 2 plays:

P
e|------------------|
B|------------------|
G|------------------|
D|-/777-777-777-75--|
A|----------------7-|
E|------------------|


[Fast Riff 2 x 4]

[Fast Riff 1 x 4]


(Triplet feel - not strict time)

_________________________
|1,2,3. |4.
H H P
e|------------------|----------------------|----------|
B|------------------|----------------------|----------|
G|------------------|---------------------*|----------|
D|-----9---7-7------|-7-7------------------|-7--------|
A|-----7---5-5------|-5-5---------5-7-5---*|-5---7----|
E|-0-0--------------|---------5-7-------7--|-----5----|

PM---| PM-| PM---| h h
(Repeat 6 times)
e|----------------------------|-----------------|
B|----------------------------|-----------------|
G|*--------------------------*|-----------------|
D|---------------2--------3-2-|-------------2---|
A|*2-2-2-2-5-2-2-0-2-2-2--1-0*|---------5---2---|
E|-0-0-0-0-3-0-0---0-0-0------|-5---5---3---0---| (END)



NOTES :
-------

- For the intro solo, use the left hand for all taps - The open
string is picked with the pick, then hammer on with your index finger,
then little finger for the highest note. This technique is also used in
the main solo as well.

- For the tapping part on the main solo, i find it easier to
use my middle finger rather than the pick edge (Since it is not too
fast)

There are probably a lot of mistakes in this transcription, any
corrections and/or additions would be gratefully received. Also the rest
of the lyrics would be a Bonus! Listen to the song to get the feel of
the rhythm (and lead parts!!) - It's difficult to convey the timing
accurately using this format.


**************************************************************

H - Hammer on
P - Pick off
/ - Slide up to...
\ - Slide down to...
T - Tap (With pick or finger)
h - Harmonic (Natural)
A - Harmonic (Artificial)
~ - Vibrato
X_ - Pick slide
PM - Palm mute
Tr - Trill
Wh - Use whammy bar
^ - Bend string up ( x steps )
` - Release bend ( x steps )

|
@ - Rhythm slash ( Power chord noted)

| - Time slash ( 4\4 Time, etc... )
= - Let ring

**************************************************************
Tunning: Standard (E A D G B e)
I hope that you can manage the song with a lil of practice ;P
If you see a bad riff, pls mail me. Enjoy it¡¡

4/4
Gtr I
PM--| PM--|
|-3-| |-3-|
H E E H Q E E E E E E E E E E
|----------|-----------|---------------------|
|----------|-----------|---------------------|
|-9----7-9-|-10----12--|---------------------|
|-9----7-9-|--8----12--|-9---------9---------|
|-7----5-7-|--8----10--|-7---------7---------|
|-0--------|-----------|-----0-0-0-----0-0-0-|


Gtr I
PM--------------| PM--| PM--| PM--------------|
|-3-| |-3-| |-3-| |-3-| |-3-| |-3-| |-3-| |-3-|
E E E E E E E E E E E E E E E E E E E E E E E E E E E E E E E E
|-----------------------|---------------------|-----------------------|
|-----------------------|---------------------|-----------------------|
|-----------------------|---------------------|-----------------------|
|-9---------------------|-9---------9---------|-9---------------------|
|-7---------------------|-7---------7---------|-7---------------------|
|-----0-0-0-0-0-0-0-0-0-|-----0-0-0-----0-0-0-|-----0-0-0-0-0-0-0-0-0-|
|
|
| Gtr II
| W W W (slow slide)
|-----------------------|---------------------|-----------------------|
|-----------------------|---------------------|-----------------------|
|-----------------------|---------------------|-----------------------|
|-----------------------|---------------------|-----------------------|
|-----------------------|---------------------|-12\-------------------|
|-----------------------|---------------------|-14\-------------------|


Gtr I
PM--| PM--| PM--------------| PM--| PM--|
|-3-| |-3-| |-3-| |-3-| |-3-| |-3-| |-3-|
E E E E E E E E E E E E E E E E E E E E E E E E E E E E E E E
||----------------------|-----------------------|---------------------|
||o---------------------|-----------------------|---------------------|
||----------------------|-----------------------|---------------------|
||--9---------9---------|-9---------------------|-9---------9---------|
||o-7---------7---------|-7---------------------|-7---------7---------|
||------0-0-0-----0-0-0-|-----0-0-0-0-0-0-0-0-0-|-----0-0-0-----0-0-0-|
|
|
| Gtr II
| W +H H W
||----------------------|-----------------------|---------------------|
||o---------------------|-----------------------|---------------------|
||----------------------|-----------------------|---------------------|
||----------------------|--------9--------------|-8-------------------|
||o-2-------------------|-(2)----9--------------|-8-------------------|
||--0-------------------|-(0)----7--------------|-6-------------------|


Gtr I
PM--------------| PM--| PM--| PM--|
|-3-| |-3-| |-3-| |-3-| |-3-| |-3-| |-3-| |-3-|
E E E E E E E E E E E 4x E E E E E E E E E E E E E E E E E E E E E
|------------------------||---------------------|-----------------------|
|-----------------------o||---------------------|-----------------------|
|------------------------||---------------------|-----------7-7-7-7-7-7-|
|-9----------------------||-9---------9---------|-9---------7-7-7-7-7-7-|
|-7---------------------o||-7---------7---------|-7---------5-5-5-5-5-5-|
|-----0-0-0-0-0-0-0-0-0--||-----0-0-0-----0-0-0-|-----0-0-0-------------|
|
|
| Gtr II
| |-3-| |-3-|
| H H 4x W +H E E E E E E
|------------------------||---------------------|-----------------------|
|-----------------------o||---------------------|-----------------------|
|------------------------||---------------------|-----------7-7-7-7-7-7-|
|-(8)--------------------||---------------------|-----------7-7-7-7-7-7-|
|-(8)----3--------------o||-2-------------------|-(2)-------5-5-5-5-5-5-|
|-(6)----1---------------||-0-------------------|-(0)-------------------|


Gtrs I, II
PM--| PM--| PM--|
|-3-| |-3-| |-3-| |-3-| |-3-|
E E E E E E E E E E E E E E E E E E E E E 3x
||----------------------|------------------------||
||o---------------------|-----------------------o||
||----------------------|-----------7-7-7-7-7-7--||
||--9---------9---------|-9---------7-7-7-7-7-7--||
||o-7---------7---------|-7---------5-5-5-5-5-5-o||
||------0-0-0-----0-0-0-|-----0-0-0--------------||


Gtrs I, II Gtr I
~~~ ~~
Q Q Q Q Q Q Q Q Q Q a H E a Q. a H
|---------|---------|-----------|--------------------|
|---------|-------6-|-5-6-6S8---|---8S10----10S12----|
|---------|---4-3---|-----------|--------------------|
|-------3-|-2-------|-----------|--------------------|
|---2-1---|---------|-----------|--------------------|
|-0-------|---------|-----------|--------------------|


Gtr I
|-3-| |-3-| |-3-| |-3-| |-3-| |-3-| |-3-| |-3-|
E E E E E E E E E E E E E E E E E E E E E E E E
|-------------------------|-------------------------|
|-0h5h8-0h5h8-0h5h8-0h5h8-|-0h5h8-0h5h8-0h5h8-0h5h8-|
|-------------------------|-------------------------|
|-------------------------|-------------------------|
|-------------------------|-------------------------|
|-------------------------|-------------------------|


Gtr I
|-3-| |-3-| |-3-| |-3-| |-3-| |-3-| |-3-| |-3-|
E E E E E E E E E E E E E E E E E E E E E E E E
|-------------------------|-------------------------|
|-0h4h7-0h4h7-0h4h7-0h4h7-|-0h4h7-0h4h7-0h4h7-0h4h7-|
|-------------------------|-------------------------|
|-------------------------|-------------------------|
|-------------------------|-------------------------|
|-------------------------|-------------------------|


Gtr I
|-3-| |-3-| |-3-| |-3-| |-3--| |-3--| |-3-| |-3-|
E E E E E E E E E E E E E E E E E E E E E E E E
|-------------------------|---------------------------|
|-0h5h8-0h5h8-0h5h8-0h5h8-|-0h7h10-0h7h10-0h5h8-0h5h8-|
|-------------------------|---------------------------|
|-------------------------|---------------------------|
|-------------------------|---------------------------|
|-------------------------|---------------------------|


Gtr I
|-3-| |-3-| |-3-| |-3-| |-3-| |-3-| |-3-|
E E E E E E E E E E E E E E E E E E E E E +Q +W
|-------------------------|------------------------|------------|
|-0h4h7-0h4h7-0h4h7-0h4h7-|-0h4h7-0h4h7-0h4h7-(7)--|-(7)--------|
|-------------------------|------------------------|------------|
|-------------------------|------------------------|------------|
|-------------------------|------------------------|------------|
|-------------------------|------------------------|------------|


2/4
Gtr I
H Q Q H. Q H. E W +H
|------------|-------------|------------|----------|----------|
|------------|-------------|------------|----------|----------|
|------------|----------|------------|----------|----------|
|---------|-------------|---------|----------|----------|
|------------|----------|------------|-------|-()----|
|------------|-------------|---------|----------|----------|


4/4
Gtrs I, II
PM----| PM| PM--|
E E E E E E E E E E E E +Q Q 8x
||------------------|-----------------||
||o-----------------|----------------o||
||------------------|-----------------||
||------------------|-----------------||
||o---------5-----7-|-------8-(8)--7-o||
||--0-0-0-0-3-0-0-5-|-0-0-0-6-(6)--5--||


Gtrs I, II
PM----| PM| PM--|
E E E E E E E E E E E E +Q Q 8x
||------------------|-----------------||
||o-----------------|----------------o||
||------------------|-----------------||
||------------------|-----------------||
||o---------5-----7-|-------8-(8)--7-o||
||--0-0-0-0-3-0-0-5-|-0-0-0-6-(6)--5--||


Gtrs I, II
PM----| PM| PM--|
E E E E E E E E E E E E +Q Q 4x
||------------------|--------------------||
||o-----------------|-------------------o||
||----------7-----9-|-------10-(10)--9---||
||----------7-----9-|-------10-(10)--9---||
||o-----------------|-------------------o||
||--7-7-7-7---7-7---|-7-7-7--------------||


Gtrs I, II
PM----| PM| PM--|
E E E E E E E E E E E E +Q Q 6x
||------------------|-----------------||
||o-----------------|----------------o||
||------------------|-----------------||
||------------------|-----------------||
||o---------5-----7-|-------8-(8)--7-o||
||--0-0-0-0-3-0-0-5-|-0-0-0-6-(6)--5--||


Gtrs I, II
PM----| PM| PM--|
E E E E E E E E E E E E +Q Q 8x
||------------------|-----------------||
||o-----------------|----------------o||
||------------------|-----------------||
||------------------|-----------------||
||o---------5-----7-|-------8-(8)--7-o||
||--0-0-0-0-3-0-0-5-|-0-0-0-6-(6)--5--||


Gtrs I, II
PM----| PM| PM--|
E E E E E E E E E E E E +Q Q 4x
||------------------|-------------------||
||o-----------------|------------------o||
||----------7-----9-|-------10-(10)--9--||
||----------7-----9-|-------10-(10)--9--||
||o-----------------|------------------o||
||--7-7-7-7---7-7---|-7-7-7-------------||


Gtrs I, II
PM----| PM| PM--|
E E E E E E E E E E E E +Q Q 4x
||------------------|-----------------||
||o-----------------|----------------o||
||------------------|-----------------||
||------------------|-----------------||
||o---------5-----7-|-------8-(8)--7-o||
||--0-0-0-0-3-0-0-5-|-0-0-0-6-(6)--5--||


Gtrs I, II
PM----| PM| PM--|
Q E Q E H +W E E E E E E E E E E E E +Q Q
|----------------|------------|-----------------|----------------|
|----------------|------------|-----------------|----------------|
|-9----7----5----|-(5)--------|-----------------|----------------|
|-9----5----5----|-(5)--------|-----------------|----------------|
|-7----5----3----|-(3)--------|---------5-----7-|-------8-(8)--7-|
|----------------|------------|-0-0-0-0-3-0-0-5-|-0-0-0-6-(6)--5-|


Gtrs I, II
Q E Q E H +W Q E Q E H +E S S H.
|----------------|-------||-----------------|-----------------||
|----------------|-------||o----------------|----------------o||
|-9----7----5----|-(5)---||--9----7----5----|-(5)-5-5-5-------||
|-9----5----5----|-(5)---||--9----5----5----|-(5)-5-5-5-------||
|-7----5----3----|-(3)---||o-7----5----3----|-(3)-3-3-3------o||
|----------------|-------||-----------------|-----------------||


Gtrs I, II
Q E Q E H +W +W +W
|---------------|------------------|-------------|----------|
|---------------|------------------|-------------|----------|
|-9---7----5----|-(5)--------------|-(5)---------|-(5)------|
|-9---5----5----|-(5)--------------|-(5)---------|-(5)------|
|-7---5----3----|-(3)--------------|-(3)---------|-(3)------|
|---------------|------------------|-------------|----------|
|
|
| Gtr III
| Q E Q. Q +E E H. +W +W
|---------------|------------------|-------------|-----------|
|---------------|------------------|-------------|-----------|
|---------------|------------------|-------------|-----------|
|---------------|------------------|-------------|-----------|
|-7----9----10--|-(10)-10S7--------|-(7)---------|-(7)-------|
|---------------|------------------|-------------|-----------|


Gtrs I, II
PM----| PM----| PM----|
|3| |-3-| |3| |-3-| |3| |-3-|
Q E E E E Q E E E E Q E E E E Q Q
|---------------------|-----------------|
|---------------------|-----------------|
|---------------------|-----------------|
|-2---------2---------|-2------------7--|
|-0-0-0-0-0-0-0-0-0-0-|-0-0-0-0-0-5--5--|
|---------------------|-----------3-----|


Gtrs I, II
PM----| PM----| PM----|
|3| |-3-| |3| |-3-| |3| |-3-|
Q E E E E Q E E E E Q E E E E Q Q
|---------------------|-----------------|
|---------------------|-----------------|
|---------------------|-----------------|
|-2---------2---------|-2---------5-----|
|-0-0-0-0-0-0-0-0-0-0-|-0-0-0-0-0-3--5--|
|---------------------|--------------3--|


Gtrs I, II
PM----| PM----| PM----|
|3| |-3-| |3| |-3-| |3| |-3-|
Q E E E E Q E E E E Q E E E E Q Q
|---------------------|-----------------|
|---------------------|-----------------|
|---------------------|-----------------|
|-2---------2---------|-2------------7--|
|-0-0-0-0-0-0-0-0-0-0-|-0-0-0-0-0-5--5--|
|---------------------|-----------3-----|


Gtrs I, II
PM----| PM----| PM----|
|3| |-3-| |3| |-3-| |3| |-3-|
Q E E E E Q E E E E Q E E E E H
|---------------------|--------------|
|---------------------|--------------|
|---------------------|--------------|
|-2---------2---------|-2---------5--|
|-0-0-0-0-0-0-0-0-0-0-|-0-0-0-0-0-3--|
|---------------------|--------------|


Gtrs I, II
PM---------------------------------|
|3-| |-3-| |3-| |-3-| |3-| |-3-|
Q E E E E Q E E E E Q E E E E E Q.
||------------------------|-------------------|
||o-----------------------|-------------------|
||------------------------|-------------------|
||------------------------|--------------7----|
||o-----------------------|--------------5----|
||--0--0-0-0-0-0--0-0-0-0-|-0--0-0-0-0-0------|


Gtrs I, II
PM------------------------------|
|3| |-3-| |3| |-3-| |3| |-3-| |--3--|
Q E E E E Q E E E E Q E E E E Q Q Q 4x
|---------------------|--------------------||
|---------------------|-------------------o||
|---------------------|--------------------||
|---------------------|--------------7--7--||
|---------------------|--------------5--5-o||
|-0-0-0-0-0-0-0-0-0-0-|-0-0-0-0-0-0--------||


Gtrs I, II
PM----| PM----| PM----|
|3| |-3-| |3| |-3-| |3| |-3-|
Q E E E E Q E E E E Q E E E E Q Q
||----------------------|-----------------|
||o---------------------|-----------------|
||----------------------|-----------------|
||--2---------2---------|-2------------7--|
||o-0-0-0-0-0-0-0-0-0-0-|-0-0-0-0-0-5--5--|
||----------------------|-----------3-----|


Gtrs I, II
PM----| PM----| PM----|
|3| |-3-| |3| |-3-| |3| |-3-|
Q E E E E Q E E E E Q E E E E Q Q
|---------------------|------------------||
|---------------------|-----------------o||
|---------------------|------------------||
|-2---------2---------|-2---------5------||
|-0-0-0-0-0-0-0-0-0-0-|-0-0-0-0-0-3--5--o||
|---------------------|--------------3---||


Gtrs I, II
PM------------------------------|
|3| |-3-| |3| |-3-| |3| |-3-|
Q E E E E Q E E E E Q E E E E E Q.
||----------------------|------------------|
||o---------------------|------------------|
||----------------------|------------------|
||----------------------|-------------7----|
||o---------------------|-------------5----|
||--0-0-0-0-0-0-0-0-0-0-|-0-0-0-0-0-0------|


Gtrs I, II
PM------------------------------|
|3| |-3-| |3| |-3-| |3| |-3-| |--3--|
Q E E E E Q E E E E Q E E E E Q Q Q 4x
|---------------------|--------------------||
|---------------------|-------------------o||
|---------------------|--------------------||
|---------------------|--------------7--7--||
|---------------------|--------------5--5-o||
|-0-0-0-0-0-0-0-0-0-0-|-0-0-0-0-0-0--------||


Gtrs I, II
PM----| PM----| PM----|
|3| |-3-| |3| |-3-| |3| |-3-|
Q E E E E Q E E E E Q E E E E Q Q
||----------------------|-----------------|
||o---------------------|-----------------|
||----------------------|-----------------|
||--2---------2---------|-2------------7--|
||o-0-0-0-0-0-0-0-0-0-0-|-0-0-0-0-0-5--5--|
||----------------------|-----------3-----|


Gtrs I, II
PM----| PM----| PM----|
|3| |-3-| |3| |-3-| |3| |-3-|
Q E E E E Q E E E E Q E E E E Q Q
|---------------------|------------------||
|---------------------|-----------------o||
|---------------------|------------------||
|-2---------2---------|-2---------5------||
|-0-0-0-0-0-0-0-0-0-0-|-0-0-0-0-0-3--5--o||
|---------------------|--------------3---||


Gtrs I, II
W +W H H
|----------|------------|-----------|
|----------|------------|-----------|
|-9--------|-(9)--------|-----------|
|-9--------|-(9)--------|-5----7----|
|-7--------|-(7)--------|-5----7----|
|----------|------------|-3----5----|


Gtr III
~~~~~~
|-3--| |---3----| |--3--| |---3----| |--3--|
H +E E E E E Q. E +E E E E S S E E E E E S S E E E E E
|--------------7---------|------------------8-11-12-|-11h12p11----11-12-14-11h12p11----11-------|
|----------------10p7-10-|-10b12====10r(10)-9-------|----------12-------------------12----12-11-|
|-9b11-----(9)-----------|--------------------------|-------------------------------------------|
|------------------------|--------------------------|-------------------------------------------|
|------------------------|--------------------------|-------------------------------------------|
|------------------------|--------------------------|-------------------------------------------|
|
|
| Gtrs I, II
| PM--------------------------------------------------------------------|
| |3| |-3-| |3| |-3-| |3| |-3-| |3| |-3-| |3| |-3-| |3| |-3-|
| Q E E E E Q E E E E Q E E E E Q E E E E Q E E E E Q E E E E
|------------------------|--------------------------|-------------------------------------------|
|------------------------|--------------------------|-------------------------------------------|
|------------------------|--------------------------|-------------------------------------------|
|------------------------|--------------------------|-------------------------------------------|
|-2-2-2-2-2-2-2-2-2-2----|-2-2-2-2-2-2-2-2-2-2------|-2-2-2-2-2-2-2-2-2-2-----------------------|
|------------------------|--------------------------|-------------------------------------------|


Gtr III
~~~~~~~~~~
|---3---| |----3----| |-3-| |-3-| |-3-| |-3-|
H +Q E E Q Q E E E S S S S S S Q E E E E E E E E E E E
|-----------------7---|-10--9--7-9p7------7-----------|------------------------|
|-10---(10)\--/10-----|--------------10p7---10-10p7-7-|-10p7---7---------------|
|---------------------|-------------------------------|------9---9-7-9p7---7-7-|
|---------------------|-------------------------------|------------------9-----|
|---------------------|-------------------------------|------------------------|
|---------------------|-------------------------------|------------------------|
|
|
| Gtrs I, II
| PM----------------------------------------------------------------------|
| |3| |-3-| |3| |-3-| |3| |-3-| |3| |-3-| |3| |-3-| |3| |-3-|
| Q E E E E Q E E E E Q E E E E Q E E E E Q E E E E Q E E E E
|---------------------|-------------------------------|------------------------|
|---------------------|-------------------------------|------------------------|
|---------------------|-------------------------------|------------------------|
|---------------------|-------------------------------|------------------------|
|-2-2-2-2-2-2-2-2-2-2-|-2-2-2-2-2-2-2-2-2-2-----------|-2-2-2-2-2-2-2-2-2-2----|
|---------------------|-------------------------------|------------------------|


Gtr III
|-3-| |--3--| |-3-| |-3--| |-3-| |--3--| |-3-|
E E E E E S S E E E E E Q Q +Q Q. E E E E E E S S E E E E E
|------7----------------------|---------------------|------7----------------------|
|--------10p7-----------------|-9-------------------|--------10p7-----------------|
|-9b11--------9-7h9-7---7-7-7-|-9-7-(7)b8------7----|-9b11--------9-7h9-7---7-7-7-|
|---------------------9-------|-----------9---------|---------------------9-------|
|-----------------------------|---------------------|-----------------------------|
|-----------------------------|---------------------|-----------------------------|
|
|
| Gtrs I, II
| PM------------------------------------------------------------|
| |3| |-3-| |3| |-3-| |3| |-3-| |3| |-3-| |3| |-3-| |3| |-3-|
| Q E E E E Q E E E E Q E E E E Q E E E E Q E E E E Q E E E E
|-----------------------------|---------------------|-----------------------------|
|-----------------------------|---------------------|-----------------------------|
|-----------------------------|---------------------|-----------------------------|
|-----------------------------|---------------------|-----------------------------|
|-2-2-2-2-2-2-2-2-2-2---------|-2-2-2-2-2-2-2-2-2-2-|-2-2-2-2-2-2-2-2-2-2---------|
|-----------------------------|---------------------|-----------------------------|


Gtr III
|-3-| |--3--| |-3-| |-3-| |--3--| |---3---|
E E E E E S S E E E E E E E E E E S S E E Q Q Q Q H
|------7----------------------|------7--------------------|-19--20--22--22b24---|
|--------10p7-----------------|--------10p7---------------|---------------------|
|-9b11--------9-7h9-7---7-7-7-|-9b11--------9-7h9-7---7/--|---------------------|
|---------------------9-------|---------------------9-----|---------------------|
|-----------------------------|---------------------------|---------------------|
|-----------------------------|---------------------------|---------------------|
|
|
| Gtrs I, II
| PM--------------------------------------------------------------------------|
| |3| |-3-| |3| |-3-| |3| |-3-| |3| |-3-| |3| |-3-| |3| |-3-|
| Q E E E E Q E E E E Q E E E E Q E E E E Q E E E E Q E E E E
|-----------------------------|---------------------------|---------------------|
|-----------------------------|---------------------------|---------------------|
|-----------------------------|---------------------------|---------------------|
|-----------------------------|---------------------------|---------------------|
|-2-2-2-2-2-2-2-2-2-2---------|-2-2-2-2-2-2-2-2-2-2-------|-2-2-2-2-2-2-2-2-2-2-|
|-----------------------------|---------------------------|---------------------|


Gtr III
|------3-------| |------3-------| |------3-------| |------3-------|
E E E E E E E E E E E E E E E E E E E E E E E E
|-15p12-14p12----12-15p12-14p12----12-|-15p12-14p12----12-15p12-14p12----12-|
|-------------14----------------14----|-------------14----------------14----|
|-------------------------------------|-------------------------------------|
|-------------------------------------|-------------------------------------|
|-------------------------------------|-------------------------------------|
|-------------------------------------|-------------------------------------|
|
|
| Gtrs I, II
| PM------------------------------------------------------|
| |3| |-3-| |3| |-3-| |3| |-3-| |3| |-3-|
| Q E E E E Q E E E E Q E E E E Q E E E E
|-------------------------------------|-------------------------------------|
|-------------------------------------|-------------------------------------|
|-------------------------------------|-------------------------------------|
|-------------------------------------|-------------------------------------|
|-------------------------------------|-------------------------------------|
|-0-0-0-0-0-0-0-0-0-0-----------------|-0-0-0-0-0-0-0-0-0-0-----------------|


Gtr III
|---3---| |---3---| |---3---|
Q Q Q Q Q Q Q Q Q Q E E
|-15--14--12------12-----|----------------------|
|-------------15------15-|-14--12--14-----------|
|------------------------|-------------12--12S7-|
|------------------------|----------------------|
|------------------------|----------------------|
|------------------------|----------------------|
|
|
| Gtrs I, II
| PM-----------------------------------------|
| |3| |-3-| |3| |-3-| |3| |-3-| |3| |-3-|
| Q E E E E Q E E E E Q E E E E Q E E E E
|------------------------|----------------------|
|------------------------|----------------------|
|------------------------|----------------------|
|------------------------|----------------------|
|------------------------|----------------------|
|-0-0-0-0-0-0-0-0-0-0----|-0-0-0-0-0-0-0-0-0-0--|


Gtr III
|-3-| |-3-| |-3-| |-3-| |-3-| |-3-| |-3-|
E E E E E E E E E E E E E E E E E E E E E E E
|------7-10p7---9p7---10p7---|-12p7---10p7---9p7---10p7---|
|-------------7-----7------7-|------7------7-----7------7-|
|-9b11-----------------------|----------------------------|
|----------------------------|----------------------------|
|----------------------------|----------------------------|
|----------------------------|----------------------------|
|
|
| Gtrs I, II
| PM--------------------------------------------|
| |3| |-3-| |3| |-3-| |3| |-3-| |3| |-3-|
| Q E E E E Q E E E E Q E E E E Q E E E E
|----------------------------|----------------------------|
|----------------------------|----------------------------|
|----------------------------|----------------------------|
|----------------------------|----------------------------|
|-2-2-2-2-2-2-2-2-2-2--------|-2-2-2-2-2-2-2-2-2-2--------|
|----------------------------|----------------------------|


Gtr III
|--3--| |--3---| |--3--|
Q Q Q Q Q Q Q Q Q Q Q
|-10--9--7------7-----|---------------------|
|-----------10-----10-|-9--7--9-------------|
|---------------------|----------7--7\------|
|---------------------|---------------------|
|---------------------|---------------------|
|---------------------|---------------------|
|
|
| Gtrs I, II
| PM--------------------------------------|
| |3| |-3-| |3| |-3-| |3| |-3-| |3| |-3-|
| Q E E E E Q E E E E Q E E E E Q E E E E
|---------------------|---------------------|
|---------------------|---------------------|
|---------------------|---------------------|
|---------------------|---------------------|
|-2-2-2-2-2-2-2-2-2-2-|-2-2-2-2-2-2-2-2-2-2-|
|---------------------|---------------------|


Gtr III
|-3-| |-3-| |-3-| |-3-| |-3-| |-3-| |-3-| |-3-|
E E E E E E E E E E E E E E E E E E E E E E E E
|-------------------------|-------------------------|
|-0h4h7-0h4h7-0h4h7-0h4h7-|-0h5h8-0h5h8-0h5h8-0h5h8-|
|-------------------------|-------------------------|
|-------------------------|-------------------------|
|-------------------------|-------------------------|
|-------------------------|-------------------------|
|
|
| Gtrs I, II
| PM------------------------------------------|
| |3| |-3-| |3| |-3-| |3| |-3-| |3| |-3-|
| Q E E E E Q E E E E Q E E E E Q E E E E
|-------------------------|-------------------------|
|-------------------------|-------------------------|
|-------------------------|-------------------------|
|-------------------------|-------------------------|
|-2-2-2-2-2-2-2-2-2-2-----|-2-2-2-2-2-2-2-2-2-2-----|
|-------------------------|-------------------------|


Gtr III
|-3-| |-3-| |-3-| |-3-| |-3-| |-3-| |-3-| |-3-|
E E E E E E E E E E E E E E E E E E E E E E E E
|-------------------------|-0h4h7-0h4h7-0h4h7-0h4h7-|
|-0h4h7-0h4h7-0h4h7-0h4h7-|-------------------------|
|-------------------------|-------------------------|
|-------------------------|-------------------------|
|-------------------------|-------------------------|
|-------------------------|-------------------------|
|
|
| Gtrs I, II
| PM------------------------------------------|
| |3| |-3-| |3| |-3-| |3| |-3-| |3| |-3-|
| Q E E E E Q E E E E Q E E E E Q E E E E
|-------------------------|-------------------------|
|-------------------------|-------------------------|
|-------------------------|-------------------------|
|-------------------------|-------------------------|
|-2-2-2-2-2-2-2-2-2-2-----|-2-2-2-2-2-2-2-2-2-2-----|
|-------------------------|-------------------------|


Gtr III
|-3-| |-3-| |-3-| |-3-| |-3-| |-3-|
E E E E E E E E E E E E E E E E E E S S S S S S S S
|-0h5h8-0h5h8-0h5h8-0h5h8-|-0h4h7-0h4h7-0h4h7p0-4h7-5h8-|
|-------------------------|-----------------------------|
|-------------------------|-----------------------------|
|-------------------------|-----------------------------|
|-------------------------|-----------------------------|
|-------------------------|-----------------------------|
|
|
| Gtrs I, II
| PM------------------------------------------|
| |3| |-3-| |3| |-3-| |3| |-3-| |3| |-3-|
| Q E E E E Q E E E E Q E E E E Q E E E E
|-------------------------|-----------------------------|
|-------------------------|-----------------------------|
|-------------------------|-----------------------------|
|-------------------------|-----------------------------|
|-2-2-2-2-2-2-2-2-2-2-----|-2-2-2-2-2-2-2-2-2-2---------|
|-------------------------|-----------------------------|


Gtr III
T T T T T T T T
|-3-| |-3-| |-3-| |-3-| |-3-| |-3-| |-3-| |-3-|
E E E E E E E E E E E E E E E E E E E E E E E E
|-12p8p5-12p8p5-12p8p5-12p8p5-|-12p8p5-12p8p5-12p8p5-12p8p5-|
|-----------------------------|-----------------------------|
|-----------------------------|-----------------------------|
|-----------------------------|-----------------------------|
|-----------------------------|-----------------------------|
|-----------------------------|-----------------------------|
|
|
| Gtrs I, II
| PM----------------------------------------------|
| |3| |-3-| |3| |-3-| |3| |-3-| |3| |-3-|
| Q E E E E Q E E E E Q E E E E Q E E E E
|-----------------------------|-----------------------------|
|-----------------------------|-----------------------------|
|-----------------------------|-----------------------------|
|-----------------------------|-----------------------------|
|-0-0-0-0-0-0-0-0-0-0---------|-0-0-0-0-0-0-0-0-0-0---------|
|-----------------------------|-----------------------------|


Gtr III
T T T T T T T T
|-3-| |-3-| |-3-| |-3-| |-3-| |-3-| |-3-| |-3-|
E E E E E E E E E E E E E E E E E E E E E E E E
|-13p8p5-13p8p5-13p8p5-13p8p5-|-13p8p5-13p8p5-13p8p5-13p8p5-|
|-----------------------------|-----------------------------|
|-----------------------------|-----------------------------|
|-----------------------------|-----------------------------|
|-----------------------------|-----------------------------|
|-----------------------------|-----------------------------|
|
|
| Gtrs I, II
| PM----------------------------------------------|
| |3| |-3-| |3| |-3-| |3| |-3-| |3| |-3-|
| Q E E E E Q E E E E Q E E E E Q E E E E
|-----------------------------|-----------------------------|
|-----------------------------|-----------------------------|
|-----------------------------|-----------------------------|
|-----------------------------|-----------------------------|
|-----------------------------|-----------------------------|
|-1-1-1-1-1-1-1-1-1-1---------|-1-1-1-1-1-1-1-1-1-1---------|


Gtr III
T T T T T T T T
|-3-| |-3-| |-3-| |-3-| |-3-| |-3-| |-3-| |-3-|
E E E E E E E E E E E E E E E E E E E E E E E E
|-13p9p6-13p9p6-13p9p6-13p9p6-|-13p9p6-13p9p6-13p9p6-13p9p6-|
|-----------------------------|-----------------------------|
|-----------------------------|-----------------------------|
|-----------------------------|-----------------------------|
|-----------------------------|-----------------------------|
|-----------------------------|-----------------------------|
|
|
| Gtrs I, II
| PM----------------------------------------------|
| |3| |-3-| |3| |-3-| |3| |-3-| |3| |-3-|
| Q E E E E Q E E E E Q E E E E Q E E E E
|-----------------------------|-----------------------------|
|-----------------------------|-----------------------------|
|-----------------------------|-----------------------------|
|-----------------------------|-----------------------------|
|-1-1-1-1-1-1-1-1-1-1---------|-1-1-1-1-1-1-1-1-1-1---------|
|-----------------------------|-----------------------------|


Gtr III
T T T T T T T T
|-3-| |-3-| |-3-| |-3-| |-3-| |-3-| |-3-| |-3-|
E E E E E E E E E E E E E E E E E E E E E E E E
|-14p9p6-14p9p6-14p9p6-14p9p6-|-14p9p6-14p9p6-14p9p6-14p9p6-|
|-----------------------------|-----------------------------|
|-----------------------------|-----------------------------|
|-----------------------------|-----------------------------|
|-----------------------------|-----------------------------|
|-----------------------------|-----------------------------|
|
|
| Gtrs I, II
| PM----------------------------------------------|
| |3| |-3-| |3| |-3-| |3| |-3-| |3| |-3-|
| Q E E E E Q E E E E Q E E E E Q E E E E
|-----------------------------|-----------------------------|
|-----------------------------|-----------------------------|
|-----------------------------|-----------------------------|
|-----------------------------|-----------------------------|
|-----------------------------|-----------------------------|
|-2-2-2-2-2-2-2-2-2-2---------|-2-2-2-2-2-2-2-2-2-2---------|


Gtr III
T T T T T T T T
|-3--| |-3--| |-3--| |-3--| |-3--| |-3--| |-3--| |-3-|
E E E E E E E E E E E E E E E E E E E E E Q E
|-14p10p7-14p10p7-14p10p7-14p10p7-|-14p10p7-14p10p7-14p10p7-14/--7-|
|---------------------------------|--------------------------------|
|---------------------------------|--------------------------------|
|---------------------------------|--------------------------------|
|---------------------------------|--------------------------------|
|---------------------------------|--------------------------------|
|
|
| Gtrs I, II
| PM--------------------------------------------------|
| |3| |-3-| |3| |-3-| |3| |-3-| |3| |-3-|
| Q E E E E Q E E E E Q E E E E Q E E E E
|---------------------------------|--------------------------------|
|---------------------------------|--------------------------------|
|---------------------------------|--------------------------------|
|---------------------------------|--------------------------------|
|-2-2-2-2-2-2-2-2-2-2-------------|-2-2-2-2-2-2-2-2-2-2------------|
|---------------------------------|--------------------------------|


Gtr III
|-3-| |-3-| |-3-| |-3-| |-3-| |-3-| |-3-| |-3-|
E E E E E E E E E E E E E E E E E E E E E E E E
|-0h4h7-------0h4h7-------|-0h4h7-------0h4h7-------|
|-------0h4h7-------0h4h7-|-------0h4h7-------0h4h7-|
|-------------------------|-------------------------|
|-------------------------|-------------------------|
|-------------------------|-------------------------|
|-------------------------|-------------------------|
|
|
| Gtrs I, II
| PM--------------------------------------|
| |3| |-3-| |3| |-3-| |3| |-3-| |3| |-3-|
| Q E E E E Q E E E E Q E E E E Q E E E E
|-------------------------|-------------------------|
|-------------------------|-------------------------|
|-------------------------|-------------------------|
|-------------------------|-------------------------|
|-2-2-2-2-2-2-2-2-2-2-----|-2-2-2-2-2-2-2-2-2-2-----|
|-------------------------|-------------------------|


Gtr III
|-3-| |-3-| |-3-| |-3-| |-3-| |-3-| |-3-| |-3-|
E E E E E E E E E E E E E E E E E E E E E E E E
|-------------------------|-------------------------|
|-0h4h7-------0h4h7-------|-0h4h7-------0h4h7-------|
|-------0h4h7-------0h4h7-|-------0h4h7-------0h4h7-|
|-------------------------|-------------------------|
|-------------------------|-------------------------|
|-------------------------|-------------------------|
|
|
| Gtrs I, II
| PM------------------------------------------|
| |3| |-3-| |3| |-3-| |3| |-3-| |3| |-3-|
| Q E E E E Q E E E E Q E E E E Q E E E E
|-------------------------|-------------------------|
|-------------------------|-------------------------|
|-------------------------|-------------------------|
|-------------------------|-------------------------|
|-2-2-2-2-2-2-2-2-2-2-----|-2-2-2-2-2-2-2-2-2-2-----|
|-------------------------|-------------------------|


Gtr III
|-3-| |-3-| |-3-| |-3-| |-3-| |-3-| |-3-| |-3-|
E E E E E E E E E E E E E E E E E E E E E E E E
|-------------------------|-------------------------|
|-------------------------|-------------------------|
|-0h4h7-------0h4h7-------|-0h4h7-------0h4h7-------|
|-------0h4h7-------0h4h7-|-------0h4h7-------0h4h7-|
|-------------------------|-------------------------|
|-------------------------|-------------------------|
|
|
| Gtrs I, II
| PM------------------------------------------|
| |3| |-3-| |3| |-3-| |3| |-3-| |3| |-3-|
| Q E E E E Q E E E E Q E E E E Q E E E E
|-------------------------|-------------------------|
|-------------------------|-------------------------|
|-------------------------|-------------------------|
|-------------------------|-------------------------|
|-2-2-2-2-2-2-2-2-2-2-----|-2-2-2-2-2-2-2-2-2-2-----|
|-------------------------|-------------------------|


Gtr III
|-3-| |-3-| |-3-| |-3-|
E E E E E E E E E E E E Q Q E S S S S S S
|-------------------------|------------------------7-7-|
|-------------------------|----------------7-10-10-----|
|-------------------------|--------------9-------------|
|-0h4h7-------0h4h7-------|----------------------------|
|-------0h4h7-------0h4h7-|-14S=(7)S=(2)---------------|
|-------------------------|----------------------------|
|
|
| Gtrs I, II
| PM------------------------------------------|
| |3| |-3-| |3| |-3-| |3| |-3-| |3| |-3-|
| Q E E E E Q E E E E Q E E E E Q E E E E
|-------------------------|----------------------------|
|-------------------------|----------------------------|
|-------------------------|----------------------------|
|-------------------------|----------------------------|
|-2-2-2-2-2-2-2-2-2-2-----|-2-2-2-2-2-2-2-2-2-2--------|
|-------------------------|----------------------------|


Gtr III
|-3-| |-3-| |-3-|
S S S S S S S S E E E S S S S S S S S S S S S S S S S S S S S S S
|-10-7-7-7-12-7-7-7-10-7-7-12-7-7-7-7-|-10-10-7-7-12-7-7-7-10p9p7-7-7-12p7-7-7-|
|-------------------------------------|----------------------------------------|
|-------------------------------------|----------------------------------------|
|-------------------------------------|----------------------------------------|
|-------------------------------------|----------------------------------------|
|-------------------------------------|----------------------------------------|
|
|
| Gtrs I, II
| PM------------------------------------------------------|
| |3| |-3-| |3| |-3-| |3| |-3-| |3| |-3-|
| Q E E E E Q E E E E Q E E E E Q E E E E
|-------------------------------------|----------------------------------------|
|-------------------------------------|----------------------------------------|
|-------------------------------------|----------------------------------------|
|-------------------------------------|----------------------------------------|
|-------------------------------------|----------------------------------------|
|-0-0-0-0-0-0-0-0-0-0-----------------|-0-0-0-0-0-0-0-0-0-0--------------------|


Gtr III
~~~
|-3-| |-3-| |-3-| |-3-| |-3-| |-3--|
S S S S S E E E S S S S S S E E E +E E E E +E E E E E
|-10p9p7-7-7---7-5-8-6-5-8-6-5-------|------------------------|
|------------------------------6-5-7-|-(7)-5-----------7-7-10-|
|----------------------------------7-|-(7)---7-7-(7)-7--------|
|------------------------------------|------------------------|
|------------------------------------|------------------------|
|------------------------------------|------------------------|
|
|
| Gtrs I, II
| PM-----------------------------------------------------|
| |3| |-3-| |3| |-3-| |3| |-3-| |3| |-3-|
| Q E E E E Q E E E E Q E E E E Q E E E E
|------------------------------------|------------------------|
|------------------------------------|------------------------|
|------------------------------------|------------------------|
|------------------------------------|------------------------|
|------------------------------------|------------------------|
|-0-0-0-0-0-0-0-0-0-0----------------|-0-0-0-0-0-0-0-0-0-0----|


Gtr III
|-3-| |-3-| |-3-|
Q. +E E E E E E E E E E E +E E Q. Q E E E S S E E
|---------------------------|----------------10b12r==|=10--9-7-/9p7-9-7----|
|-10b12r==(10)-10-7---7-----|------------------------|------------------10-|
|-------------------9---9-7-|-9p7---7-(7)/-----------|---------------------|
|---------------------------|-----9------------------|---------------------|
|---------------------------|------------------------|---------------------|
|---------------------------|------------------------|---------------------|
|
|
| Gtrs I, II
| PM---------------------------------------------------------------------|
| |3| |-3-| |3| |-3-| |3| |-3-| |3| |-3-| |3| |-3-| |3| |-3-|
| Q E E E E Q E E E E Q E E E E Q E E E E Q E E E E Q E E E E
|---------------------------|------------------------|---------------------|
|---------------------------|------------------------|---------------------|
|---------------------------|------------------------|---------------------|
|---------------------------|------------------------|---------------------|
|-2-2-2-2-2-2-2-2-2-2-------|-2-2-2-2-2-2-2-2-2-2----|-2-2-2-2-2-2-2-2-2-2-|
|---------------------------|------------------------|---------------------|


Gtr III
\1/
E S S Q H
|---------------------|
|-(10)p8-10-8---------|
|--------------7------|
|---------------------|
|---------------------|
|---------------------|
|
|
| Gtrs I, II
| PM----------------|
| |3| |-3-| |3| |-3-|
| Q E E E E Q E E E E
|---------------------|
|---------------------|
|---------------------|
|---------------------|
|-2-2-2-2-2-2-2-2-2-2-|
|---------------------|


Gtrs I, II
PM----| PM----| PM----|
|3| |-3-| |3| |-3-| |3| |-3-|
Q E E E E Q E E E E Q E E E E Q Q
||----------------------|-------------------|
||o---------------------|-------------------|
||----------------------|-------------------|
||--2---------2---------|-2------------7----|
||o-0-0-0-0-0-0-0-0-0-0-|-0-0-0-0-0-5--5----|
||----------------------|-----------3-------|


Gtrs I, II
PM----| PM----| PM----|
|3| |-3-| |3| |-3-| |3| |-3-|
Q E E E E Q E E E E Q E E E E Q Q
|---------------------|------------------||
|---------------------|-----------------o||
|---------------------|------------------||
|-2---------2---------|-2---------5------||
|-0-0-0-0-0-0-0-0-0-0-|-0-0-0-0-0-3--5--o||
|---------------------|--------------3---||


Gtrs I, II
PM------------------------------|
|3| |-3-| |3| |-3-| |3| |-3-|
Q E E E E Q E E E E Q E E E E E Q.
||----------------------|-------------------|
||o---------------------|-------------------|
||----------------------|-------------------|
||----------------------|-------------7-----|
||o---------------------|-------------5-----|
||--0-0-0-0-0-0-0-0-0-0-|-0-0-0-0-0-0-------|


Gtrs I, II
PM------------------------------|
|3| |-3-| |3| |-3-| |3| |-3-| |-3-|
Q E E E E Q E E E E Q E E E E Q Q Q 4x
|---------------------|------------------||
|---------------------|-----------------o||
|---------------------|------------------||
|---------------------|-------------7-7--||
|---------------------|-------------5-5-o||
|-0-0-0-0-0-0-0-0-0-0-|-0-0-0-0-0-0------||


Gtrs I, II
PM----| PM----| PM----|
|3| |-3-| |3| |-3-| |3| |-3-|
Q E E E E Q E E E E Q E E E E Q Q
||----------------------|-------------------|
||o---------------------|-------------------|
||----------------------|-------------------|
||--2---------2---------|-2------------7----|
||o-0-0-0-0-0-0-0-0-0-0-|-0-0-0-0-0-5--5----|
||----------------------|-----------3-------|


Gtrs I, II
PM----| PM----| PM----|
|3| |-3-| |3| |-3-| |3| |-3-|
Q E E E E Q E E E E Q E E E E Q Q 4x
|---------------------|------------------||
|---------------------|-----------------o||
|---------------------|------------------||
|-2---------2---------|-2---------5------||
|-0-0-0-0-0-0-0-0-0-0-|-0-0-0-0-0-3--5--o||
|---------------------|--------------3---||


Gtrs I, II
PM PM
|-3-| |-3-|
Q Q E Q E E Q E E E E E E E 3x
||---------------|---------------------||
||o--------------|--------------------o||
||---------------|---------------------||
||-----9--7-7----|-7-7-----------------||
||o----7--5-5----|-5-5--------5-7p5---o||
||--0----------0-|------0-5h7-------7--||


Gtrs I, II
Q Q E Q E E Q E Q Q
|--------------|--------------|
|--------------|--------------|
|--------------|--------------|
|----9--7-7----|-7-7----7-----|
|----7--5-5----|-5-5----5--7--|
|-0------------|-----------5--|


Gtrs I, II
PM----| PM| PM--|
E E E E E E E E E E E E +Q Q 6x Q Q Q Q
||------------------|------------------||-------------|
||o-----------------|-----------------o||-------------|
||------------------|------------------||-------------|
||------------------|------------------||-------------|
||o---------5-----7-|-------8-(8)--7--o||-------5--2--|
||--0-0-0-0-3-0-0-5-|-0-0-0-6-(6)--5---||-x--x--3--0--|


Duration Legend
---------------
W - whole;
H - half;
Q - quarter;
E - 8th;
S - 16th;
T - 32nd;
X - 64th; a - acciaccatura
+ - note tied to previous;
. - note dotted;
.. - note double dotted
Uncapitalized letters represent notes that are staccato (1/2 duration)
Irregular groupings are notated above the duration line
Duration letters will always appear directly above the note/fret number it represents the
duration for. Duration letters with no fret number below them represent rests. Multi-
bar rests are notated in the form Wxn, where n is the number of bars to rest for. Low
melody durations appear below the staff

Tablature Legend
----------------
h - hammer-on
p - pull-off
b - bend
pb - pre-bend
r - bend release (if no number after the r, then release immediately)
/\ - slide into or out of (from/to "nowhere")
s - legato slide
S - shift slide
- natural harmonic
[n] - artificial harmonic
n(n) - tapped harmonic
~ - vibrato
tr - trill
T - tap
TP - trem. picking
PM - palm muting
\n/ - tremolo bar dip; n = amount to dip
\n - tremolo bar down
n/ - tremolo bar up
/n\ - tremolo bar inverted dip
= - hold bend; also acts as connecting device for hammers/pulls
- volume swell (louder/softer)
x - on rhythm slash represents muted slash
o - on rhythm slash represents single note slash

Misc Legend
-----------
| - bar
|| - double bar
||o - repeat start
o|| - repeat end
*| - double bar (ending)
: - bar (freetime)
$ - Segno
& - Coda
Tempo markers - = BPM(8/16=s8/s16), where s8 = swing 8ths, s16 = swing 16ths
Song info
Am I Evil
Metallica
2001
  • Rock
  • Heavy Metal
  • Thrash
Alternative tracks
Similar songs
Hit The Ligths - Metallica
Hate Crew Deathroll - Children of Bodom
Flash Of The Blade - Iron Maiden
Hypnotize - System of a down

Hi! Hope you enjoy backing track experience.
If you want to help us in the development of the project, feel free to donate!