One - Metallica
00:00 / 00:00
Tabs and lyrics
Tunning: Standard (E A D G B e)
One
MetallicA
And Justice for all...


[Intro]

Bm Gmaj7(no3rd) Bm Gmaj7(no3rd)
e|--------------|--------------|--------------|-------------------|
B|--------------|--------------|--------------|-------------------|
G|--------------|--------------|--------------|----------------0--|
D|-----4-----0--|-----4-----0--|-----4-----0--|-----4-----0-------|
A|--2-----2-----|--------------|--2-----2-----|-------------------|
E|--------------|--3-----3-----|--------------|--3-----3----------|

D/A Gmaj7(no3rd)
e|--------------|--------------|--------------|-------------------|
B|--------------|--------------|--------------|-------------------|
G|-(0)----------|--------------|--------------|-------------------|
D|-----4-----0--|-----4-----0--|-----4-----0--|-------------------|
A|--2-----2-----|--0-----0-----|--------------|-----2-----2-------|
E|--------------|--------------|--3-----3-----|--0-----2----------|

Bm Gmaj7(no3rd) Bm
e|--------------|--------------|--------------|-------------------|
B|--------------|--------------|--------------|-------------------|
G|*-------------|--------------|--------------|--------------0----|
D|*----4-----0--|-----4-----0--|-----4-----0--|-----4-----0-------|
A|--2-----2-----|--------------|--2-----2-----|-------------------|
E|--------------|--3-----3-----|--------------|--3-----3----------|

D/A Gmaj7(no3rd) [1. N.C ]
e|--------------|--------------|--------------|-------------------|
B|--------------|--------------|--------------|-------------------|
G|--------------|--------------|--------------|------------------*|
D|-----4-----0--|-----4-----0--|-----4-----0--|------------------*|
A|--2-----2-----|--0-----0-----|--------------|-----2-----2-------|
E|--------------|--------------|--3-----3-----|--0-----2----------|

[2. N.C ] Bm Gmaj7(no3rd)
e|---------------------------|----------------------|-----------------------|
B|---------------------------|----------------------|-----------------------|
G|---------------------------|----------------------|-----------------------|
D|---------------------------|-----4-----0--0--4----|-----4-----0--4--4--0--|
A|-----2-----2-----2--2h4--2-|--2-----2-----------0-|-----------------------|
E|--0-----2-----0------------|----------------------|--3-----3--------------|

Bm Gamj7 Bm
e|-----------------------|-----------------------|-----------------------|
B|-----------------------|-----------------------|-----------------------|
G|-----------------------|-----------------------|-----------------------|
D|-----4-----0--0--4-----|-----4-----0--4--4--0--|-----4-----0--0--4--0--|
A|--2-----2-----------0--|-----------------------|--2-----2--------------|
E|-----------------------|--3-----3--------------|-----------------------|

D/A Gamj7 (Em)
e|-----------------------|-----------------------|-------------------|
B|-----------------------|-----------------------|-------------------|
G|--------------------0--|-(0)-------------------|-------------------|
D|-----4-----0--4--4-----|-----4-----0--0--4--0--|-----2h4--2--------|
A|--0-----0--------------|-----------------------|----------------4--|
E|-----------------------|--3-----3--------------|--0----------2-----|

G5 A5 (D) Riff A (G)
e|-----------------------|-----------------------|------------------------|
B|-----------------------|-----------------------|-----0h3p0----0h3p0-----|
G|-----------------------|*--------0--7-----0----|------------4--------0--|
D|---------0-------------|*-----7--------7-------|--5---------------------|
A|-----5------------7----|---5-------------------|------------------------|
E|--3---------3--5-------|-----------------------|------------------------|

(F) [1. (Em) ] [2.(Em) N.C end Riff A
e|--------1--------|--------------0------|------------------|
B|-----------1-----|-----------0-----0---|-----0------------|
G|-----0--------0--|-----4--0-----------*|--------0--4------|
D|--3--------------|--2-----------------*|--2---------------|
A|-----------------|---------------------|-------------/3---|
E|-----------------|---------------------|------------------|


[Solo]

e|-----------------------|------------------------------|--------------------|
B|-----------------------|-----3p2-----3p2---------3----|-3p2----------------|
G|---------2---4b6b4-----|---------4-------2------------|-----4--------------|
D|-----2h4---------------|------------------------------|--------------------|
A|-----------------------|------------------------------|--------------------|
E|-----------------------|------------------------------|--------------------|

e|----------------------------------|----------------------------|
B|-----7\5---5\4---4\2---2p0--------|------------------------2h3-|
G|---------7-----------4-----0h2----|-2/4--------------2/4-------|
D|----------------------------------|----------------------------|
A|----------------------------------|----------------------------|
E|----------------------------------|----------------------------|

e|---------------------------|-------------------------|-------------|
B|-2-------------2---3p2-----|-------------------------|-------------|
G|---------2/4-----------2---|-2/4---------------------|-------------|
D|---------------------------|-------------------------|-------------|
A|---------------------------|-------------------------|-------------|
E|---------------------------|-------------------------|-------------|

e|------------------14---19----|-17-15-14-15--------------------|
B|------------------x----------|-------------15-----------------|
G|------------------x----------|--------------------------------|
D|------------------x----------|--------------------------------|
A|-----------------------------|--------------------------------|
E|-----------------------------|--------------------------------|

e|--------------------------------|---------------------------------|
B|--------------------------------|---------------------------------|
G|-----7p6-7-----9p7-9-------11p9-|-11----11/12---12---11-----------|
D|--------------------------------|---------------------------------|
A|--------------------------------|---------------------------------|
E|--------------------------------|---------------------------------|

e|---------------------------------------------|----------------12-----|
B|----------------------------------12---------|----12-14---15---------|
G|-----------11-12-14---------11-12------------|-11--------------------|
D|--------12---------------12---------------12-|-----------------------|
A|-----14---------------14---------------14----|-----------------------|
E|---------------------------------------------|-----------------------|

e|-----------------------|------------------------------|
B|---15---14---12---14---|-14-----15-12-----------------|
G|-----------------------|------------------------------|
D|-----------------------|------------------------------|
A|-----------------------|------------------------------|
E|-----------------------|------------------------------|


[ Now play the verses with both Rhy. Fig.'s simultaneously for the verses. ]
[ (Rhy. Fig. 1 changes slightly, where you play the open 3rd string at the ]
[ end of the 1st line of tab. Simply leave that note out. Where it is in ]
[ the verses, a slide is done on the bottom 2 strings from the 3rd to 5th ]
[ fret {3/5}). ]


[Lyrics]

Bm Gmaj7(no3rd) Bm Gmaj7(no3rd)
I can't remember anything can't tell if this is true or dream
Bm D/A Gmaj7(no 3rd) N.C.
deep down inside I feel to scream this terrible silence stops me
Bm Gmaj7(no3rd) Bm Gmaj7(no3rd)
Now that the war is through with me, I'm waking up I can not see
Bm D/A Gmaj7(no 3rd) N.C.
that there's not much lef to to me. Nothing is real but pain now!


[Chorus]

G5 A5 B5 A5 G5 F#5 B5 A5
Hold my breath as I wish for death
B5 C#5 B5 A5 (5th string:)-3---4----5---
Oh,please God wake me!

[ One guitar holds that last note forever. The other plays Riff A twice ]
[ (1st ending, 2nd ending). ]

Bm Gmaj7(no3rd) Bm Gmaj7(no3rd)
Back in the womb it's much to real in pumps life that I must feel
Bm D/A Gmaj7(no 3rd) N.C.
But can't look forward to reveal look to the time when I'll live
Bm Gmaj7(no3rd) Bm Gmaj7(no3rd)
Fed thourgh the tube that sticks in me just like a wartime novelty
Bm D/A Gmaj7(no 3rd) N.C.
tied to machines that make me be cut this life off from me

G5 A5 B5 A5 G5 F#5 B5 A5
Hold my breath as I wish for death
B5 C#5 B5 A5 (5th string:)-3---4----5---
Oh,please God wake me!


[Classical solo]

e|----------------------------|----------------------|----------------------|
B|-------------10p7-----7-----|-10-----10---8---7----|-7h8p7----------------|
G|------------------7---------|--------------------9-|--------7-------------|
D|----------------------------|----------------------|----------------------|
A|-(5)------------------------|----------------------|----------------------|
E|----------------------------|----------------------|----------------------|

e|-/10-8-7-----7---8-|---------17p14-----14-|-17---17-15--14---15p14--------|
B|---------10--------|-8~~~~~---------15----|-------------------------------|
G|-------------------|----------------------|-------------------------------|
D|-------------------|----------------------|-------------------------------|
A|-------------------|----------------------|-------------------------------|
E|-------------------|----------------------|-------------------------------|

e|------------------15--17--|--19p17p15-19p17p15-19p17p15-14-15----14-------|
B|-15------15--19-----------|-----------------------------------17----15----|
G|--------------------------|-----------------------------------------------|
D|--------------------------|-----------------------------------------------|
A|--------------------------|-----------------------------------------------|
E|--------------------------|-----------------------------------------------|

e|------|-------------------------------|-----------------------------------|
B|------|-/8---8--8\7-------------------|-/13----13---13---13---12----------|
G|------|-/7---7--7----7----------------|-/12----12---12---12---12----------|
D|------|-------------------------------|-----------------------------------|
A|------|-------------------------------|-----------------------------------|
E|------|-------------------------------|-----------------------------------|

T T T T T T
e|---20p17p13---20p17p13---20p17p13---20p17p13---20p17p13---20p17p13--------|
B|--------------------------------------------------------------------------|
G|--------------------------------------------------------------------------|
D|--------------------------------------------------------------------------|
A|--------------------------------------------------------------------------|
E|--------------------------------------------------------------------------|

T T
e|---20p12h13p12---20p12h13p12-|
B|-----------------------------|
G|-----------------------------|
D|-----------------------------|
A|-----------------------------|
E|-----------------------------|

G5 A5 B5 A5 G5 F#5 B5
Now the world is gone I'm just one.
A5 B5 C#5 B5 A5 B5 C#5
Oh God help me!

G5 -A5-B5 -A5-G5-F#5 -B5 -A5-B5-C#5-B5-A5-B5-C#5
Hold my breath as I wish for death. Oh,please God wake

G5-A5-B5-A5-G5-F#5-B5
me!

Am G B C
e|-------------|----------------|-------------|------------|
B|-------------|----------------|-------------|------------|
G|-------------|----------------|-4-----4-----|---5-----5--|x4
D|--2--0--2--0-|-----5--5--5--5-|-4-----4-----|---5-----5--|
A|--3--2--3--0-|--2--5--5--5--5-|-2-----2-----|---3-----3--|
E|-------------|--3--3--3--3--3-|----2-----2--|------3-----|

C/E D B5 C5
e|-------------------|----------------|---------------|---------------------|
B|-------------------|----------------|---------------|---------------------|
G|-------------------|----------------|---4-----4-----|-5--5-5--------5-----|
D|--5--5--5--7--5----|-4--4--4--5--4\-|---4-----4-----|-5--5-5--5-----5-----|
A|--7--7--7--7--7--5-|-5--5--5--5--5\-|---2-----2-----|-3--3-3--3-----3-----|
E|-------------------|----------------|------2-----2--|------------3-----3--|
Play twice

e|---------------|-----------------|------------------------------------|
B|---------------|-----------------|------------------------------------|
G|---------------|-----------------|------------------------------------|
D|--5------(5)---|--------------2--|--------------2-(2)-------------2-3-|
A|--7------(7)---|--------------2--|--------------2-(2)-------------2-3-|
E|--0------(0)---|--0-0-0-0-0-0-0--|--0-0-0-0-0-0-------0-0-0-0-0-0-----|
Play 4 times Play 4 times

e|--------------------------------|-----------------------------------|
B|--------------------------------|-----------------------------------|
G|--------------------------------|-----------------------------------|
D|--------------------------------|------------------------------2-3--|
A|--------------2---------------2-|--------------2---------------2-3--|
E|--0-0-0-0-0-0-0---0-0-0-0-0-0-0-|--0-0-0-0-0-0-0---0-0-0-0-0-0------|
Dark-ness imprisoning me all that I see absolute hor-ror
I can-not live I can-not die Trapped in my-self body my holdind cell!

e|------------------------------------|------------------------------------|
B|------------------------------------|------------------------------------|
G|------------------------------------|------------------------------------|
D|------------------------------------|------------------------------------|
A|--------------7-(7)-------------7-8-|-------------5-(5)-------------5/8--|
E|--0-0-0-0-0-0-------0-0-0-0-0-0-----|-0-0-0-0-0-0-------0-0-0-0-0-0------|

e|------------------------------------|------------------------------------|
B|------------------------------------|------------------------------------|
G|------------------------------------|------------------------------------|
D|------------------------------------|------------------------------------|
A|--------------7-(7)-------------7-8-|-------------5-(5)-------------5----|
E|--0-0-0-0-0-0-------0-0-0-0-0-0-----|-0-0-0-0-0-0-------0-0-0-0-0-0---7--|

e|---------------------------------|-----------------------------------|
B|---------------------------------|-----------------------------------|
G|---------------------------------|-----------------------------------|
D|---------------------------------|------------------------------2-3--|
A|--------------2---------------2--|--------------2---------------2-3--|
E|--0-0-0-0-0-0-0---0-0-0-0-0-0-0--|--0-0-0-0-0-0-0---0-0-0-0-0-0------|
Land-mine has taken my sight taken my speech taken my hear-ing
Taken my arms taken my legs taken my soul left me with life in

Double-time
e|-----------------------------------------|
B|-----------------------------------------|
G|-----------------------------------------|
D|--------------2--------------2--------3--|
A|--------------2--------------2--------3--|
E|--0-0-0-0-0-0----0-0-0-0-0-0----0-0-0----|
hell!_____________


[Riff C]

E5 F5
e|-------------------------|--------------------|
B|-------------------------|--------------------|
G|-------------------------|--------------------|x4
D|---------------2---------|--------2--------3--|
A|---------------2---------|--------2--------3--|
E|--0-0-0-0-0-0-----0-0-0--|--0-0-0----0-0-0----|


[Main solo]

T T T T T T T T
E|-19p15p12--19p15p12-19p15p12-19p15p12-19p15p12-19p15p12-19p15p12-19p15p12-|
B|--------------------------------------------------------------------------|
G|--------------------------------------------------------------------------|
D|--------------------------------------------------------------------------|
A|--------------------------------------------------------------------------|
E|--------------------------------------------------------------------------|

T T T T T T T T
E|-20p15p12--20p15p12-20p15p12-20p15p12-20p15p12-20p15p12-20p15p12-20p15p12-|
B|--------------------------------------------------------------------------|
G|--------------------------------------------------------------------------|
D|--------------------------------------------------------------------------|
A|--------------------------------------------------------------------------|
E|--------------------------------------------------------------------------|

T T T T T T T T
E|--------------------------------------------------------------------------|
B|-19p15p12--19p15p12-19p15p12-19p15p12-19p15p12-19p15p12-19p15p12-19p15p12-|
G|--------------------------------------------------------------------------|
D|--------------------------------------------------------------------------|
A|--------------------------------------------------------------------------|
E|--------------------------------------------------------------------------|

T T T T T T T T
E|--------------------------------------------------------------------------|
B|-20p15p12--20p15p12-20p15p12-20p15p12-20p15p12-20p15p12-20p15p12-20p15p12-|
G|--------------------------------------------------------------------------|
D|--------------------------------------------------------------------------|
A|--------------------------------------------------------------------------|
E|--------------------------------------------------------------------------|

T T T T T T T T
E|--------------------------------------------------------------------------|
B|-17p13p10--17p13p10-17p13p10-17p13p10-17p13p10-17p13p10-17p13p10-17p13p10-|
G|--------------------------------------------------------------------------|
D|--------------------------------------------------------------------------|
A|--------------------------------------------------------------------------|
E|--------------------------------------------------------------------------|

T T T T T T T T
E|--------------------------------------------------------------------------|
B|-18p13p10--18p13p10-18p13p10-18p13p10-18p13p10-18p13p10-18p13p10-18p13p10-|
G|--------------------------------------------------------------------------|
D|--------------------------------------------------------------------------|
A|--------------------------------------------------------------------------|
E|--------------------------------------------------------------------------|

T T T T T T T T T T T T
E|---------------------------------------|----------------------------------|
B|-17p12h14-17p12-17p10-17p12-17p10-17p8-|-17p10-17p8-17p7-17p8-17p7-17p5---|
G|---------------------------------------|----------------------------------|
D|---------------------------------------|----------------------------------|
A|---------------------------------------|----------------------------------|
E|---------------------------------------|----------------------------------|

E|------------------------------14-14-14-|-15-15-15--17-17-17----------------
B|-/12-12-12--12-12-12--12--12-----------|---------------------15-15-15------
G|---------------------------------------|-----------------------------------
D|---------------------------------------|-----------------------------------
A|---------------------------------------|-----------------------------------
E|---------------------------------------|-----------------------------------

E|-17-17-17-17-|-22^24-------22^24----22^24~|~~~~~~~~\---------------15-----|
B|-------------|----------------------------|--------------/17--------------|
G|-------------|----------------------------|-------------------------------|
D|-------------|----------------------------|-------------------------------|
A|-------------|----------------------------|-------------------------------|
E|-------------|----------------------------|-------------------------------|

E|-17p15---------------15h17p15-------------|-15h17p15-------------15h17p15--
B|--------17-15-17-19-----------17-15-17-19-|----------17-15-17-19-----------
G|------------------------------------------|--------------------------------
D|------------------------------------------|--------------------------------
A|------------------------------------------|--------------------------------
E|------------------------------------------|--------------------------------

E|-----------15-|-17p15------------15-17p15---------15h17----|
B|-17-17-19-----|--------15-17-19------------17--15----------|
G|--------------|--------------------------------------------|
D|--------------|--------------------------------------------|
A|--------------|--------------------------------------------|
E|--------------|--------------------------------------------|

E|-19p17p15-----19p17p15-----19p17p15------19p17p15----------|
B|----------15-----------15------------15------------15------|
G|-----------------------------------------------------------|
D|-----------------------------------------------------------|
A|-----------------------------------------------------------|
E|-----------------------------------------------------------|

E|-19p17--------19p17--------19p17---------19p17p15----------|
B|----------15-----------15------------15--------------------|
G|-----------------------------------------------------------|
D|-----------------------------------------------------------|
A|-----------------------------------------------------------|
E|-----------------------------------------------------------|

E|-------15-------15-------15-------15-|-18^19-15-------15-18^19-15-------15-|
B|-18^20----18^20----18^20----18^20----|----------18^20-------------18^20----|
G|-------------------------------------|-------------------------------------|
D|-------------------------------------|-------------------------------------|
A|-------------------------------------|-------------------------------------|
E|-------------------------------------|-------------------------------------|

E|-19p17p15-17----17p15----15----------|-------------------------------------|
B|----------------------19-------------|-19p17p15-17-----15h17p15\13--15-----|
G|-------------------------------------|-------------------------------------|
D|-------------------------------------|-------------------------------------|
A|-------------------------------------|-------------------------------------|
E|-------------------------------------|-------------------------------------|

E|------------------------------------------|--------------------------------|
B|-13h15p13\12--13-----12h13p12----12-------|--------------------------------|
G|------------------------------14----14p12-|-14p12----12----12--14^-14^-14^-|
D|------------------------------------------|-------14----14-----------------|
A|------------------------------------------|--------------------------------|
E|------------------------------------------|--------------------------------|

E|----------------------------|---------------------|------------------------|
B|----------------------------|---------------------|------------------------|
G|-14^16-14^16-----v14p12-----|-12-----12-----------|------------------------|
D|-------------------------14-|----14------14-13-12-|------------------------|
A|----------------------------|---------------------|-14-13-12-10~~~~~-------|
E|----------------------------|---------------------|------------------------|

E|---------------------------|---------------------------|-------------------|
B|---------15^----------15^--|---------15^----------15^--|-17^-v-^-v-^-17^v^-|
G|---------15^----------15^--|---------15^----------15^--|-17^-v---v-^-17^v^-|
D|-17--17--------17--17------|-17--17--------17--17------|-------------------|
A|---------------------------|---------------------------|-------------------|
E|---------------------------|---------------------------|-------------------|

E|---------------------|------------------------|----------------------------|
B|-v(17)-^-v--15----15-|--------15^---------15^-|-17-----17-----15^-------15-|
G|-v(17)-^-v--15----15-|--------15^---------15^-|-17-----17-----15^----------|
D|---------------17----|-17--17------17--17-----|----------------------------|
A|---------------------|------------------------|----------------------------|
E|---------------------|------------------------|----------------------------|

E|-------15--------15--------15--------15-|-------15--------15--------------||
B|-18^20-----18^20-----18^20-----18^20----|-18^20-----18^20-----18^20~~~~~~-||
G|----------------------------------------|---------------------------------||
D|----------------------------------------|---------------------------------||
A|----------------------------------------|---------------------------------||
E|----------------------------------------|---------------------------------||

E|------------------------------------|------------------------------------|
B|------------------------------------|------------------------------------|
G|------------------------------------|------------------------------------|
D|------------------------------------|------------------------------------|
A|---------------------------5-5-5----|-5-5-5----4-4-4---3-3-3---2-2-2-----|
E|-3-3-3--3-3-3--3--------------------|------------------------------------|


[Riff C]

E5 F5
E|------------------------|--------------------|
B|------------------------|--------------------|
G|------------------------|--------------------|x9
D|--------------2---------|--------2--------3--|
A|--------------2---------|--------2--------3--|
E|-0-0-0-0-0-0-----0-0-0--|--0-0-0----0-0-0----|

E|------------------------------------|------------------------------------|
B|------------------------------------|------------------------------------|
G|------------------------------------|------------------------------------|
D|------------------------------------|------------------------------------|
A|---------------------------5-5-5----|-5-5-5----4-4-4---3-3-3---2-2-2-----|
E|-0-0-0--0-0-0--0--------------------|------------------------------------|

E|-----------------------5--5--5------|------------------7--7--7--5--------|
B|-8--8--8--7^-----------7--7--7------|--8^--------5-----8--8--8--7--------|
G|-9--9--9--7^----7-------------------|--8^--------------------------------|
D|----------------9-------------------|------------9-----------------------|
A|------------------------------------|------------------------------------|
E|------------------------------------|------------------------------------|

E|-7--5-----5-------5-----------------|------------------------------------|
B|-8--7--8--7-------7--8--7--8--------|-8--7--5--7--------7--5-----5-------|
G|-------9-------------9--7--9--------|-9--7--6--7--------7--6--7--6-------|
D|------------------------------------|-------------------------9----------|
A|------------------------------------|------------------------------------|
E|------------------------------------|------------------------------------|

E|-----------------------5--5--5------|------------------7--7--7--5--------|
B|-8--8--8--7^-----------7--7--7------|--8^--------5-----8--8--8--7--------|
G|-9--9--9--7^----7-------------------|--8^--------------------------------|
D|----------------9-------------------|------------9-----------------------|
A|------------------------------------|------------------------------------|
E|------------------------------------|------------------------------------|

E|-7--5-----5-------5-----------------|-8--7--5--7--------7--5-----5-------|
B|-8--7--8--7-------7--8--7--8--------|-10-8--7--8--------8--7--8--7-------|
G|-------9-------------9--7--9--------|-------------------------9----------|
D|------------------------------------|------------------------------------|
A|------------------------------------|------------------------------------|
E|------------------------------------|------------------------------------|

E|-----------------------5--5--5------|------------------7--7--7--5--------|
B|-8--8--8--7^-----------7--7--7------|--8^--------5-----8--8--8--7--------|
G|-9--9--9--7^----7-------------------|--8^--------------------------------|
D|----------------9-------------------|------------9-----------------------|
A|------------------------------------|------------------------------------|
E|------------------------------------|------------------------------------|

E|-7--5-----5-------5-----------------|------------------------------------|
B|-8--7--8--7-------7--8--7--8--------|-8--7--5--7--------7--5-----5-------|
G|-------9-------------9--7--9--------|-9--7--6--7--------7--6--7--6-------|
D|------------------------------------|-------------------------9----------|
A|------------------------------------|------------------------------------|
E|------------------------------------|------------------------------------|

E|-----------------------5--5--5------|------------------7--7--7--5--------|
B|-8--8--8--7^-----------7--7--7------|--8^--------5-----8--8--8--7--------|
G|-9--9--9--7^----7-------------------|--8^--------------------------------|
D|----------------9-------------------|------------9-----------------------|
A|------------------------------------|------------------------------------|
E|------------------------------------|------------------------------------|

E|-7--5-----5-------5-----------------|------------------------------------|
B|-8--7--8--7-------7--8--7--8--------|-8--7--5--7--------7--5-----5-------|
G|-------9-------------9--7--9--------|-9--7--6--7--------7--6--7--6-------|
D|------------------------------------|-------------------------9----------|
A|------------------------------------|------------------------------------|
E|------------------------------------|------------------------------------|

E|------------------------------------|------------------------------------|
B|-5----------------------------------|------------------------------------|
G|-6--7--6--7-------7--6--4--6--------|-6--4--2--4--------4--2--0--2-------|
D|----9--7--9-------9--7--5--7--------|-7--5--4--5--------4--2--0--2-------|
A|------------------------------------|------------------------------------|
E|------------------------------------|------------------------------------|


[Riff C]

E5 F5
e|-------------------------|--------------------|
B|-------------------------|--------------------|
G|-------------------------|--------------------|x4
D|---------------2---------|--------2--------3--|
A|---------------2---------|--------2--------3--|
E|--0-0-0-0-0-0-----0-0-0--|--0-0-0----0-0-0----|

G5
e|-------------------------|--------------------|
B|-------------------------|--------------------|
G|-------------------------|--------------------|
D|-------------5--------5--|--------5--------5--|
A|-------------5--------5--|--------5--------5--|
E|--3-----3----3--3--3--3--|--3--3--3--3--3--3--|

E5 F5
e|-------------------------|--------------------|
B|-------------------------|--------------------|
G|-------------------------|--------------------|
D|---------------2---------|--------2--------3--|
A|---------------2---------|--------2--------3--|
E|--0-0-0-0-0-0-----0-0-0--|--0-0-0----0-0-0----|

G5
e|-------------------------|--------------------|
B|-------------------------|--------------------|
G|-------------------------|--------------------|
D|-------------5--------5--|--------5--------5--|
A|-------------5--------5--|--------5--------5--|
E|--3-----3----3--3--3--3--|--3--3--3--3--3--3--|

E5 F5
e|-------------------------|--------------------|
B|-------------------------|--------------------|
G|-------------------------|--------------------|x3
D|---------------2------2--|--------3--------3--|
A|---------------2------2--|--------3--------3--|
E|--0-0-0-0-0-0---------0--|--1--1--1--1--1--1--|

E5 G5
e|-------------------------|--------------------|--------------------|
B|-------------------------|--------------------|--------------------|
G|-------------------------|--------------------|--------------------|
D|---------------2------2--|--------5--------5--|--------5--------5--|
A|---------------2------2--|--------5--------5--|--------5--------5--|
E|--0-0-0-0-0-0---------0--|--3--3--3--3--3--3--|--3--3--3--3--3--3--|

E5 F5
e|-------------------------|--------------------|
B|-------------------------|--------------------|
G|-------------------------|--------------------|
D|---------------2---------|--------2--------3--|
A|---------------2---------|--------2--------3--|
E|--0-0-0-0-0-0-----0-0-0--|--0-0-0----0-0-0----|

E5
E|------------------------------------|-----------------------------------||
B|------------------------------------|-----------------------------------||
G|------------------------------------|-----------------------------------||
D|--2-2-2--2-2-2--2------------2-2-2--|--2-2-2--2-------------------------||
A|--2-2-2--2-2-2--2------------2-2-2--|--2-2-2--2-------------------------||
E|--0-0-0--0-0-0--0------------0-0-0--|--0-0-0--0-------------------------||


***********************************
| / Slide up
| \ Slide down
| h Hummer-on
| p Pull-off
| ~ Vibrato
| x Dead note
| b Bend
| ^ Bend 1 fret up
| v Release 1 fret
| T Tapping
|(n) Ghost note
***********************************
Tunning: Standard (E A D G B e)
[Intro solo]

e|---------------------------------------------------------------------------|
B|---------------------------------------------------------------------------|
G|------------------------------------------------------------------------0--|
D|----4-----0--(0)------4-----0--(0)-------4-----0--(0)------4-----0--(0)----|
A|-2-----2------------------------------2-----2------------------------------|
E|-------------------3-----3------------------------------3-----3------------|

e|--------------------------------------------------------------------|
B|--------------------------------------------------------------------|
G|--------------------------------------------------------------------|
D|----4------0--(0)------4-----0--(0)------4-----0--(0)---------------|
A|-2-----2------------0-----0--------------------------------2-----2--|
E|--------------------------------------3-----3-----------0-----2-----|

e|--------------------------------------------|
B|-----------------3p2-----3p2-----3-3p2------|
G|------2-4b6br4~-------4-------2---------4~--|
D|-2h4----------------------------------------|
A|--------------------------------------------|
E|--------------------------------------------|

e|--------------------------------------------------------------------|
B|----------------------------------------2h3-2~------2-3p2-----------|
G|-11p9\7--9p7\6--7p6\4--6p4\2--/4~~---/4----------/4-------2-/4~~----|
D|--------------------------------------------------------------------|
A|--------------------------------------------------------------------|
E|--------------------------------------------------------------------|

e|-----14-19--17p15----15------|
B|---15-------------19----15~--|
G|-16--------------------------|
D|-----------------------------|
A|-----------------------------|
E|-----------------------------|

e|-----------------------------------|
B|-----------------------------------|
G|-7p6-7--9p7-9--11p9-11--/12-12-11--|
D|-----------------------------------|
A|-----------------------------------|
E|-----------------------------------|
end solo
e|-----------------------------------------------------------------------|
B|------------------------12--------12-14-15-/17-15-14-12-14-14--15-12~--|
G|-----11-12-14------11-12--------11-------------------------------------|
D|---12------------12-----------12---------------------------------------|
A|-14------------14-----------14-----------------------------------------|
E|-----------------------------------------------------------------------|


e|-------------------------|
B|-------------------------|
G|-------------------------|
D|-------------------------|
A|----2-----2-----2-2h4-2--|
E|-0-----2-----0-----------|

e|----------------------------------------|
B|----------------------------------------|
G|----------------------------------------|
D|----4-----0-0-4--0------4-----0--4-4-0--| x2
A|-2-----2--------------------------------|
E|---------------------3-----3------------|

e|-----------------------------------------------------------|
B|-----------------------------------------------------------|
G|------------------------------------0----------------------|
D|----4-----0-0-4--0-----4-----0--4-4--------4-----0-0-4--0--|
A|-2-----2------------0-----0--------------------------------|
E|----------------------------------------3-----3------------|

e|-----------------------------------|
B|-----------------------------------|
G|-----------------------------------|
D|----2h4~-2---------------0---------|
A|---------------4------5---------7--|
E|-0----------2------3--------3-5----|

e|------------------------------------------|
B|-------------------------0h3p0---0h3p0----|
G|-------0-7-----0------4--------4-------0--|
D|----7-------7------5----------------------|
A|-5----------------------------------------|
E|------------------------------------------|

e|-------------------------0----|
B|-----------------------0---0--|
G|------0-10----0------0--------|
D|---10------10------9----------|
A|-8---------------7------------|
E|------------------------------|

e|------------------------------------------|
B|-------------------------0h3p0---0h3p0----|
G|-------0-7-----0------4--------4-------0--|
D|----7-------7------5----------------------|
A|-5----------------------------------------|
E|------------------------------------------|

e|------------------------------|
B|-----------------------0------|
G|------0-10----0------0--------|
D|---10------10------9----------|
A|-8---------------7--------/3--|
E|------------------------------|


[Verse]

e|---------------------------------------------------------------------------|
B|---------------------------------------------------------------------------|
G|---------------------------------------------------------------------------|
D|----4-----0-0-4--0-----4-----0--4-4-0-----4-----0-0-4--0-----4-----0-------|
A|-2-----2-------------------------------2-----2-------------------------/5--|
E|--------------------3-----3-------------------------------3-----3------/5--|

e|------------------------------------------------------------------------|
B|------------------------------------------------------------------------|
G|------------------------------------0-----------------------------------|
D|----4-----0-0-4--0-----4-----0--4-4--------4-----0-0-4--0---------------| x2
A|-2-----2------------0-----0------------------------------------2-----2--|
E|----------------------------------------3-----3-------------0-----2-----|


[Chorus]

e|--------------------------------------|
B|--------------------------------------|
G|--------------------------------------|
D|-----2-4-2-------4-2--4-6-4-2---------|
A|-5---0-2-0-5--4--2-0--2-4-2-0--3~-4~--|
E|-3---------3--2-----------------------|

e|------------------------------------------|
B|-------------------------0h3p0---0h3p0----|
G|-------0-7-----0------4--------4-------0--|
D|----7-------7------5----------------------|
A|-5----------------------------------------|
E|------------------------------------------|

e|-------------------------0----|
B|-----------------------0---0--|
G|------0-10----0------0--------|
D|---10------10------9----------|
A|-8---------------7------------|
E|------------------------------|

e|------------------------------------------|
B|-------------------------0h3p0---0h3p0----|
G|-------0-7-----0------4--------4-------0--|
D|----7-------7------5----------------------|
A|-5----------------------------------------|
E|------------------------------------------|

e|------------------------------|
B|-----------------------0------|
G|------0-10----0------0--------|
D|---10------10------9----------|
A|-8---------------7--------/3--|
E|------------------------------|


[Verse]

e|---------------------------------------------------------------------------|
B|---------------------------------------------------------------------------|
G|---------------------------------------------------------------------------|
D|----4-----0-0-4--0-----4-----0--4-4-0-----4-----0-0-4--0-----4-----0-------|
A|-2-----2-------------------------------2-----2-------------------------/5--|
E|--------------------3-----3-------------------------------3-----3------/5--|

e|------------------------------------------------------------------------|
B|------------------------------------------------------------------------|
G|------------------------------------0-----------------------------------|
D|----4-----0-0-4--0-----4-----0--4-4--------4-----0-0-4--0---------------| x2
A|-2-----2------------0-----0------------------------------------2-----2--|
E|----------------------------------------3-----3-------------0-----2-----|


[Chorus]

e|--------------------------------------|
B|--------------------------------------|
G|--------------------------------------|
D|-----2-4-2-------4-2--4-6-4-2---------|
A|-5---0-2-0-5--4--2-0--2-4-2-0--3~-4~--|
E|-3---------3--2-----------------------|

e|------------------------------------------|
B|-------------------------0h3p0---0h3p0----|
G|-------0-7-----0------4--------4-------0--|
D|----7-------7------5----------------------|
A|-5----------------------------------------|
E|------------------------------------------|

e|-----------------------------------|
B|-----------------------0-10p7---7--|
G|------0-10----0------0--------7----|
D|---10------10------9---------------|
A|-8---------------7-----------------|
E|-----------------------------------|


[Solo]

e|---------------------------------------------------|
B|-10~--10-8-7---7--h8p7-----/15-13-12----12-13------|
G|-------------9---------7~~-----------14-------12~--|
D|---------------------------------------------------|
A|---------------------------------------------------|
E|---------------------------------------------------|

e|-17p14----14-17--17-15-14-15p14--------14-15-17-19p17p15-19p17p15-19p17p15--|
B|-------15-----------------------15--15--------------------------------------|
G|----------------------------------------------------------------------------|
D|----------------------------------------------------------------------------|
A|----------------------------------------------------------------------------|
E|----------------------------------------------------------------------------|

e|----15-------------|
B|-19----17-19-15~~--|
G|-------------------|
D|-------------------|
A|-------------------|
E|-------------------|

e|-----------------------------|
B|-/8--8-8-7--/13-13-13-13-12--|
G|-/7--7-7-7--/12-12-12-12-12--|
D|-----------------------------|
A|-----------------------------|
E|-----------------------------|

e|-t20p17p13-t20p17p13-t20p17p13-t20p17p13-t20p17p13-t20p17p13--|
B|--------------------------------------------------------------|
G|--------------------------------------------------------------|
D|--------------------------------------------------------------|
A|--------------------------------------------------------------|
E|--------------------------------------------------------------|

end solo
e|-(t20)p12h13p12~--(t20)p12h13p12~~--|
B|------------------------------------|
G|------------------------------------|
D|------------------------------------|
A|------------------------------------|
E|------------------------------------|


[Chorus]

e|-------------------------------------|
B|-------------------------------------|
G|-------------------------------------|
D|-----2-4-2-------4-2--4-6-4-2--4--6--| x2
A|-5---0-2-0-5--4--2-0--2-4-2-0--2--4--|
E|-3---------3--2----------------------|

e|--------------------|
B|--------------------|
G|--------------------|
D|-----2-4-2-------4--|
A|-5---0-2-0-5--4--2--|
E|-3---------3--2-----|

e|----------------------------------------|
B|----------------------------------------|
G|-9----7--9/12--12--------4----4-4--5----|
D|----------------------------------------|
A|-7----5--7/10--10--------2----2-2--3----|
E|----------------------------------------|

e|---------------------------------------|
B|---------------------------------------|
G|-9----7--9/12--12--------8---8-8--9----|
D|---------------------------------------|
A|-7----5--7/10--10--------6---6-6--7----|
E|---------------------------------------|

e|----------------------------------------|
B|----------------------------------------|
G|-9----7--9/12--12--------4----4-4--5----|
D|----------------------------------------|
A|-7----5--7/10--10--------2----2-2--3----|
E|----------------------------------------|

e|------------------------------------------|
B|------------------------------------------|
G|-9----7--9/12--12-------11---11-11--12----|
D|------------------------------------------|
A|-7----5--7/10--10--------9----9--9--10----|
E|------------------------------------------|

e|-------------------------|
B|-------------------------|
G|-------------------------|
D|-5-5-5-7-5---4-4-4-5-4\--|
A|-7-7-7-7-7-5-5-5-5-5-5\--|
E|-------------------------|

e|-------------------------|
B|-------------------------|
G|-4------4----5------5----|
D|-4------4----5------5----|
A|-2------2----3------3----|
E|-----2----2------3----3--|

e|-------------------------|
B|-------------------------|
G|-------------------------|
D|-5-5-5-7-5---4-4-4-5-4\--|
A|-7-7-7-7-7-5-5-5-5-5-5\--|
E|-------------------------|

e|------------------------------|
B|------------------------------|
G|-4------4----5------5----5----|
D|-4------4----5--5-5-5----5----|
A|-2------2----3--3-3-3----3----|
E|-----2----2------------3---3--|

e|----------|
B|----------|
G|----------|
D|-5--------|
A|-3--------|
E|-0--------|

e|-------------------------------------------------------------|
B|-------------------------------------------------------------|
G|-------------------------------------------------------------|
D|-------------2--------------2--------------2--------------2--|
A|-------------2--------------2--------------2--------------2--|
E|-0-0-0-0-0-0----0-0-0-0-0-0----0-0-0-0-0-0----0-0-0-0-0-0----|

e|---------------------------------------------------------------|
B|---------------------------------------------------------------|
G|---------------------------------------------------------------|
D|-------------2--------------2--------------2--------------2-3--|
A|-------------2--------------2--------------2--------------2-3--|
E|-0-0-0-0-0-0----0-0-0-0-0-0----0-0-0-0-0-0----0-0-0-0-0-0------|

e|---------------------------------|
B|---------------------------------|
G|---------------------------------|
D|-------------2--------------2-3--| x4
A|-------------2--------------2-3--|
E|-0-0-0-0-0-0----0-0-0-0-0-0------|

e|---------------------------------------------------------------|
B|---------------------------------------------------------------|
G|---------------------------------------------------------------|
D|-------------2--------------2--------------2--------------2-3--|
A|-------------2--------------2--------------2--------------2-3--|
E|-0-0-0-0-0-0----0-0-0-0-0-0----0-0-0-0-0-0----0-0-0-0-0-0------|

e|---------------------------------------------------------------|
B|---------------------------------------------------------------|
G|---------------------------------------------------------------|
D|-------------2--------------2--------------2--------------2-3--|
A|-------------2--------------2--------------2--------------2-3--|
E|-0-0-0-0-0-0----0-0-0-0-0-0----0-0-0-0-0-0----0-0-0-0-0-0------|

e|-------------------------------------------------------------------|
B|-------------------------------------------------------------------|
G|-------------------------------------------------------------------|
D|-------------------------------------------------------------------|
A|-------------7~--------------7/8--------------5~--------------5/8--|
E|-0-0-0-0-0-0-----0-0-0-0-0-0------0-0-0-0-0-0-----0-0-0-0-0-0------|

e|-------------------------------------------------------------------|
B|-------------------------------------------------------------------|
G|-------------------------------------------------------------------|
D|-------------------------------------------------------------------|
A|-------------7~--------------7/8--------------5~--------------5\2--|
E|-0-0-0-0-0-0-----0-0-0-0-0-0------0-0-0-0-0-0-----0-0-0-0-0-0------|

e|---------------------------------------------------------------|
B|---------------------------------------------------------------|
G|---------------------------------------------------------------|
D|-------------2--------------2--------------2--------------2-3--|
A|-------------2--------------2--------------2--------------2-3--|
E|-0-0-0-0-0-0----0-0-0-0-0-0----0-0-0-0-0-0----0-0-0-0-0-0------|

e|---------------------------------------------------------------|
B|---------------------------------------------------------------|
G|---------------------------------------------------------------|
D|-------------2--------------2--------------2--------------2-3--|
A|-------------2--------------2--------------2--------------2-3--|
E|-0-0-0-0-0-0----0-0-0-0-0-0----0-0-0-0-0-0----0-0-0-0-0-0------|

e|--------------------------------------|
B|--------------------------------------|
G|--------------------------------------|
D|-------------2-------------2-------3--| x4
A|-------------2-------------2-------3--|
E|-0-0-0-0-0-0---0-0-0-0-0-0---0-0-0----|

e|----------------------------------------|
B|----------------------------------------|
G|----------------------------------------|
D|----------------------------------------|
A|----------------------------------------|
E|-0-0-0-0-0-0-0--0-0-0-0-0-0-0--0-0-0-0--|

e|--------------------------------------------|
B|--------------------------------------------|
G|--------------------------------------------|
D|--------------------------------------------|
A|--------------------------------------------|
E|-0-0-0-0-0-0-0--0-0-0-0-0-0-0--0-0-0-0-0-0--|

e|--------------------------------------|
B|--------------------------------------|
G|--------------------------------------|
D|-------------2-------------2-------3--| x4
A|-------------2-------------2-------3--|
E|-0-0-0-0-0-0---0-0-0-0-0-0---0-0-0----|

e|----------------------------------------|
B|----------------------------------------|
G|----------------------------------------|
D|----------------------------------------|
A|----------------------------------------|
E|-0-0-0-0-0-0-0--0-0-0-0-0-0-0--0-0-0-0--|

e|--------------------------------------------|
B|--------------------------------------------|
G|--------------------------------------------|
D|--------------------------------------------|
A|--------------------------------------------|
E|-0-0-0-0-0-0-0--0-0-0-0-0-0-0--0-0-0-0-0-0--|


[Main solo]

e|-t19p15p12-t19p15p12-t19p15p12-t19p15p12-t19p15p12-t19p15p12-t19p15p12-|
B|-----------------------------------------------------------------------|
G|-----------------------------------------------------------------------|
D|-----------------------------------------------------------------------|
A|-----------------------------------------------------------------------|
E|-----------------------------------------------------------------------|

e|-t19p15p12--|
B|------------|
G|------------|
D|------------|
A|------------|
E|------------|

e|-t20p15p12-t20p15p12-t20p15p12-t20p15p12-t20p15p12-t20p15p12-t20p15p12-|
B|-----------------------------------------------------------------------|
G|-----------------------------------------------------------------------|
D|-----------------------------------------------------------------------|
A|-----------------------------------------------------------------------|
E|-----------------------------------------------------------------------|

e|-t20p15p12--|
B|------------|
G|------------|
D|------------|
A|------------|
E|------------|

e|------------------------------------------------------------------------|
B|-t19p15p12-t19p15p12-t19p15p12-t19p15p12-t19p15p12-t19p15p12-t19p15p12--|
G|------------------------------------------------------------------------|
D|------------------------------------------------------------------------|
A|------------------------------------------------------------------------|
E|------------------------------------------------------------------------|

e|------------|
B|-t19p15p12--|
G|------------|
D|------------|
A|------------|
E|------------|

e|------------------------------------------------------------------------|
B|-t20p15p12-t20p15p12-t20p15p12-t20p15p12-t20p15p12-t20p15p12-t20p15p12--|
G|------------------------------------------------------------------------|
D|------------------------------------------------------------------------|
A|------------------------------------------------------------------------|
E|------------------------------------------------------------------------|

e|------------|
B|-t20p15p12--|
G|------------|
D|------------|
A|------------|
E|------------|

e|------------------------------------------------------------------------|
B|-t17p13p10-t17p13p10-t17p13p10-t17p13p10-t17p13p10-t17p13p10-t17p13p10--|
G|------------------------------------------------------------------------|
D|------------------------------------------------------------------------|
A|------------------------------------------------------------------------|
E|------------------------------------------------------------------------|

e|------------|
B|-t17p13p10--|
G|------------|
D|------------|
A|------------|
E|------------|

e|------------------------------------------------------------------------|
B|-t18p13p10-t18p13p10-t18p13p10-t18p13p10-t18p13p10-t18p13p10-t18p13p10--|
G|------------------------------------------------------------------------|
D|------------------------------------------------------------------------|
A|------------------------------------------------------------------------|
E|------------------------------------------------------------------------|

e|------------|
B|-t18p13p10--|
G|------------|
D|------------|
A|------------|
E|------------|

e|-----------------------------------------------------------------------------|
B|-t17p12h14-t17p12-t17p10-t17p12-t17p10-t17p8-t17p10-t17p8-t17p7-t17p8-t17p7--|
G|-----------------------------------------------------------------------------|
D|-----------------------------------------------------------------------------|
A|-----------------------------------------------------------------------------|
E|-----------------------------------------------------------------------------|

e|---------|
B|-t17p5~--|
G|---------|
D|---------|
A|---------|
E|---------|


e|-------------------------14-14-14-15-15-15-17-17-17----------17-17-17-17--|
B|-/12-12-12-12-12-12-12~-----------------------------15-15-15--------------|
G|--------------------------------------------------------------------------|
G|--------------------------------------------------------------------------|
A|--------------------------------------------------------------------------|
E|--------------------------------------------------------------------------|

e|-22b24~--22b24-22b24~~--|
B|------------------------|
G|------------------------|
D|------------------------|
A|------------------------|
E|------------------------|

e|-----15-17p15-------------15h17p15-------------15h17p15--------------|
B|-/17----------17-15-17h19----------17-15-17h19----------17-15-17h19--|
G|---------------------------------------------------------------------|
D|---------------------------------------------------------------------|
A|---------------------------------------------------------------------|
E|---------------------------------------------------------------------|

e|-15h17p15----------15-15h17p15-------------15h17p15-------15h17--|
B|----------17-17-19-------------17-15-17h19----------17p15--------|
G|-----------------------------------------------------------------|
D|-----------------------------------------------------------------|
A|-----------------------------------------------------------------|
E|-----------------------------------------------------------------|

e|-19p17p15----19p17p15----19p17p15----19p17p15-----|
B|----------15----------15----------15----------15--|
G|--------------------------------------------------|
D|--------------------------------------------------|
A|--------------------------------------------------|
E|--------------------------------------------------|

e|-19p17----19p17----19p17----19p17p15--|
B|-------15-------15-------15-----------|
G|--------------------------------------|
D|--------------------------------------|
A|--------------------------------------|
E|--------------------------------------|

e|-------15-------15-------15-------15--|
B|-18b20----18b20----18b20----18b20-----|
G|--------------------------------------|
D|--------------------------------------|
A|--------------------------------------|
E|--------------------------------------|

e|-18b19-15-------15-18b19-15-------15--|
B|----------18b20-------------18b20-----|
G|--------------------------------------|
D|--------------------------------------|
A|--------------------------------------|
E|--------------------------------------|

e|-19p17p15-17--17p15----15-----------------------------------------|
B|--------------------19-----19p17p15-17--17p15\13-15--15p13\12-13--|
G|------------------------------------------------------------------|
D|------------------------------------------------------------------|
A|------------------------------------------------------------------|
E|------------------------------------------------------------------|

e|--------------------------------------------------------------------------|
B|-13p12----12--------------------------------------------------------------|
G|-------14----14p12-14p12----12----12-14b16-14b16-14b16-14b16-(16)br14p12--|
D|-------------------------14----14-----------------------------------------|
A|--------------------------------------------------------------------------|
E|--------------------------------------------------------------------------|

e|------------------------------------|
B|------------------------------------|
G|----12----12------------------------|
D|-14----14----14-13-12---------------|
A|----------------------14-13-12-10~--|
E|------------------------------------|

e|------------------------------------------|
B|--------15--------15--------15--------15--|
G|--------15--------15--------15--------15--|
D|-/17-17-----17-17-----17-17-----17-17-----|
A|------------------------------------------|
E|------------------------------------------|

e|------------------------------------|
B|-17b18~~-17b18~~-(18)br17p15----15--|
G|-17b18~~-17b18~~-(18)br17p15----15--|
D|----------------------------17------|
A|------------------------------------|
E|------------------------------------|

e|------------------------------------|
B|--------15--------15-----17-17-15~--|
G|--------15--------15--x--17-17-15~--|
D|-/17-17-----17-17-----x-------------|
A|------------------------------------|
E|------------------------------------|

end solo
e|----------15-------15-------15-------15-------15-------15-15-------|
B|-15-18b20----18b20----18b20----18b20----18b20----18b20----18b20~~--|
G|-------------------------------------------------------------------|
D|-------------------------------------------------------------------|
A|-------------------------------------------------------------------|
E|-------------------------------------------------------------------|


e|------------------------------------------------|
B|------------------------------------------------|
G|------------------------------------------------|
D|------------------------------------------------|
A|-----------------5-5-5-5-5-5-4-4-4-3-3-3-2-2-2--|
E|-3-3-3-3-3-3-3----------------------------------|

e|--------------------------------------|
B|--------------------------------------|
G|--------------------------------------|
D|-------------2-------------2-------3--| x4
A|-------------2-------------2-------3--|
E|-0-0-0-0-0-0---0-0-0-0-0-0---0-0-0----|


e|------------------------------------------------|
B|------------------------------------------------|
G|------------------------------------------------|
D|------------------------------------------------|
A|-----------------5-5-5-5-5-5-4-4-4-3-3-3-2-2-2--|
E|-0-0-0-0-0-0-0----------------------------------|


[Last solo]

e|----------------------------------------------------------------------|
B|-8-8-8-7----10-10-10-8----12-12-12-10--12p10\8-10--10p8\7-8--8p7\5-7--|
G|---------7-------------9----------------------------------------------|
D|----------------------------------------------------------------------|
A|----------------------------------------------------------------------|
E|----------------------------------------------------------------------|

e|----------|
B|-7p5\3-5--|
G|----------|
D|----------|
A|----------|
E|----------|

e|-------------------------------------------------------------------------|
B|-8-8-8-7----10-10-10-8----12-12-12-10--12p10\8-10--10p8\7-8--13p12\10-12-|
G|---------7-------------9-------------------------------------------------|
D|-------------------------------------------------------------------------|
A|-------------------------------------------------------------------------|
E|-------------------------------------------------------------------------|

e|-------------|
B|-12p10\8-10--|
G|-------------|
D|-------------|
A|-------------|
E|-------------|

e|----------------------------------------------------------------------|
B|-8-8-8-7----10-10-10-8----12-12-12-10--12p10\8-10--10p8\7-8--8p7\5-7--|
G|---------7-------------9----------------------------------------------|
D|----------------------------------------------------------------------|
A|----------------------------------------------------------------------|
E|----------------------------------------------------------------------|

e|----------|
B|-7p5\3-5--|
G|----------|
D|----------|
A|----------|
E|----------|

e|----------------------------------------------------------------------|
B|-8-8-8-7----10-10-10-8----12-12-12-10--12p10\8-10--10p8\7-8--8p7\5-7--|
G|---------7-------------9----------------------------------------------|
D|----------------------------------------------------------------------|
A|----------------------------------------------------------------------|
E|----------------------------------------------------------------------|

end solo
e|----------------------------------------------|
B|-7p5\3-5--5p3\2-3--3p2p0-2--------------------|
G|----------------------------6p4\2-4--4p2p0-2--|
D|----------------------------------------------|
A|----------------------------------------------|
E|----------------------------------------------|


e|--------------------------------------|
B|--------------------------------------|
G|--------------------------------------|
D|-------------2-------------2-------3--| x4
A|-------------2-------------2-------3--|
E|-0-0-0-0-0-0---0-0-0-0-0-0---0-0-0----|

e|-----------------------------|
B|-----------------------------|
G|-----------------------------|
D|-----------------------------|
A|-----5------5------5------5--|
E|-3-3-3--3-3-3--3-3-3--3-3-3--|

e|--------------------------------------|
B|--------------------------------------|
G|--------------------------------------|
D|-------------2-------------2-------3--|
A|-------------2-------------2-------3--|
E|-0-0-0-0-0-0---0-0-0-0-0-0---0-0-0----|

e|-----------------------------|
B|-----------------------------|
G|-----------------------------|
D|-----------------------------|
A|-----5------5------5------5--|
E|-3-3-3--3-3-3--3-3-3--3-3-3--|


e|--------------------------------|
B|--------------------------------|
G|--------------------------------|
D|--------------------------------| x3
A|-------------2-2------3------3--|
E|-0-0-0-0-0-0-0-0--1-1-1--1-1-1--|


e|-----------------------------------------------|
B|-----------------------------------------------|
G|-----------------------------------------------|
D|-----------------------------------------------|
A|-------------2-2------5------5------5------5---|
E|-0-0-0-0-0-0-0-0--3-3-3--3-3-3--3-3-3--3-3-3---|


e|--------------------------------------|
B|--------------------------------------|
G|--------------------------------------|
D|-------------2-------------2-------3--|
A|-------------2-------------2-------3--|
E|-0-0-0-0-0-0---0-0-0-0-0-0---0-0-0----|

end of song
e|--------------------------------|
B|--------------------------------|
G|--------------------------------|
D|--------------------------------|
A|-2-2-2-2-2-2-2---2-2-2-2-2-2-2--|
E|-0-0-0-0-0-0-0---0-0-0-0-0-0-0--|


(rhythm for main solo)
e|--------------------------------------|
B|--------------------------------------|
G|--------------------------------------|
D|-------------2-------------2-------3--|
A|-------------2-------------2-------3--|
E|-0-0-0-0-0-0---0-0-0-0-0-0---0-0-0----|

e|--------------------------------------|
B|--------------------------------------|
G|--------------------------------------|
D|-------------2-------------2-------3--|
A|-------------2-------------2-------3--|
E|-0-0-0-0-0-0---0-0-0-0-0-0---0-0-0----|

e|--------------------------------------|
B|--------------------------------------|
G|--------------------------------------|
D|-------------2-------------2-------3--|
A|-------------2-------------2-------3--|
E|-0-0-0-0-0-0---0-0-0-0-0-0---0-0-0----|

e|--------------------------------------|
B|--------------------------------------|
G|--------------------------------------|
D|-------------2-------------2-------3--|
A|-------------2-------------2-------3--|
E|-0-0-0-0-0-0---0-0-0-0-0-0---0-0-0----|

e|--------------------------------------------|
B|--------------------------------------------|
G|--------------------------------------------|
D|--------------------------------------------|
A|--------------------------------------------|
E|-0-0-0-0-0-0-0--0-0-0-0-0-0-0--0-0-0-0-0-0--|

e|-------------------------------------|
B|-------------------------------------|
G|-------------------------------------|
D|-------------2--2--------------2--2--|
A|-------------2--2--------------2--2--|
E|-0-0-0-0-0-0-------0-0-0-0-0-0-------|

e|-------------------------------------|
B|-------------------------------------|
G|-------------------------------------|
D|-------------2--3--------------5--5--|
A|-------------2--3--------------5--5--|
E|-0-0-0-0-0-0-------3-3-3-3-3-3-3--3--|

e|-------------------------------------|
B|-------------------------------------|
G|-------------------------------------|
D|-------------2--2--------------2--2--|
A|-------------2--2--------------2--2--|
E|-0-0-0-0-0-0-------0-0-0-0-0-0-------|

e|-------------------------------------|
B|-------------------------------------|
G|-------------------------------------|
D|-------------2--3--------------5--5--|
A|-------------2--3--------------5--5--|
E|-0-0-0-0-0-0-------3-3-3-3-3-3-3--3--|

e|-------------------------------------|
B|-------------------------------------|
G|-------------------------------------|
D|-------------5--5--------------5--5--|
A|-------------5--5--------------5--5--|
E|-3-3-3-3-3-3-3--3--3-3-3-3-3-3-3--3--|

e|-------------------------------------|
B|-------------------------------------|
G|-------------------------------------|
D|-------------5--6--------------3--3--|
A|-------------5--6--------------3--3--|
E|-3-3-3-3-3-3-------1-1-1-1-1-1-1--1--|

e|-------------------------------------|
B|-------------------------------------|
G|-------------------------------------|
D|-------------5--5--------------5--5--|
A|-------------5--5--------------5--5--|
E|-3-3-3-3-3-3-3--3--3-3-3-3-3-3-3--3--|

e|-------------------------------------|
B|-------------------------------------|
G|-------------------------------------|
D|-------------5--6--------------3--3--|
A|-------------5--6--------------3--3--|
E|-3-3-3-3-3-3-------1-1-1-1-1-1-1--1--|

e|-----------------------------|
B|-----------------------------|
G|-----------------------------|
D|-----5------5------5------5--|
A|-----5------5------5------5--|
E|-3-3-3--3-3-3--3-3-3--3-3-3--|

e|-------------------------------------|
B|-------------------------------------|
G|-------------------------------------|
D|-------------3--3--------------3--3--|
A|-------------3--3--------------3--3--|
E|-1-1-1-1-1-1-1--1--1-1-1-1-1-1-1--1--|

e|-----------------------------|
B|-----------------------------|
G|-----------------------------|
D|-----5------5------5------5--|
A|-----5------5------5------5--|
E|-3-3-3--3-3-3--3-3-3--3-3-3--|

e|-------------------------------------|
B|-------------------------------------|
G|-------------------------------------|
D|-------------3--3--------------3--3--|
A|-------------3--3--------------3--3--|
E|-1-1-1-1-1-1-1--1--1-1-1-1-1-1-1--1--|



***********************************

/ = slide up
\ = slide down
h = hammer on
p = pull off
b = bend
br = release
x = muted string
t = tap (with finger or pick)
~ = vibrato
() = ghost note

***********************************
Tunning: Standard (E A D G B e)
===========================================================
Artist: Metallica
Song: One
Album: ...And Justice For All
===========================================================

Tabbed: TheMutts @ Ultimate-Guitar.com
Email: fadetoblack726@yahoo.com

Note: To play Kirk's part (the solos), or atleast one of the
solos you need a 24 fret guitar. I have Kirk's ESP so I'm set but the rest of the song
you can get by with a 22 or 21 fret I think.

Key: (# represents any number that might be there)

#s# - slide from one fret to the next
/# - slide down from nowhere (just down/up the neck)
\# - slide up from nowhere
#/ - pick the note then slide down to nowhere
#\ - pick the note then slide up to nowhere
# (#) - let note ring
#b# - pick the note (first #) then bend it to sound like your wereing play the
second note (second #) (example: pick fret 9 on the G string, now pick fret
10 on G.. now pick fret 9 on G and bend it up to sound like it was 10 on G)
if theres and r, that means release on the fret number it tells you.
#h#p# - pick a note, hammer on to the next on, then pull off to the last note
- normal harmonics (lightly touch string with finger and pick)
- artificial/pinched harmonics (this is complicated but basicly you pick the string, then
with the finger holding the pick touchs the string to mute it slightly, this all happens
while you pick the string ones, so you may need to adjust the way you hold to pick so
your finger will touch the string after picking it.
P.M.--| - palm mute
x - mute note with fret hand when used in chords/power chords, a palm muted 0 when alone


Guitars:

All guitars are tuned standard (low to high: EADGBE)
James is Guitar 1
Kirk is Guitar 2



Ok so lets get started

-------------------------------------------------------------
Intro (Guitar 1)
-------------------------------------------------------------

||--------------------------------------------------------|
||o-------------------------------------------------------|
||-------------------------------------------------0-(0)--|
||----4---0-(0)---4---0-(0)----4---0-(0)----4---0-(0)-----|
||o-2---2--------------------2---2------------------------|
||--------------3---3---------------------3---3-----------|

|------------------------------------------|-------------|
|------------------------------------------|------------o|
|------------------------------------------|-------------|
|-----4---0-(0)----4---0-(0)----4---0-(0)--|-------------|4x
|---2---2--------0---0---------------------|----2----2--o|
|-----------------------------3---3--------|--0---2------|

(3rd time, play this fill at the end, preverse pt. 1 starts here)
|------------------------|
|------------------------|
|------------------------|
|------------------------|
|-----2---2---2--2h4--2--|
|---0---2---0------------|

(4th time, play this fill at the end)
|------------------------------||
|------------------------------||
|------------------------------||
|-----2h4--2----------0--------||
|--------------4----5-------7--||
|---0--------2----3-----3-5----||


-------------------------------------------------------------
Intro Solo (Guitar 2)
-------------------------------------------------------------

||------------------------------------------------|
||--------------------3p2----3p2----3-3p2---------|
||-------2-4b6r4-(4)------4------2--------4-(4)---|
||---2h4------------------------------------------|
||------------------------------------------------|
||------------------------------------------------|

|---------------------------------------------------|
|--------------------------------------------2h3-2--|
|---11p9-0-9p7-0-7p6p0-2-6p4p0-2--/4-(4)--/4--------|
|---------------------------------------------------|
|---------------------------------------------------|
|---------------------------------------------------|

|--------------------------------------------14-19--|
|------2-3p2-------------------------------15-------|
|---/4-------2-/4-(4)--------------------16---------|
|-------------------------------------*16-----------|
|------------------------2---2----------------------|
|----------------------0---2------------------------|
*hold pick stiff and pick each string fast
|---17p15-14-15----------------------------------------------|
|---------------15-(15)--------------------------------------|
|------------------------7p6-7-9p7-9-11p9-11--/12-12-11-(11)-|
|------------------------------------------------------------|
|------------------------------------------------------------|
|------------------------------------------------------------|

|-----------------------7--------7-9-9s10-10s12-10-9-7-9--9-10-7-(7)-||
|-------7-8-10------7-8--------7-------------------------------------||
|-----7-----------7----------7---------------------------------------||
|---9-----------9----------9-----------------------------------------||
|--------------------------------------------------------------------||
|--------------------------------------------------------------------||


-------------------------------------------------------------
Preverse Part 1 (Guitar 2)
-------------------------------------------------------------

(This starts at the 3rd time end fill of the intro and plays
the rest along to guitar 1 playing intro)
||----------------------|
||----------------------|
||----------------------|
||----------------------|
||-----2---2---2-2h4-2--|
||---0---2---0----------|

|----------------------------------------------------------------------|
|----------------------------------------------------------------------|
|----------------------------------------------------------------------|
|-----4---0-0--4--0----4---0--4--4-0----4---0-0--4--0----4---0--4--4-0-|
|---2---2-----------------------------2---2----------------------------|
|--------------------3---3-----------------------------3---3-----------|

|--------------------------------------------------------------------------------||
|--------------------------------------------------------------------------------||
|--------------------------------0-(0)-------------------------------------------||
|-----4---0--0-4-0----4---0--4-4-----------4---0--0-4-0---2h4--2---------0-------||
|---2---2-----------0---0------------------------------------------4---5-------7-||
|----------------------------------------3---3----------0--------2---3-----3-5---||


-------------------------------------------------------------
Preverse Part 2 (Guitar 1 and 2)
-------------------------------------------------------------

Guitar 2
||----------------------------------------------1-----------------0----|
||-----------------------0h3p0---0-0h3p0----------1-------------0---0--|
||------0-7---0----------------4---------0----0--------0----4-0--------|
||----7-----7----5--------------------------3-------------2------------|
||--5------------------------------------------------------------------|
||---------------------------------------------------------------------|
|| |
||Guitar 1 |
||---------------------------------------------------------------------|
||----3---3---3--5-3h5p3s1h3p1-0---------0-----------------------------|
||------2--------5-4h5p4s2h4p2-0---------0--2---2-4-/7----4-------4----|
||--0---------------------------------------3---3-5-/5----5---5---5-5--|
||------------------------------------------------------------7-----7--|
||---------------------------------------------------------------------|

Guitar 2
|-----------------------------------------------1----------------------|
|------------------------0h3p0---0-0h3p0----------1---------0----------|
|-------0-7---0----------------4---------0----0--------0------0-4------|
|-----7-----7----5--------------------------3-------------2------------|
|---5--------------------------------------------------------------/3--|
|----------------------------------------------------------------------|
| |
|Guitar 1 |
|----------------------------------------------------------------------|
|-----3---3---3--5-3h5p3s1h3p1-0---------0-----------------------------|
|-------2--------5-4h5p4s2h4p2-0---------0--2---2-4-/7----2--2-4--5-4--|
|---0---------------------------------------3---3-5-/5----3--3-5--7-5--|
|----------------------------------------------------------------------|
|----------------------------------------------------------------------|


-------------------------------------------------------------
Verse 1 (Guitar 1 and 2)
-------------------------------------------------------------

Guitar 2
||----------------------------------------------------------|
||o---------------------------------------------------------|
||----------------------------------------------------------|
||----4---0-0-4-0----4---0-4-4-0----4---0-0-4-0----4---0-0--|
||o-2---2-------------------------2---2------------------0--|
||-----------------3---3-------------------------3---3------|
|| |
||Guitar 1 |\
||----------------------------------------------------------| \
||o---------------------------------------------------------| \
||----------------------------------------------------------| |
||----4---0-(0)------4---0-(0)------4---0-(0)------4---0----| |
||o-2---2-------------------------2---2------------------5--| |
||-----------------3---3-------------------------3---3---5--| |
|-2x
Guitar 2 |
|-----------------------------------------------------------| |
|----------------------------------------------------------o| |
|------------------------------0----------------------------| |
|-----4---0-0-4-0----4---0-4-4------4---0-0-4-0-------------| |
|---2---2----------0---0---------------------------2---2---o| /
|---------------------------------3---3----------0---2------| /
| |/
|Guitar 1 |
|-----------------------------------------------------------|
|----------------------------------------------------------o|
|-----------------------------------------------------------|
|-----4---0-(0)------4---0-(0)------4---0-(0)---------------|
|---2---2----------0---0---------------------------2---2---o|
|---------------------------------3---3----------0---2------|

(Switch to distortion)

Guitar 2
|----------------------------------|
|----------------------------------|
|---0--2-4-2-0-----4--2----4-6-4-2-|
|---0--2-4-2-0--4--4--2----4-6-4-2-|
|------0-2-0----4--2--0----2-4-2-0-|
|---3--------3--2------------------|
| |
|Guitar 1 |
|----------------------------------|
|----------------------------------|
|---0--2-4-2-0-----4--2----4-6-4-2-|
|---0--2-4-2-0--4--4--2----4-6-4-2-|
|------0-2-0----4--2--0----2-4-2-0-|
|---3--------3--2------------------|

(Switch back to clean)

|--------------------|
|--------------------|
|-----------0-7---0--|
|---------7-----7----|
|-3--4--5------------|
|--------------------|
| |
|Guitar 1 |
|--------------------|
|---------3---3---3--|
|-----------2--------|
|-------0------------|
|-3--4---------------|
|--------------------|

Guitar 2
|--------------------------------------------------------------------------|
|--5--3s5s3s1s3s1-0---------0-----------------------------------3---3---3--|
|--5--4s5s4s2s4s2-0---------0---2----2-4-/5-----4--------4--------2--------|
|-------------------------------3----3-5-/7-----5----5---5-5--0------------|
|----------------------------------------------------7-----7---------------|
|--------------------------------------------------------------------------|
| |
|Guitar 1 |
|------------------------------------1-------------------0-----------------|
|-----------0h3p0---0-0h3p0------------1---------------0---0---------------|
|-----------------4---------0------0--------0------4-0------------0-7---0--|
|--5----------------------------3---------------2---------------7-----7----|
|-------------------------------------------------------------5------------|
|--------------------------------------------------------------------------|

Guitar 2
|------------------------------------------------------||
|-5-3h5p3S1h3p1-0---------0----------------------------||
|-5-4h5p4S2h4p2-0---------0--2---2-4-/7---2--2-4--5-4--||
|----------------------------3---3-5-/5---3--3-5--7-5--||
|------------------------------------------------------||
|------------------------------------------------------||
| ||
|Guitar 1 ||
|--------------------------------1---------------------||
|---------0h3p0---0-0h3p0----------1---------0---------||
|---------------4---------0----0--------0------0-4-----||
|-5--------------------------3-------------------------||
|-----------------------------------------2--------/3--||
|------------------------------------------------------||


-------------------------------------------------------------
Verse 2 (Guitar 1 and 2)
-------------------------------------------------------------

REPEAT THE ENTIRE VERSE 1 BECAUSE VERSE 1 AND 2 ARE IDENTICAL
OTHER THAN THE LYRICS AND THE 2ND VERSE SOLO I HAVE BELOW...


-------------------------------------------------------------
Verse 2 Solo (Guitar 2)
-------------------------------------------------------------

Guitar 1 plays this on clean while the Guitar 2 plays the solo
|-----------0-------------------------------------------1------|
|o--------0----0-----------------0h3p0---0-0h3p0----------1---o|
|-----4-0-------------0-7-----0--------4---------0----0-----0--|
|---2---------------7-----7-5-----------------------3----------|3x
|o----------------5-------------------------------------------o|
|--------------------------------------------------------------|

Guitar 2 Solo
||-----------------------------------10-8-7----7-8------17p14----14-17---|
||---10-7----7-10--10-8-7---7h8p7-----------10-----8----------15---------|
||--------10--------------9-------7--------------------------------------|
||-----------------------------------------------------------------------|
||-----------------------------------------------------------------------|
||-----------------------------------------------------------------------|

|---17-15-14-15p14-----------15-17--19p17p15-19p17p15-19p17p15----15----------|
|------------------15--15-19-----------------------------------19----17-19-15-|
|-----------------------------------------------------------------------------|
|-----------------------------------------------------------------------------|
|-----------------------------------------------------------------------------|
|-----------------------------------------------------------------------------|

|----------------------------------------------|
|---(15)---8--8-8s7-(7)--/13-13-13-13--12-(12)-|
|----------7--7-7---(7)--/12-12-12-12--12-(12)-|
|----------------------------------------------|
|----------------------------------------------|
|----------------------------------------------|
T T T T T T T=tap with edge of pick
|-20p17p13-20p17p13-20p17p13-20p17p13-20p17p13-20p17p13-12h13p12-12h13p12-(12)-||
|------------------------------------------------------------------------------||
|------------------------------------------------------------------------------||
|------------------------------------------------------------------------------||
|------------------------------------------------------------------------------||
|------------------------------------------------------------------------------||


-------------------------------------------------------------
Distortion Part After Verse 2 Solo (Guitar 1 and 2)
-------------------------------------------------------------


Both Guitars
||---------------------------------------|
||o-------------------------------------o|
||---0--2-4-2-0-----4--2--4-6-4-2--4--6--|
||---0--2-4-2-0--4--4--2--4-6-4-2--4--6--|2x
||o-----0-2-0----4--2--0--2-4-2-0--2--4-o|
||---3--------3--2-----------------------|

|---------------------|
|---------------------|
|---0--2-4-2-0-----4--|
|---0--2-4-2-0--4--4--|
|------0-2-0----4--2--|
|---3--------3--2-----|


Guitar 2 4x
|-------------|-----------------|------------|----------------------|
|o-5----3-5h8-|--8--------------|-7------7---|--8------------------o|
|--5----4-5-7-|--7--------------|-8------8---|--9-------------------|
|--7----5-7-9-|--9----9-10-12---|-9------9---|-10-------------------|
|o-7----5-7h9-|-10---10-12-14---|------------|-14p12p10-(10)-------o|
|-------------|-----------------|------------|----------------------|
|
|Guitar 1
| PM--| PM------| PM PM PM PM 4x
|-------------|-----------------|------------|----------------------|
|o------------|-----------------|------------|---------------------o|
|-------------|-------0--0--0-0-|-4------4---|--5--------------5----|
|--2----0-2-0-|-------0--0--0-0-|-4------4---|--5--------------5----|
|o-3----2-3-0-|--2----5--5--5-5-|-2------2---|--3--------------3---o|
|-------------|--3----3--3--3-3-|------2---2-|---------------3---3--|


Both Guitars
PM---------------| PM PM
|--------------|----------------|------------|
|o-------------|----------------|------------|
|--------------|----------------|-4------4---|
|--5-5-5-7-5---|-4-4-4-5-4-(4)\-|-4------4---|
|o-7-7-7-7-7-5-|-5-5-5-5-5-(5)\-|-2------2---|
|--------------|----------------|------2---2-|


Slightly Faster Q=108
4/4
PM| PM PM
|----------------|------------------|
|---------------o|------------------|
|-5-----5---5----|-5---------(5)----|
|-5-5-5-5---5----|-5---------(5)----|
|-3-3-3-3---3---o|-7---------(7)----|
|---------3---3--|-0---------(0)----|

PM---------| PM---------| PM---------| PM---------|
|---------------------------------|---------------------------------|
|---------------------------------|---------------------------------|
|---------------------------------|---------------------------------|
|-------------2---------------2---|-------------2---------------2---|
|-------------2---------------2---|-------------2---------------2---|
|-0-0-0-0-0-0-0---0-0-0-0-0-0-0---|-0-0-0-0-0-0-0---0-0-0-0-0-0-0---|


PM---------| PM---------| PM---------| PM---------| 5x
|--------------------------------|----------------------------------||
|--------------------------------|o--------------------------------o||
|--------------------------------|----------------------------------||
|-------------2--------------2---|--------------2--------------2-3--||
|-------------2--------------2---|o-------------2--------------2-3-o||
|-0-0-0-0-0-0-0--0-0-0-0-0-0-0---|--0-0-0-0-0-0-0--0-0-0-0-0-0------||

PM---------| PM---------| PM---------| PM---------|
|----------------------------------|----------------------------------|
|o---------------------------------|----------------------------------|
|----------------------------------|----------------------------------|
|--------------2---------------2---|-------------2---------------2-3--|
|o-------------2---------------2---|-------------2---------------2-3--|
|--0-0-0-0-0-0-----0-0-0-0-0-0-----|-0-0-0-0-0-0-----0-0-0-0-0-0------|


PM---------| PM---------| PM---------| PM---------|
|---------------------------------|---------------------------------|
|---------------------------------|---------------------------------|
|---------------------------------|---------------------------------|
|-------------2---------------2---|-------------2---------------2-3-|
|-------------2---------------2---|-------------2---------------2-3-|
|-0-0-0-0-0-0-----0-0-0-0-0-0-----|-0-0-0-0-0-0-----0-0-0-0-0-0-----|


PM---------| PM---------| PM---------| PM---------|
|--------------------------------|--------------------------------|
|--------------------------------|--------------------------------|
|--------------------------------|--------------------------------|
|--------------------------------|--------------------------------|
|-------------7--------------7S8-|-------------5--------------5S8-|
|-0-0-0-0-0-0----0-0-0-0-0-0-----|-0-0-0-0-0-0----0-0-0-0-0-0-----|


PM---------| PM---------| PM---------| PM---------|
|--------------------------------|---------------------------------||
|--------------------------------|--------------------------------o||
|--------------------------------|---------------------------------||
|--------------------------------|---------------------------------||
|-------------7--------------7S8-|-------------5--------------5---o||
|-0-0-0-0-0-0----0-0-0-0-0-0-----|-0-0-0-0-0-0----0-0-0-0-0-0---7--||


-------------------------------------------------------------
Fast & Heavy Distortion Part (Guitar 1 and 2)
-------------------------------------------------------------

Double Time Q=216

Both Guitars
PM---------| PM-----------| PM--|
||-----------------------|-------------------|
||o----------------------|-------------------|
||-----------------------|-------------------|
||--------------2--------|-------2--------3--|
||o-------------2--------|-------2--------3--|
||--0-0-0-0-0-0----0-0-0-|-0-0-0----0-0-0----|


PM---------| PM----------| PM--|
|----------------------|--------------------|
|----------------------|--------------------|
|----------------------|--------------------|
|-------------2--------|-------2--------3---|
|-------------2--------|-------2--------3---|
|-0-0-0-0-0-0----0-0-0-|-0-0-0----0-0-0-----|


PM---------| PM----------| PM--|
|----------------------|-------------------|
|----------------------|-------------------|
|----------------------|-------------------|
|-------------2--------|-------2--------3--|
|-------------2--------|-------2--------3--|
|-0-0-0-0-0-0----0-0-0-|-0-0-0----0-0-0----|


PM---------| PM----------| PM--|
|----------------------|---------------------|
|----------------------|---------------------|
|----------------------|---------------------|
|-------------2--------|-------2--------3----|
|-------------2--------|-------2--------3----|
|-0-0-0-0-0-0----0-0-0-|-0-0-0----0-0-0------|

PM----------| PM------------| PM---|
|-----------------------|---------------------|
|-----------------------|---------------------|
|-----------------------|---------------------|
|-----------------------|---------------------|
|-----------------------|---------------------|
|-0-0-0-0-0-0-0---0-0-0-|-0-0-0-0---0-0-0-0---|


PM----------| PM--------------| PM-----|
|-----------------------|-------------------------||
|-----------------------|------------------------o||
|-----------------------|-------------------------||
|-----------------------|-------------------------||
|-----------------------|------------------------o||
|-0-0-0-0-0-0-0---0-0-0-|-0-0-0-0---0-0-0-0-0-0---||


This section plays 3 times, but on the third time,
Guitar 2 plays the solo and Guitar 1 plays this 1 more
time...


-------------------------------------------------------------
Solo 3 (Guitar 2)
-------------------------------------------------------------

(this solo requires tapping not picking in some parts
the note that you tap will be shown with T over it)


T T T T T T T T
|-19p15p12-19p15p12-19p15p12-19p15p12-19p15p12-19p15p12-19p15p12-19p15p12-|
|-------------------------------------------------------------------------|
|-------------------------------------------------------------------------|
|-------------------------------------------------------------------------|
|-------------------------------------------------------------------------|
|-------------------------------------------------------------------------|


T T T T T T T T
|-20p15p12-20p15p12-20p15p12-20p15p12-20p15p12-20p15p12-20p15p12-20p15p12--|
|--------------------------------------------------------------------------|
|--------------------------------------------------------------------------|
|--------------------------------------------------------------------------|
|--------------------------------------------------------------------------|
|--------------------------------------------------------------------------|


T T T T T T T T
|-------------------------------------------------------------------------|
|-19p15p12-19p15p12-19p15p12-19p15p12-19p15p12-19p15p12-19p15p12-19p15p12-|
|-------------------------------------------------------------------------|
|-------------------------------------------------------------------------|
|-------------------------------------------------------------------------|
|-------------------------------------------------------------------------|


T T T T T T T T
|--------------------------------------------------------------------------|
|-20p15p12-20p15p12-20p15p12-20p15p12-20p15p12-20p15p12-20p15p12-20p15p12--|
|--------------------------------------------------------------------------|
|--------------------------------------------------------------------------|
|--------------------------------------------------------------------------|
|--------------------------------------------------------------------------|


T T T T T T T T
|-------------------------------------------------------------------------|
|-17p13p10-17p13p10-17p13p10-17p13p10-17p13p10-17p13p10-17p13p10-17p13p10-|
|-------------------------------------------------------------------------|
|-------------------------------------------------------------------------|
|-------------------------------------------------------------------------|
|-------------------------------------------------------------------------|


T T T T T T T T
|--------------------------------------------------------------------------|
|-18p13p10-18p13p10-18p13p10-18p13p10-18p13p10-18p13p10-18p13p10-18p13p10--|
|--------------------------------------------------------------------------|
|--------------------------------------------------------------------------|
|--------------------------------------------------------------------------|
|--------------------------------------------------------------------------|


T T T T T T
|-----------------------------------------------|
|-17p12h14-17p12---17p10---17p12-17p10---17p8---|
|-----------------------------------------------|
|-----------------------------------------------|
|-----------------------------------------------|
|-----------------------------------------------|


T T T T T T
|-----------------------------------------|
|-17p10---17p8---17p7-17p8---17p7---17p5--|
|-----------------------------------------|
|-----------------------------------------|
|-----------------------------------------|
|-----------------------------------------|


|--------------------------14-14-14-|
|-/12-12-12-12-12-12-12-12----------|
|-----------------------------------|
|-----------------------------------|
|-----------------------------------|
|-----------------------------------|


|-15-15-15-17-17---17-17----------17-17-17-17--|
|------------------------15-15-15--------------|
|----------------------------------------------|
|----------------------------------------------|
|----------------------------------------------|
|----------------------------------------------|


!!!(now the solo is still going, but Guitar 1 will finish
playing the 3 repeat on the fast heavy part. Guitar 1 plays
a new riff along with the solo. Just remember, Guitar 2 (solo)
is the top measure, Guitar 1 (heavy riff) is bottom measure)!!!

Note: I didn't include Palm Muting in this section,
but you can figure it out. It's idiot proof.

|-17p15-------------15-17p15-------15h17---|
|-------17-15-17-19----------17-15---------|
|------------------------------------------|
|------------------------------------------|
|------------------------------------------|
|------------------------------------------|
|
|
|------------------------------------------|
|------------------------------------------|
|------------------------------------------|
|-----------------------2-----------2------|
|-----------------------2-----------2------|
|--0--0--0-----0--0--0--0-----------0------|




|-19p17p==15------19p17p==15------19p17p15----19p17p15----|
|--------------15--------------15----------15----------15-|
|---------------------------------------------------------|
|---------------------------------------------------------|
|---------------------------------------------------------|
|---------------------------------------------------------|
|
|
|---------------------------------------------------------|
|---------------------------------------------------------|
|---------------------------------------------------------|
|----------------------------------2-----------2----------|
|----------------------------------2-----------2----------|
|--0----0----0-----0----0----0-----0-----------0----------|



|-19p17----19p17----19p17----19p17p15-|
|-------15-------15-------15----------|
|-------------------------------------|
|-------------------------------------|
|-------------------------------------|
|-------------------------------------|
|
|
|-------------------------------------|
|-------------------------------------|
|-------------------------------------|
|--------------------2--------2-------|
|--------------------2--------2-------|
|--0--0--0--0--0--0--0--------0-------|



|----------------15------------------15----------------15--------------15-|
|-18b20==(20)r--------18b20==(20)r--------18b20==(20)r----18b20==(20)r----|
|-------------------------------------------------------------------------|
|-------------------------------------------------------------------------|
|-------------------------------------------------------------------------|
|-------------------------------------------------------------------------|
|
|
|-------------------------------------------------------------------------|
|-------------------------------------------------------------------------|
|-------------------------------------------------------------------------|
|------------------------------------------5---------------5--------------|
|------------------------------------------5---------------5--------------|
|--3-----------3----3--3-----------3----3--3---------------3--------------|



|-18b19==(19)r---15------------------15---18b19==(19)r-15--------------15-|
|---------------------18b20==(20)r------------------------18b20==(20)r----|
|-------------------------------------------------------------------------|
|-------------------------------------------------------------------------|
|-------------------------------------------------------------------------|
|-------------------------------------------------------------------------|
|
|
|-------------------------------------------------------------------------|
|-------------------------------------------------------------------------|
|-------------------------------------------------------------------------|
|------------------------------------------5---------------5--------------|
|------------------------------------------5---------------5--------------|
|--3-----------3----3--3-----------3----3--3---------------3--------------|



|-19p17p15-17-----17p15----15--|---------------------------------|
|-----------------------19-----|-19p17p15-17-----15h17p15s13-15--|
|------------------------------|---------------------------------|
|------------------------------|---------------------------------|
|------------------------------|---------------------------------|
|------------------------------|---------------------------------|
|
|
|------------------------------|---------------------------------|
|------------------------------|---------------------------------|
|------------------------------|---------------------------------|
|------------------5--------5--|------------------5-----------6--|
|------------------5--------5--|------------------5-----------6--|
|--3--3--3--3-3-3--3--------3--|--3--3--3--3-3-3-----------------|



|-------------------------------------------|
|-13h15p13p12---13-----12h13p12----12-------|
|-------------------------------14----14p12-|
|-------------------------------------------|
|-------------------------------------------|
|-------------------------------------------|
|
|
|-------------------------------------------|
|-------------------------------------------|
|-------------------------------------------|
|-----------------------3-----------3-------|
|-----------------------3-----------3-------|
|--1-----1----1--1-1-1--1-----------1-------|



|----------------------------------------------------------------|
|----------------------------------------------------------------|
|-14p12----12----12-14b16==(16)r---14b16==(16)r---14b16==(16)r---|
|-------14----14-------------------------------------------------|
|----------------------------------------------------------------|
|----------------------------------------------------------------|
|
|
|----------------------------------------------------------------|
|----------------------------------------------------------------|
|----------------------------------------------------------------|
|--------------------5--------------------------5----------------|
|--------------------5--------------------------5----------------|
|--3--3--3--3--3--3--3--------------------------3----------------|



|------------------------------------------------------|
|------------------------------------------------------|
|-14b16==(16)r---14b16========(16)--(16)-(16)r-12------|
|-------------------------------------------------14---|
|------------------------------------------------------|
|------------------------------------------------------|
|
|
|------------------------------------------------------|
|------------------------------------------------------|
|------------------------------------------------------|
|-------------------------------5-----5----------------|
|-------------------------------5-----5----------------|
|--3-----------3--3-----3-3-3---3-----3----------------|



|---------------------------|-----------------------|
|---------------------------|-----------------------|
|-12--------12--------------|-----------------------|
|------14--------14-13---12-|-----------------------|
|---------------------------|-14---13---12---10-----|
|---------------------------|-----------------------|
|
|
|---------------------------|-----------------------|
|---------------------------|-----------------------|
|---------------------------|-----------------------|
|-----------------5----6----|-----------------3--3--|
|-----------------5----6----|-----------------3--3--|
|--3-3--3-3--3-3------------|--1-1--1-1--1-1--1--1--|


PM| PM| PM| PM|
|---------------------------------------------|---------------------------------------------|
|-------14b14.5=(14.5)r-------14b14.5=(14.5)r-|-------14b14.5=(14.5)r-------14b14.5=(14.5)r-|
|-------14b15=====(14)r-------14b15=====(14)r-|-------14b15=====(14)r-------14b15=====(14)r-|
|-17-17-----------------17-17-----------------|-17-17-----------------17-17-----------------|
|---------------------------------------------|---------------------------------------------|
|---------------------------------------------|---------------------------------------------|
|
| PM| PM| PM| PM|
|---------------------------------------------|---------------------------------------------|
|---------------------------------------------|---------------------------------------------|
|---------------------------------------------|---------------------------------------------|
|--------5---------------------5--------------|--------5---------------------5--------------|
|--------5---------------------5--------------|--------5----------------------5-------------|
|--3--3--3---------------3--3--3--------------|--3--3--3--------------3--3--3---------------|



|------------------------------------------------------------------------------|
|-17b18======(18)r(17)-(17)b18====(18)r==(17)-(17)--17b18==(18)-(18)r-(17)b18==|
|-17b18======(18)r(17)-(17)b18====(18)r==(17)-(17)--17b18==(18)-(18)r-(17)b18==|
|------------------------------------------------------------------------------|
|------------------------------------------------------------------------------|
|------------------------------------------------------------------------------|
|
|
|------------------------------------------------------------------------------|
|------------------------------------------------------------------------------|
|------------------------------------------------------------------------------|
|------------------------------------------------------------------------------|
|-----------------------------------------------3----3-------------------------|
|--1-----1-1--------1-----------1------1--------1----1-------------------------|


PM| PM|
|----------------------------------------------|----------------------------------------------|
|-(18)r-----(17)b18======(18)-(18)rp15-----15--|-------14b14.5=(14.5)r-------14b14.5=(14.5)r--|
|-(18)r-----(17)b18======(18)-(18)r-15-----15--|-------14b15=====(14)r-------14b15=====(14)r--|
|---------------------------------------17-----|-17-17-----------------17-17------------------|
|----------------------------------------------|----------------------------------------------|
|----------------------------------------------|----------------------------------------------|
|
| PM| PM|
|----------------------------------------------|----------------------------------------------|
|----------------------------------------------|----------------------------------------------|
|----------------------------------------------|----------------------------------------------|
|----------------------------------------------|--------5---------------------5---------------|
|--------------------------3----------------3--|--------5---------------------5---------------|
|---1---1-1---1------1-1---1----------------1--|--3--3--3---------------3--3--3---------------|


|-----------------------|
|----17---17-15------15-|
|----17---17-15---------|
|-17--------------------|
|-----------------------|
|-----------------------|
|
| PM| PM-|
|-----------------------|
|-----------------------|
|-----------------------|
|-------5----------5----|
|-------5----------5----|
|--3--3-3-----3--3-3----|


S +S E S +S E S +S E S +S E
|----------------15------------------15----------------15--------------15-|
|-18b20==(20)r--------18b20==(20)r--------18b20==(20)r----18b20==(20)r----|
|-------------------------------------------------------------------------|
|-------------------------------------------------------------------------|
|-------------------------------------------------------------------------|
|-------------------------------------------------------------------------|
|
|
|-------------------------------------------------------------------------|
|-------------------------------------------------------------------------|
|-------------------------------------------------------------------------|
|-------------------------------------------------------------------------|
|------------------------------------------3---------------3--------------|
|--1-----------1----1--1-----------1----1--1---------------1--------------|



|----------------15------------------15-------------------||
|-18b20==(20)r--------18b20==(20)r--------18b20===(20)r---||
|---------------------------------------------------------||
|---------------------------------------------------------||
|---------------------------------------------------------||
|---------------------------------------------------------||
|
|
|---------------------------------------------------------||
|---------------------------------------------------------||
|---------------------------------------------------------||
|---------------------------------------------------------||
|------------------------------------------3--------3-----||
|--1-----------1----1--1-----------1----1--1--------1-----||



-------------------------------------------------------------
Back to Heavy Distortion Part (Guitar 1 and 2)
-------------------------------------------------------------

Both Guitars
||-----------------------|-------------------------|------------------------|
||-----------------------|-------------------------|o-----------------------|
||-----------------------|-------------------------|------------------------|
||-----------------------|-------------------------|--------------2---------|
||-----------------5-5-5-|-5-5-5-4-4-4-3-3-3-2-2-2-|o-------------2---------|
||-3-3-3-3-3-3-3---------|-------------------------|--0-0-0-0-0-0----0-0-0--|

4x
|--------------------|-----------------------|-------------------------|
|-------------------o|-----------------------|-------------------------|
|--------------------|-----------------------|-------------------------|
|-------2--------3---|-----------------------|-------------------------|
|-------2--------3--o|-----------------5-5-5-|-5-5-5-4-4-4-3-3-3-2-2-2-|
|-0-0-0----0-0-0-----|-0-0-0-0-0-0-0---------|-------------------------|


(The last solo kicks in right here, Guitar 2 plays solo, and Guitar 1 plays the riff
below to top measure)

Guitar 2
|------------------------5-5-5-|------------------7-7-7-5--|
|-8-8-8-7b7.5==(7.5)r----7-7-7-|-8b8.5==(8.5)r----8-8-8-7--|
|-9-9-9-7b7.5==(7.5)r-7--------|-9b9.5==(9.5)r-9-----------|
|---------------------9--------|---------------9-----------|
|------------------------------|---------------------------|
|------------------------------|---------------------------|
|
|Guitar 1
|------------------------------|---------------------------|
|------------------------------|---------------------------|
|------------------------------|---------------------------|
|---------------------2--------|---------------2--------3--|
|---------------------2--------|---------------2--------3--|
|-0-0-0-0------0--0------0-0-0-|-0------0--0------0-0-0----|




|-7-5---5-----5-----------|--------------------|
|-8-7-8-7-----7-8-7-8-----|-8-7-5-7--7-5---5---|
|-----9---------9-7-9-----|-9-7-6-7--7-6-7-6---|
|-------------------------|--------------9-----|
|-------------------------|--------------------|
|-------------------------|--------------------|
|
|
|-------------------------|--------------------|
|-------------------------|--------------------|
|-------------------------|--------------------|
|-------------2-----------|-------2--------3---|
|-------------2-----------|-------2--------3---|
|-0-0-0-0-0-0-------0-0-0-|-0-0-0----0-0-0-----|



|------------------------5-5-5-|------------------7-7-7-5--|
|-8-8-8-7b7.5==(7.5)r----7-7-7-|-8b8.5==(8.5)r----8-8-8-7--|
|-9-9-9-7b7.5==(7.5)r-7--------|-9b9.5==(9.5)r-9-----------|
|---------------------9--------|---------------9-----------|
|------------------------------|---------------------------|
|------------------------------|---------------------------|
|
|
|------------------------------|---------------------------|
|------------------------------|---------------------------|
|------------------------------|---------------------------|
|---------------------2--------|---------------2--------3--|
|---------------------2--------|---------------2--------3--|
|-0-0-0-0------0--0------0-0-0-|-0------0--0------0-0-0----|



|-7-5---5-----5-----------|-------------------|-------------------------|
|-8-7-8-7-----7-8-7-8-----|-8-7-5-7--7-5---5--|-5-----------------------|
|-----9---------9-7-9-----|-9-7-6-7--7-6-7-6--|-6-7-6-7-----7-6-4-6-----|
|-------------------------|--------------9----|---9-7-9-----9-7-5-7-----|
|-------------------------|-------------------|-------------------------|
|-------------------------|-------------------|-------------------------|
|
|
|-------------------------|-------------------|-------------------------|
|-------------------------|-------------------|-------------------------|
|-------------------------|-------------------|-------------------------|
|-------------2-----------|-------2--------3--|-------------2-----------|
|-------------2-----------|-------2--------3--|-------------2-----------|
|-0-0-0-0-0-0-------0-0-0-|-0-0-0----0-0-0----|-0-0-0-0-0-0-------0-0-0-|



|-------------------|
|-------------------|
|-6-4-2-4--4-2-0-2--|(solo stops right here, ending part begins)
|-7-5-4-5--4-2-0-4--|
|-------------------|
|-------------------|
|
| BOTH GUITARS!! 3x
|-------------------|-----------------------|--------------------|
|-------------------|o----------------------|-------------------o|
|-------------------|-----------------------|--------------------|
|-------2--------3--|--------------2--------|-------2--------3---|
|-------2--------3--|o-------------2--------|-------2--------3--o|
|-0-0-0----0-0-0----|--0-0-0-0-0-0----0-0-0-|-0-0-0----0-0-0-----|


Both Guitars
PM--------| PM----------| PM--| PM| PM| PM| PM|
|-----------------------|-------------------|---------------|----------------|
|o----------------------|-------------------|---------------|---------------o|
|-----------------------|-------------------|---------------|----------------|
|--------------2--------|-------2--------3--|-----5------5--|-----5------5---|
|o-------------2--------|-------2--------3--|-----5------5--|-----5------5--o|
|--0-0-0-0-0-0----0-0-0-|-0-0-0----0-0-0----|-3-3-3--3-3-3--|-3-3-3--3-3-3---|




repeat 4 times, but these are the ends to each repeat
the 4th repeat is just the ending riff.
________________ ________________________________
| 1.,2.,3. |4.
PM--------| PM| PM| PM| PM| PM| PM|
|--------------------|----------------|---------------|----------------|
|o-------------------|---------------o|---------------|----------------|
|--------------------|----------------|---------------|----------------|
|--------------2--2--|-----3------3---|-----5------5--|-----5------5---|
|o-------------2--2--|-----3------3--o|-----5------5--|-----5------5---|
|--0-0-0-0-0-0-0--0--|-1-1-1--1-1-1---|-3-3-3--3-3-3--|-3-3-3--3-3-3---|

___________________________________________
|
PM--------| PM----------| PM--|
|----------------------|-------------------|
|----------------------|-------------------|
|----------------------|-------------------|
|-------------2--------|-------2--------3--|
|-------------2--------|-------2--------3--|
|-0-0-0-0-0-0----0-0-0-|-0-0-0----0-0-0----|

_________________________________________
|
|-----------------------|----------------||
|-----------------------|----------------||
|-----------------------|----------------||
|-2-2-2-2-2-2-2---2-2-2-|-2-2-2-2--------||
|-2-2-2-2-2-2-2---2-2-2-|-2-2-2-2--------||
|-0-0-0-0-0-0-0---0-0-0-|-0-0-0-0--------||


-------------------------------------------------------------
Tunning: Standard (E A D G B e)
Metallica – One
...And Justice For all (1988)
By - Nx

[Begins with gun fires and battlefield sound for a few seconds...]
================================================================================
Intro Riff: (3X) [0:18]

Gtr - 1 (Clean)
Bm Gmaj7(no3rd) Bm Gmaj7(no3rd)
e|--------------|--------------|--------------|--------------|
B|--------------|--------------|--------------|--------------|
G|--------------|--------------|--------------|-----------0--|
D|-----4-----0--|-----4-----0--|-----4-----0--|---4---0------|
A|--2-----2-----|--------------|--2-----2-----|--------------|
E|--------------|--3-----3-----|--------------|-3---3--------|

Bm D/A Gmaj7(no3rd) Em
e|--------------|--------------|--------------|--------------|
B|--------------|--------------|--------------|--------------|
G|--------------|--------------|--------------|--------------|
D|-----4-----0--|-----4-----0--|-----4-----0--|--------------|
A|--2-----2-----|--0-----0-----|--------------|-----2-----2--|
E|--------------|--------------|--3-----3-----|--0-----2-----|

[Skip the last Em the 4th time & instead Play Fill - 1]
================================================================================
Initial solo: [0:36]
(Begins at the second repetition of the intro riff)

Gtr - 2 (wah)
e|---------------------------------------|--------------------------------------|
B|--------------------3p2---3p2---3-3p2--|--7p5\3--5p3\2--3p2p0--2p0------------|
G|-----2--4b6r4----------4-----2-------4-|----------------------------0h2--2/4~-|
D|-2h4-----------------------------------|--------------------------------------|
A|---------------------------------------|--------------------------------------|
E|---------------------------------------|--------------------------------------|

e|---------------------------------------|--------------------------------------|
B|---------2h3p2--------2--3p2-----------|--------------------------------------|
G|----2/4----------2/4---------2--2/4----|-----------[Drumming begins]----------|
D|---------------------------------------|--------------------------------------|
A|---------------------------------------|--------------------------------------|
E|---------------------------------------|--------------------------------------|

e|-------------19-----17-15-14-15--------|--------------------------------------|
B|--------19----------------------15-----|--------------------------------------|
G|-------{19}----------------------------|-7p6/7--9p7/9--11p9/11---9/12-12--11--|
D|-------{19}----------------------------|--------------------------------------|
A|-------{19}----------------------------|--------------------------------------|
E|---------------------------------------|--------------------------------------|
N.H.

e|------------------------------------------------------------------------------|
B|-----------------------12-------12--14--15--15/17--15\14--12\14--14--14h15p12-|
G|-----11-12-14----11-12-------11-----------------------------------------------|
D|---12----------12----------12-------------------------------------------------|
A|-14----------14----------14---------------------------------------------------|
E|------------------------------------------------------------------------------|

================================================================================
Fill – 1: [1:11]
(Ends up the Intro Riff)

Gtr - 1 (Clean)
Gtr - 2 (Clean)
Em
e|-------------------------|
B|-------------------------|
G|-------------------------|
D|-------------------------|
A|----2----2----2--2/4--2--|
E|--0----2----0------------|

================================================================================
Verse Riff: (1X) [1:13]
(Bass Starts)

Gtr – 1 (Clean)
Bm Gmaj7(no3rd) Bm Gmaj7(no3rd)
e|-----------------|-----------------|-----------------|-----------------|
B|-----------------|-----------------|-----------------|-----------------|
G|-----------------|-----------------|-----------------|-----------------|
D|---4---0-0--4--0-|---4---0--4-4--0-|---4---0-0--4--0-|---4---0--4-4--0-|
A|-2---2-----------|-----------------|-2---2-----------|-----------------|
E|-----------------|-3---3-----------|-----------------|-3---3-----------|

Bm D/A Gamj7(no3rd) Em
e|-----------------|-----------------|-----------------|-----------------|
B|-----------------|-----------------|-----------------|-----------------|
G|-----------------|-----------------|-----------------|-----------------|
D|---4---0-0--4--0-|---4---0--4-4--0-|---4---0-0--4--0-|---2/4--2--------|
A|-2---2-----------|-0---0-----------|-----------------|-------------4---|
E|-----------------|-----------------|-3---3-----------|-0---------2-----|

Gtr – 2 (Clean)
(Play the intro riff, without striking the 3rd string open in the 2nd Gmaj7)
================================================================================
Fill – 2: [1:28]

Gtr – 1 (Clean)
Gtr – 2 (Clean)
G5 A5
e|-------------------|
B|-------------------|
G|-------------------|
D|------0------------|
A|----5-----------7--|
E|--3------3--3/5----|

================================================================================
Interlude 1: [1:29]

................................................................................
Gtr – 1 (Clean)
[Part 1]
D G F Em
e|--------------|----------------------|-----------1--------|--------------0----|
B|--------------|--5--0h3-------0h3----|-----1--------1-----|-----0-----0-----0-|
G|-----0-7------|---------4---4--------|--------0--------0--|--------0----------|
D|---7-----7-5--|-------------------5--|--3-----------------|--2----------------|
A|-5------------|----------------------|--------------------|-------------------|
E|--------------|----------------------|--------------------|-------------------|

[Part 2]
e|--------------|----------------------|-----------1--------|-------------------|
B|--------------|--5--0h3-------0h3----|-----1--------1-----|-----0-----0-------|
G|-----0-7------|---------4---4--------|--------0--------0--|--------0----------|
D|---7-----7-5--|-------------------5--|--3-----------------|--2----------------|
A|-5------------|----------------------|--------------------|---------------/3--|
E|--------------|----------------------|--------------------|-------------------|

................................................................................
Gtr – 2 (Clean)
[Part 1]
e|--------------|----------------------|--------------------|-------------------|
B|---3----3--3--|--5--3h5p3\1--1/3--0--|--------------------|-------------------|
G|------2-------|--5--4h5p4\2--2/4--0--|--2---2--4/5---4----|--0---4---0--------|
D|-0------------|----------------------|--3---3--5/7---5----|--2---5---2--------|
A|--------------|----------------------|--------------------|-------------------|
E|--------------|----------------------|--------------------|-------------------|

[Part 2]
e|--------------|----------------------|--------------------|-------------------|
B|---3----3--3--|--5--3h5p3\1--1/3--0--|--------------------|-------------------|
G|------2-------|--5--4h5p4\2--2/4--0--|--2---2--4/5---4----|--2--4/5--4--------|
D|-0------------|----------------------|--3---3--5/7---5----|--3--5/7--5--------|
A|--------------|----------------------|--------------------|-------------------|
E|--------------|----------------------|--------------------|-------------------|

================================================================================
Verse Riff: (2X) [1:43]

Gtr – 1 (Clean)
Bm Gmaj7(no3rd) Bm Gmaj7(no3rd)
e|-----------------|-----------------|-----------------|-----------------|
B|-----------------|-----------------|-----------------|-----------------|
G|-----------------|-----------------|-----------------|-----------------|
D|---4---0-0--4--0-|---4---0--4-4--0-|---4---0-0--4--0-|---4---0--0------|
A|-2---2-----------|-----------------|-2---2-----------|-----------------|
E|-----------------|-3---3-----------|-----------------|-3---3-----------|

Bm D/A Gamj7(no3rd) Em
e|-----------------|-----------------|-----------------|-----------------|
B|-----------------|-----------------|-----------------|-----------------|
G|-----------------|-----------------|-----------------|-----------------|
D|---4---0-0--4--0-|---4---0--4-4--0-|---4---0-0--4--0-|-----------------|
A|-2---2-----------|-0---0-----------|-----------------|---2------2------|
E|-----------------|-----------------|-3---3-----------|-0------2--------|

Gtr – 2 (Clean)
(Play the intro riff, without striking the 3rd string open in the 2nd Gmaj7)

I can’t remember anything, can't tell if this is true or dream
deep down Inside I feel to scream, this terrible silence stops me!
Now that the war is through with me, I'm waking up I can not see
that there is not much left of me, nothing is real but pain now!

================================================================================
Chorus 1: [2:10]

Gtr – 1 (Distortion)
Gtr – 2 (Distortion)
G5 A5 B5 A5 G5 F#5 B5 A5 B5 C#5 B5 A5
e|--------------------------------------------------------------------|
B|--------------------------------------------------------------------|
G|-------2--4------2-----------4--2-----4--6--4--2--------------------|
D|--5----2--4------2--5--4-----4--2-----4--6--4--2--------------------|
A|--5----0--2------0--5--4-----2--0-----2--4--2--0------3~--4~---5~---|
E|--3-----------------3--2--------------------------------------------|
Hold my breath as I wish for death Oh please God wake me!

================================================================================
Interlude 1: [2:17]
(Begins as the chorus slowly fades out on guitar2)
================================================================================
Verse Riff: (2X) [2:32]

Back in the womb it’s much too real, in pumps life that I must feel
but can't look forward to reveal, look to the time when I'll live!
Fed through the tube that sticks in me, just like a wartime novelty
tied to machines that make me be, cut this life off from me!
================================================================================
Chorus 1: [2:59]

Hold my breath as I wish for death Oh please God wake me!
================================================================================
Interlude 1 [Part 1]: (4X) [3:06]
(Play only Gtr – 1 [Part 1] four times)
================================================================================
Classical solo: [3:12]

Gtr – 2 (Wah)
e|--------------------------------------------------------------|
B|--10p7---7--10--10--8--7--7h8p7-----/15-13-12----12-13p12-----|
G|-------7-----------------9------7-------------14----------12--|
D|--------------------------------------------------------------|
A|--------------------------------------------------------------|
E|--------------------------------------------------------------|

e|--17p14------14--17---17--15--14---15p14--------------15--17--|
B|---------15------------------------------15----15--19---------|
G|--------------------------------------------------------------|
D|--------------------------------------------------------------|
A|--------------------------------------------------------------|
E|--------------------------------------------------------------|

e|----19p17p15---19p17p15---19p17p15----14--15------14----------|
B|----------------------------------------------17------15------|
G|--------------------------------------------------------------|
D|--------------------------------------------------------------|
A|--------------------------------------------------------------|
E|--------------------------------------------------------------|

e|--------------------------------------------------------------|
B|-----/8---8--8\7---------------/13----13---13---13---12-------|
G|-----/7---7--7----7------------/12----12---12---12---12-------|
D|--------------------------------------------------------------|
A|--------------------------------------------------------------|
E|--------------------------------------------------------------|

T T T T T T
e|--20p17p13--20p17p13--20p17p13--20p17p13--20p17p13--20p17p13--|
B|--------------------------------------------------------------|
G|--------------------------------------------------------------|
D|--------------------------------------------------------------|
A|--------------------------------------------------------------|
E|--------------------------------------------------------------|

T T
e|--20p12h13p12--20p12h13p12--|
B|----------------------------|
G|----------------------------|
D|----------------------------|
A|----------------------------|
E|----------------------------|

================================================================================
Chorus 2: (2X) [3:34]

Gtr – 1 (Distortion)
Gtr – 2 (Distortion)
G5 A5 B5 A5 G5 F#5 B5 A5 B5 C#5 B5 A5 B5 C#5
e|-------------------------------------------------------------|
B|-------------------------------------------------------------|
G|------2---4-----2-----------4----2----4--6--4--2-----4----6--|
D|--5---2---4-----2--5----4---4----2----4--6--4--2-----4----6--|
A|--5---0---2-----0--5----4---2----0----2--4--2--0-----2----4--|
E|--3----------------3----2------------------------------------|
Now the world is gone I'm just one Oh God help me!
Hold my breath as I wish for death Oh please God help me!

================================================================================
Fill – 3: [3:48]

Gtr – 1 (Distortion)
Gtr – 2 (Distortion)
G5 A5 B5 A5 G5 F#5 B5
e|-------------------------------|
B|-------------------------------|
G|------2---4-----2-----------4--|
D|--5---2---4-----2--5----4---4--|
A|--5---0---2-----0--5----4---2--|
E|--3----------------3----2------|

================================================================================
[Interlude 2]

................................................................................
[Part 1]: (2X) [3:51]
Gtr – 1 (Soft distortion)
e|-------------|-------------|-------------|-------------|
B|-------------|-------------|-------------|-------------|
G|-------------|-------------|-4-----4-----|-5-----5-----|
D|--2--0--2--0-|-----5--5--5-|-4-----4-----|-5-----5-----|
A|--3--2--3--0-|--2--5--5--5-|-2-----2-----|-3-----3-----|
E|-------------|--3--3--3--3-|----2-----2--|----3-----3--|

e|-------------|-------------|-------------|-------------|
B|-------------|-------------|-------------|-------------|
G|-------------|-------------|-4-----4-----|-5-----5-----|
D|--2--0--2--0-|-----5--5--5-|-4-----4-----|-5-----5-----|
A|--3--2--3--0-|--2--5--5--5-|-2-----2-----|-3-----3-----|
E|-------------|--3--3--3--3-|----2-----2--|----3-----3--|

Gtr - 2 (Soft distortion)
e|-------------|-------------|-------------|-------------|
B|--5--3--5/8--|--(8)-~~~----|-------------|-------------|
G|--5--4--5/7--|--(7)-~~~----|-------------|-------------|
D|-------------|-------------|-4--x--4--x--|-5--x--5--x--|
A|-------------|-------------|-2--x--2--x--|-3--x--3--x--|
E|-------------|-------------|-------------|-------------|

e|-------------|-------------|-------------|-------------|
B|--5--3--5/8~-|--(8)-~~~----|-7--7--7--x--|-8--8--8--x--|
G|--5--4--5/7~-|--(7)-~~~----|-8--8--8--x--|-9--9--9--x--|
D|-------------|-------------|-9--9--9--x--|-10-10-10-x--|
A|-------------|-------------|-------------|-------------|
E|-------------|-------------|-------------|-------------|

................................................................................
[Part 2]: (2X) [4:18]
Gtr – 1 (Soft distortion)
e|------------------|------------------|------------------|------------------|
B|------------------|------------------|------------------|------------------|
G|------------------|------------------|----4-----4-------|-5--5-5------5----|
D|--4/5--5-7--5--4--|--4--4--4--5--4---|----4-----4-------|-5--5-5--5---5----|
A|--5/7--7-7--7--5--|--5--5--5--5--5---|----2-----2-------|-3--3-3--3---3----|
E|------------------|------------------|-------2-----2----|-----------3---3--|

Gtr - 2 (Soft distortion)
e|------------------|------------------|------------------|------------------|
B|------------------|------------------|------------------|------------------|
G|------------------|------------------|------------------|------------------|
D|--9--9--9--9--9---|--7--7--7--7--7\--|----4--x--4--x----|-5--5-5--5-x-5-x--|
A|--7--7--7--7--7---|--5--5--5--5--5\--|----2--x--2--x----|-3--3-3--3-x-3-x--|
E|------------------|------------------|------------------|------------------|
PM...................................|

................................................................................
[Part 3] [4:30]
(End the Interlude fading into the double bass bangs)

Gtr – 1 (Distortion)
Gtr – 2 (Distortion)
e|------------------|
B|------------------|
G|------------------|
D|----/5------------|
A|----/7------------|
E|----0-------------|

================================================================================
Trill Thunder >>>>>>>>>>>>>>>>>>>>>>>>>>>>>>>>>>>>>>>>>>>>>>>>>>>>>>>>>>>>>>>>>>
================================================================================
Trill Riff 1: [4:35]

Gtr – 1 (Distortion)
Gtr – 2 (Distortion)
e|-----------------|-----------------|-----------------|-----------------|
B|-----------------|-----------------|-----------------|-----------------|
G|-----------------|-----------------|-----------------|-----------------|
D|--------------2--|--------------2--|--------------2--|--------------2--|
A|--------------2--|--------------2--|--------------2--|--------------2--|
E|--0-0-0-0-0-0-0--|--0-0-0-0-0-0-0--|--0-0-0-0-0-0-0--|--0-0-0-0-0-0-0--|

e|-----------------------------------------------------------------------|
B|-----------------------------------------------------------------------|
G|-----------------------------------------------------------------------|
D|--------------2-(2)-------------2---------------2-(2)-------------2-3--|
A|--------------2-(2)-------------2---------------2-(2)-------------2-3--|
E|--0-0-0-0-0-0-------0-0-0-0-0-0-----0-0-0-0-0-0-------0-0-0-0-0-0------|

================================================================================
Trill Riff 2: (4X) [4:43]

Gtr – 1 (Distortion)
Gtr – 2 (Distortion)
e|-------------------------------------|
B|-------------------------------------|
G|-------------------------------------|
D|--------------2-(2)-------------2-3--|
A|--------------2-(2)-------------2-3--|
E|--0-0-0-0-0-0-------0-0-0-0-0-0------|

================================================================================
Trill Riff 3: (2X) [4:52]

Gtr – 1 (Distortion)
Gtr – 2 (Distortion)
e|-----------------------------------|-----------------------------------|
B|-----------------------------------|-----------------------------------|
G|-----------------------------------|-----------------------------------|
D|-----------------------------------|------------------------------2-3--|
A|---------------2---------------2---|--------------2---------------2-3--|
E|---0-0-0-0-0-0-0---0-0-0-0-0-0-0---|--0-0-0-0-0-0-0---0-0-0-0-0-0------|
Dark-ness imprisoning me all that I see absolute horror
I can-not live I can-not die trapped in myself body my holding cell!

================================================================================
Trill Riff 4: [5:00]

Gtr – 1 (Distortion)
Gtr – 2 (Distortion)
e|-----------------------------------|-----------------------------------|
B|-----------------------------------|-----------------------------------|
G|-----------------------------------|-----------------------------------|
D|-----------------------------------|-----------------------------------|
A|-------------/7-(7)------------7/8-|------------/5-(5)-------------5/8-|
E|--0-0-0-0-0-0------0-0-0-0-0-0-----|-0-0-0-0-0-0-------0-0-0-0-0-0-----|

e|-----------------------------------|-----------------------------------|
B|-----------------------------------|-----------------------------------|
G|-----------------------------------|-----------------------------------|
D|-----------------------------------|-----------------------------------|
A|-------------/7-(7)------------7/8-|------------/5-(5)-------------5\2-|
E|--0-0-0-0-0-0------0-0-0-0-0-0-----|-0-0-0-0-0-0-------0-0-0-0-0-0-----|

================================================================================
Trill Riff 3: (2X) [5:09]

Land-mine has taken my sight taken my speech taken my hearing
Taken my arms taken my legs taken my soul left me with life in hell!
================================================================================
Trill Riff 5: (4X) [5:18]

Gtr – 1 (Distortion)
Gtr – 2 (Distortion)
e|-----------------------------------|
B|-----------------------------------|
G|-----------------------------------|
D|-------------2------------2------3-|
A|-------------2------------2------3-|
E|-0-0-0-0-0-0---0-0-0-0-0-0--0-0-0--|

================================================================================
Trill Riff 6: (2X) [5:26]

Gtr – 1 (Distortion)
Gtr – 2 (Distortion)
e|-----------------------------------------|
B|-----------------------------------------|
G|-----------------------------------------|
D|-----------------------------------------|
A|-----------------------------------------|
E|-0-0-0-0-0-0-0---0-0-0-0-0-0-0---0-0-0-0-|

================================================================================
Trill Riff 5: (4X) [5:31]
================================================================================
Trill Riff 6: (2X) [5:39]
================================================================================
Trill Riff 5: (4X) [5:44]

Gtr – 1 (Distortion)
(Gtr – 2 starts with the Speed solo)
================================================================================
Trill Riff 6: (1X) [5:52]

Gtr – 1 (Distortion)
================================================================================
Trill Riff 7: (2X) [5:55]

Gtr – 1 (Distortion)
e|-----------------------------------|-----------------------------------|
B|-----------------------------------|-----------------------------------|
G|-----------------------------------|-----------------------------------|
D|---------------2---------------2---|---------------2---------------5---|
A|---------------2---------------2---|---------------2---------------5---|
E|---0-0-0-0-0-0-0---0-0-0-0-0-0-0---|---0-0-0-0-0-0-0---3-3-3-3-3-3-3---|

================================================================================
Trill Riff 8: (2X) [6:03]

Gtr – 1 (Distortion)
e|-----------------------------------|-----------------------------------|
B|-----------------------------------|-----------------------------------|
G|-----------------------------------|-----------------------------------|
D|---------------5---------------5---|---------------5---------------3---|
A|---------------5---------------5---|---------------5---------------3---|
E|---3-3-3-3-3-3-3---3-3-3-3-3-3-3---|---3-3-3-3-3-3-3---1-1-1-1-1-1-1---|

================================================================================
Trill Riff 9: (2X) [6:12]

Gtr – 1 (Distortion)
e|-----------------------------------------------------------------------|
B|-----------------------------------------------------------------------|
G|-----------------------------------------------------------------------|
D|--------5--------5--------5--------5-----------------------------------|
A|--------5--------5--------5--------5---------------3---------------3---|
E|---3-3--3---3-3--3---3-3--3---3-3--3---1-1-1-1-1-1-1---1-1-1-1-1-1-1---|

================================================================================
Trill Riff 10 [6:20]

Gtr – 1 (Distortion)
e|-------------------------------------------------|
B|-------------------------------------------------|
G|-------------------------------------------------|
D|-------------------------------------------------|
A|----------------5-5-5-5-5-5--4-4-4--3-3-3--2-2-2-|
E|-3-3-3-3-3-3-3-----------------------------------|

================================================================================
Trill Riff 5: (4X) [6:23]

Gtr – 1 (Distortion)
================================================================================
Trill Riff 10 [6:31]
================================================================================
Trill Riff 5: (13X) [6:33]
(Solo ends after the 9th time)

Gtr – 1 (Distortion)
================================================================================
Trill Riff 11: [7:01]
[Outro]

Gtr – 1 (Distortion)
Gtr – 2 (Distortion)
e|-----------------------------------------------------------------------|
B|-----------------------------------------------------------------------|
G|-----------------------------------------------------------------------|
D|------5--------5--------5--------5---------------2------------2------3-|
A|------5--------5--------5--------5---------------2------------2------3-|
E|-3-3--3---3-3--3---3-3--3---3-3--3---0-0-0-0-0-0---0-0-0-0-0-0--0-0-0--|

e|-----------------------------------------------------------------------|
B|-----------------------------------------------------------------------|
G|-----------------------------------------------------------------------|
D|------5--------5--------5--------5---------------2---------3--------3--|
A|------5--------5--------5--------5---------------2---------3--------3--|
E|-3-3--3---3-3--3---3-3--3---3-3--3---0-0-0-0-0-0------1-1--1---1-1--1--|

e|-----------------------------------------------------------------------|
B|-----------------------------------------------------------------------|
G|-----------------------------------------------------------------------|
D|------------2------3-------3-------------2------3------3-------------2-|
A|------------2------3-------3-------------2------3------3-------------2-|
E|-0-0-0-0-0-0---1-1-1---1-1-1--0-0-0-0-0-0---1-1-1--1-1-1--0-0-0-0-0-0--|

e|-----------------------------------------------------------------------|
B|-----------------------------------------------------------------------|
G|-----------------------------------------------------------------------|
D|------5--------5--------5--------5---------------2------------2------3-|
A|------5--------5--------5--------5---------------2------------2------3-|
E|-3-3--3---3-3--3---3-3--3---3-3--3---0-0-0-0-0-0---0-0-0-0-0-0--0-0-0--|

e|-----------------------------------------------------------------------|
B|-----------------------------------------------------------------------|
G|-----------------------------------------------------------------------|
D|---2--2--2----2--2--2----2----------2--2--2----2--2--2----2------------|
A|---2--2--2----2--2--2----2----------2--2--2----2--2--2----2------------|
E|---0--0--0----0--0--0----0----------0--0--0----0--0--0----0------------|

================================================================================
Speed Solo:

................................................................................
[Part 1] [5:44]
Gtr – 2 (Compression)
T T T T T T T T
e|-19p15p12--19p15p12-19p15p12-19p15p12-|-20p15p12--20p15p12-20p15p12-20p15p12-|
B|--------------------------------------|--------------------------------------|
G|--------------------------------------|--------------------------------------|
D|--------------------------------------|--------------------------------------|
A|--------------------------------------|--------------------------------------|
E|--------------------------------------|--------------------------------------|

T T T T T T T T
e|--------------------------------------|--------------------------------------|
B|-19p15p12--19p15p12-19p15p12-19p15p12-|-20p15p12--20p15p12-20p15p12-20p15p12-|
G|--------------------------------------|--------------------------------------|
D|--------------------------------------|--------------------------------------|
A|--------------------------------------|--------------------------------------|
E|--------------------------------------|--------------------------------------|

T T T T T T T T
e|--------------------------------------|--------------------------------------|
B|-17p13p10--17p13p10-17p13p10-17p13p10-|-18p13p10--18p13p10-18p13p10-18p13p10-|
G|--------------------------------------|--------------------------------------|
D|--------------------------------------|--------------------------------------|
A|--------------------------------------|--------------------------------------|
E|--------------------------------------|--------------------------------------|

e|-----------------------------------------------------------------------------|
B|----12/14--12--10----10/12--10--8----8/10--8--7----7/8--7--5-------/12~~-----|
G|-----------------------------------------------------------------------------|
D|-----------------------------------------------------------------------------|
A|-----------------------------------------------------------------------------|
E|-----------------------------------------------------------------------------|

e|--------------------14-14-15-15-17-17-----------17---22^24-----22^24--22^24~-|
B|-12-12-12-12-12---------------------------15-15------------------------------|
G|-----------------------------------------------------------------------------|
D|-----------------------------------------------------------------------------|
A|-----------------------------------------------------------------------------|
E|-----------------------------------------------------------------------------|

e|------------15-17p15------------------15h17p15------------------15h17p15-----|
B|------/17---------------17p15h17p19---------------17p15h17p19----------------|
G|-----------------------------------------------------------------------------|
D|-----------------------------------------------------------------------------|
A|-----------------------------------------------------------------------------|
E|-----------------------------------------------------------------------------|

e|---------------15h17p15--------------15-17p15--------------15-17p15----------|
B|-17p15h17p19--------------17-17-19--------------15-17-19--------------15-17--|
G|-----------------------------------------------------------------------------|
D|-----------------------------------------------------------------------------|
A|-----------------------------------------------------------------------------|
E|-----------------------------------------------------------------------------|

e|-19p17p15---19p17p15---19p17p15---19p17p15---19p17---19p17---19p17--19p17p15-|
B|---------15---------15---------15---------15-----15------15------15----------|
G|-----------------------------------------------------------------------------|
D|-----------------------------------------------------------------------------|
A|-----------------------------------------------------------------------------|
E|-----------------------------------------------------------------------------|

e|-----------15----------15------18^19-15----------15-18^19-15-----------15----|
B|----18^20-------18^20--------------------18^20----------------18^20----------|
G|-----------------------------------------------------------------------------|
D|-----------------------------------------------------------------------------|
A|-----------------------------------------------------------------------------|
E|-----------------------------------------------------------------------------|

e|19p17p15-17-17p15p14-15------------------------------------------------------|
B|-----------------------19p17p15-17-15h17p15\13-15-13h15p13\12-13-12h13p12--12|
G|-------------------------------------------------------------------------14--|
D|-----------------------------------------------------------------------------|
A|-----------------------------------------------------------------------------|
E|-----------------------------------------------------------------------------|

e|-----------------------------------------------------------------------------|
B|-----------------------------------------------------------------------------|
G|14p12-14p12--12--12-14^-14^-14^-14^16-14^16-14p12--12--12--------------------|
D|-----------14--14--------------------------------14--14--14-13-12------------|
A|-----------------------------------------------------------------14-13-12-10~|
E|-----------------------------------------------------------------------------|

e|-----------------------------------------------------------------------------|
B|----------15^----------15^-----------15^----------15^-----17^-v-^-v-^-17^v^--|
G|----------15^----------15^-----------15^----------15^-----17^-v---v-^-17^v^--|
D|--17--17--------17--17-------17--17--------17--17----------------------------|
A|-----------------------------------------------------------------------------|
E|-----------------------------------------------------------------------------|

e|-----------------------------------------------------------------------------|
B|--v(17)-^-v---15----15----------15^----------15^-----17-----17-----15^----15-|
G|--v(17)-^-v---15----15----------15^----------15^-----17-----17-----15^-------|
D|-----------------17------17--17-------17--17---------------------------------|
A|-----------------------------------------------------------------------------|
E|-----------------------------------------------------------------------------|

e|--------15---------15---------15---------15---------15---------15------------|
B|--18^20------18^20------18^20------18^20------18^20------18^20------18^20~~~-|
G|-----------------------------------------------------------------------------|
D|-----------------------------------------------------------------------------|
A|-----------------------------------------------------------------------------|
E|-----------------------------------------------------------------------------|

................................................................................
[Part 2] [6:33]
Gtr – 2 (Distortion)
e|---------------------------------------------------------|
B|---------------------------------------------------------|
G|--12-12-12--11b12r11---14-14-14--12b14r12---16-16-16-14--|
D|--14-14-14--12b14r12---16-16-16--14b16r14---17-17-17-16--|
A|---------------------------------------------------------|
E|---------------------------------------------------------|

e|---------------------------------------------------------|
B|---------------------------------------------------------|
G|--16-14-12-14---14-12-11-12---12-11--9-11---11--9--7--9--|
D|--17-16-14-16---16-14-12-16---14-12-11-12---12-11--9-11--|
A|---------------------------------------------------------|
E|---------------------------------------------------------|

e|---------------------------------------------------------|
B|---------------------------------------------------------|
G|--12-12-12--11b12r11---14-14-14--12b14r12---16-16-16-14--|
D|--14-14-14--12b14r12---16-16-16--14b16r14---17-17-17-16--|
A|---------------------------------------------------------|
E|---------------------------------------------------------|

e|---------------------------------------------------------|
B|---------------------------------------------------------|
G|--16-14-12-14---14-12-11-12---17-16-14-16---16-14-12-14--|
D|--17-16-14-16---16-14-12-16---19-17-16-17---17-16-14-16--|
A|---------------------------------------------------------|
E|---------------------------------------------------------|

e|---------------------------------------------------------|
B|---------------------------------------------------------|
G|--12-12-12--11b12r11---14-14-14--12b14r12---16-16-16-14--|
D|--14-14-14--12b14r12---16-16-16--14b16r14---17-17-17-16--|
A|---------------------------------------------------------|
E|---------------------------------------------------------|


e|---------------------------------------------------------|
B|---------------------------------------------------------|
G|--16-14-12-14---14-12-11-12---12-11--9-11---11--9--7--9--|
D|--17-16-14-16---16-14-12-16---14-12-11-12---12-11--9-11--|
A|---------------------------------------------------------|
E|---------------------------------------------------------|

e|---------------------------------------------------------|
B|---------------------------------------------------------|
G|--12-12-12--11b12r11---14-14-14--12b14r12---16-16-16-14--|
D|--14-14-14--12b14r12---16-16-16--14b16r14---17-17-17-16--|
A|---------------------------------------------------------|
E|---------------------------------------------------------|

e|---------------------------------------------------------|
B|---------------------------------------------------------|
G|--16-14-12-14---14-12-11-12---12-11--9-11---11--9--7--9--|
D|--17-16-14-16---16-14-12-16---14-12-11-12---12-11--9-11--|
A|---------------------------------------------------------|
E|---------------------------------------------------------|

e|---------------------------------------------------------|
B|---------------------------------------------------------|
G|---9--7--6--7----7--6--4--6----6--4--2--4----4--2--0--2--|
D|--11--9--7--9----9--7--5--7----7--5--4--5----4--2--0--2--|
A|---------------------------------------------------------|
E|---------------------------------------------------------|

================================================================================



************************************

| p Pull-off
| \ Slide down
| h Hammer-on
| r Release
| b Bend
| / Slide up
| ~ Vibrato
| (n) Ghost note
| x Dead note
| PM Palm mute

************************************
Tunning: Standard (E A D G B e)
**READ**
[James's Electric Guitar Parts Only. The Riffs are in order, so you can just play along! ENJOY]

[Let me know in the comments if there are any mistakes!]
[RATE + COMMENT]
[FIRST 'MURDER ONE' TAB.]

*****************************************************

Tuning: Standard
Band: Metallica
Song: Murder One
Album: Hardwired... To Self-Destruct

******************************************************

[Intro]
Starts at: 0:17
e|-------------------------------|
B|-------------------------------|
G|-------------------------------|
D|-4---4---4------5-----4--4--4--|
A|-2-0-2-0-2-0----3-----2--2--2--|
E|-------------------------------| (4x)
* * *
e|----------------------------------------------------------|
B|----------------------------------------------------------|
G|---------0--------------0-------------0-------------------|
D|------4------------5------------10------------------------|
A|--2-----------3-------------8------------7-8------7h8h7---|
E|----------------------------------------------------------|

e|-------------------------------|
B|-------------------------------|
G|-------------------------------|
D|-4---4---4------5-----4--4--4--|
A|-2-0-2-0-2-0----3-----2--2--2--|
E|-------------------------------|
* * *

e|----------------------------------------------------------|
B|----------------------------------------------------------|
G|--------0---------------0-------------0-------------------|
D|-----4------------5------------10-------------------------|
A|--2-------------3-------------8------------7-8------7h8h7-|
E|----------------------------------------------------------|

e|-------------------------------|
B|-------------------------------|
G|-------------------------------|
D|-4---4---4------5-----4--4--4--|
A|-2-0-2-0-2-0----3-----2--2--2--|
E|-------------------------------|
* * *

e|-----------------|
B|-----------------|
G|-----------------|
D|-5--4--2--7----2~|
A|-3--2--0--5----2-|
E|---------------0-|

[Main]
e|------|------------------------------|
B|------|------------------------------|
G|------|---------------------------^--|
D|------|------4---------------4----3--|
A|------|---------------------------3--|
E|-9/---|--2--------2----0--2----------| (3x)

e|------------------|
B|------------------|
G|------------------|
D|-4----4---5---2~--|
A|-2----2---3---0---|
E|------------------|

e|------------------------------|
B|------------------------------|
G|---------------------------^--|
D|-------4--------------4----3--|
A|---------------------------3--|
E|--2--------2----0--2----------| (3x)

e|------------------------|-----------|
B|------------------------|-----------|
G|------------------------|-----------|
D|----4-------------------|-----------|
A|-3-----3----3~----3~----|--5-6-5----|
E|------------------------|--3-4-3----|
* *

e|------------------------------|
B|------------------------------|
G|---------------------------^--|
D|------4---------------4----3--|
A|---------------------------3--|
E|--2--------2----0--2----------| (3x)

e|------------------|
B|------------------|
G|------------------|
D|-4----4---5---2---|
A|-2----2---3---0---|
E|------------------|

[Verse]
One Crown...
e|---------------------------------|
B|---------------------------------|
G|---------------------------------|
D|---------------------------------|
A|-4~---2--5----------2--4--4--5---|
E|-2----0--3----------0--2--2--3---| (4x)

Aces wild, Aces High...
e|-------------------------------------------------------|
B|-------------------------------------------------------|
G|-------------------------------------------------------|
D|-------------------------------------------------------|
A|-7-7-8-5-----7-7-8-5-----9-9-10-7------9--10--11--12-/-|
E|-5-5-6-3-----5-5-6-3-----7-7-8--5------7--8---9---10-/-|

e|------------------------------|
B|------------------------------|
G|---------------------------^--|
D|------4---------------4----3--|
A|---------------------------3--|
E|--2--------2----0--2----------| (3x)

e|-------------------|
B|-------------------|
G|-------------------|
D|-4----4---5---2~---|
A|-2----2---3---0----|
E|-------------------|

[Chorus]
e|-------------------------------------------------------|
B|-------------------------------------------------------|
G|-0-----------------------------------------------------|
D|-0---2---4----------5---2----4-------5---2-------5--3--|
A|-2---2---4----------5---2----4-------5---2-------5--3--|
E|-3---0---2----------3---0----2-------3---0-------------|

e|------------------------------------------|
B|------------------------------------------|
G|------------------------------------------|
D|------------------------------------5--3--|
A|-4~----2--3--4------2--3--4--3--2---5--3--|
E|-2-----0--1--2------0--1--2--1--0---------| (3x)
* * * * * * * *

e|------------------------------------|
B|------------------------------------|
G|------------------------------------|
D|------------------------------------|
A|-4~----2--3--4------2--3--4--3--2---|
E|-2-----0--1--2------0--1--2--1--0---|
* * * * * * * *
e|------------------------|-----------|
B|------------------------|-----------|
G|------------------------|-----------|
D|----4-------------------|-----------|
A|-3-----3----3~----3~----|--5-6-5----|
E|------------------------|--3-4-3----|
* *
e|------------------------------|
B|------------------------------|
G|---------------------------^--|
D|------4---------------4----3--|
A|---------------------------3--|
E|--2--------2----0--2----------| (3x)

e|------------------|
B|------------------|
G|------------------|
D|-4----4---5---2---|
A|-2----2---3---0---|
E|------------------|

[VERSE 2]
e|---------------------------------|
B|---------------------------------|
G|---------------------------------|
D|---------------------------------|
A|-4~---2--5----------2--4--4--5---|
E|-2----0--3----------0--2--2--3---| (4x)

e|-------------------------------------------------------|
B|-------------------------------------------------------|
G|-------------------------------------------------------|
D|-------------------------------------------------------|
A|-7-7-8-5-----7-7-8-5-----9-9-10-7------9--10--11--12-/-|
E|-5-5-6-3-----5-5-6-3-----7-7-8--5------7--8---9---10-/-|

e|------------------------------|
B|------------------------------|
G|---------------------------^--|
D|------4---------------4----3--|
A|---------------------------3--|
E|--2--------2----0--2----------| (3x)

e|-------------------|
B|-------------------|
G|-------------------|
D|-4----4---5---2~---|
A|-2----2---3---0----|
E|-------------------|

[Chorus]
e|-------------------------------------------------------|
B|-------------------------------------------------------|
G|-0-----------------------------------------------------|
D|-0---2---4----------5---2----4-------5---2-------5--3--|
A|-2---2---4----------5---2----4-------5---2-------5--3--|
E|-3---0---2----------3---0----2-------3---0-------------|

e|------------------------------------------|
B|------------------------------------------|
G|------------------------------------------|
D|------------------------------------5--3--|
A|-4~----2--3--4------2--3--4--3--2---5--3--|
E|-2-----0--1--2------0--1--2--1--0---------| (3x)
* * * * * * * *

e|------------------------------------|
B|------------------------------------|
G|------------------------------------|
D|------------------------------------|
A|-4~----2--3--4------2--3--4--3--2---|
E|-2-----0--1--2------0--1--2--1--0---|
* * * * * * * *
e|------------------------|-----------|
B|------------------------|-----------|
G|------------------------|-----------|
D|----4-------------------|-----------|
A|-3-----3----3~----3~----|--5-6-5----|
E|------------------------|--3-4-3----|
* *
e|------|------------------------------|
B|------|------------------------------|
G|------|---------------------------^--|
D|------|------4---------------4----3--|
A|------|---------------------------3--|
E|-9/---|--2--------2----0--2----------| (3x)

e|------------------|
B|------------------|
G|------------------|
D|-4----4---5---2---|
A|-2----2---3---0---|
E|------------------|

[GROOVY THING AGAIN]
e|------------------------------|
B|------------------------------|
G|---------------------------^--|
D|------4---------------4----3--|
A|---------------------------3--|
E|--2--------2----0--2----------| (3x)

e|-------------------|
B|-------------------|
G|-------------------|
D|-4----4---5---2~---|
A|-2----2---3---0----|
E|-------------------|

e|--------------------------------------------------------|
B|--------------------------------------------------------|
G|--------------------------------------------------------|
D|-------0-------------0-------------0--------------------|
A|----4-------------5------------10-----------------------|
E|-2-------------3------------8--------------7-8---7h8h7--|

e|-----------------------------|
B|-----------------------------|
G|-----------------------------|
D|-----------------------------|
A|-4---4---4-----5---4-4-4-----|
E|-2-0-2-0-2-0---3---2-2-2-----| (2x)
* * *

e|--------------------------------------------------------|
B|--------------------------------------------------------|
G|--------------------------------------------------------|
D|-------0-------------0-------------0--------------------|
A|----4-------------5------------10-----------------------|
E|-2-------------3------------8--------------7-8---7h8h7--|

e|-----------------------------|
B|-----------------------------|
G|-----------------------------|
D|-----------------------------|
A|-4---4---4-----5---4-4-4-----|
E|-2-0-2-0-2-0---3---2-2-2-----| (2x)
* * *

e|--------------------------------------------------------|
B|--------------------------------------------------------|
G|--------------------------------------------------------|
D|-------0-------------0-------------0--------------------|
A|----4-------------5------------10-----------------------|
E|-2-------------3------------8--------------7-8---7h8h7--|

[Rhytm during solo]
e|--------|
B|--------|
G|--------|
D|-5--3---|
A|-5--3---|
E|--------|

e|------------------------------------------|
B|------------------------------------------|
G|------------------------------------------|
D|------------------------------------5--3--|
A|-4~----2--3--4------2--3--4--3--2---5--3--|
E|-2-----0--1--2------0--1--2--1--0---------| (3x)
* * * * * * * *

e|-------------------------------------------|
B|-------------------------------------------|
G|-------------------------------------------|
D|-------------------------------------------|
A|-4~----2--3--4------2--3--4--3--2---3-2~---|
E|-2-----0--1--2------0--1--2--1--0---5-0----|
* * * * * * * *

e|----------------------------------|--------|
B|----------------------------------|--------|
G|----------------------------------|--------|
D|----------------------------------|--------|
A|-4-----4-4------4-4-----4------4--|---5--2-|
E|-2-----2-2------2-2-----2------2--|---3--0-|

e|----------------------------------|
B|----------------------------------|
G|----------------------------------|
D|----------------------------------|
A|-4-----4-4------4-4-----4------4--|
E|-2-----2-2------2-2-----2------2--|

e|--------------------------|
B|--------------------------|
G|--------------------------|
D|-5-------2----------5-3---|
A|-5-5-5-5-2-2-2-2----5-3---|
E|-3-3-3-3-0-0-0-0----------| [End of Solo]
* * * * * *

e|------------------------------------------|
B|------------------------------------------|
G|------------------------------------------|
D|------------------------------------5--3--|
A|-4~----2--3--4------2--3--4--3--2---5--3--|
E|-2-----0--1--2------0--1--2--1--0---------| (3x)
* * * * * * * *

e|------------------------------------|
B|------------------------------------|
G|------------------------------------|
D|------------------------------------|
A|-4~----2--3--4------2--3--4--3--2---|
E|-2-----0--1--2------0--1--2--1--0---|
* * * * * * * *

e|------------------------|-------------------|
B|------------------------|-------------------|
G|------------------------|-------------------|
D|----4-------------------|-4-5-4~------------|
A|-3-----3----3~----3~----|-2-3-2----5-6-5----|
E|------------------------|----------3-4-3----|
* * * *

e|------------------------|------------|
B|------------------------|------------|
G|------------------------|------------|
D|----4-------------------|------------|
A|-3-----3----3~----3~----|--5-6-5~----|
E|------------------------|--3-4-3-----|
* *

e|------------------------------|
B|------------------------------|
G|---------------------------^--|
D|------4---------------4----3--|
A|---------------------------3--|
E|--2--------2----0--2----------| (3x)

e|-------------------|
B|-------------------|
G|-------------------|
D|-4----4---5---2~---|
A|-2----2---3---0----|
E|-------------------|

e|------------------------------|
B|------------------------------|
G|---------------------------^--|
D|------4---------------4----3--|
A|---------------------------3--|
E|--2--------2----0--2----------| (3x)

e|-----------------------------|
B|-----------------------------|
G|-----------------------------|
D|-----------------------------|
A|-4---4---4-----5---4-4-4-----|
E|-2-0-2-0-2-0---3---2-2-2-----| (2x)
* * *

e|--------------------------------------------------------|
B|--------------------------------------------------------|
G|--------------------------------------------------------|
D|-------0-------------0-------------0--------------------|
A|----4-------------5------------10-----------------------|
E|-2-------------3------------8--------------7-8---7h8h7--|

e|-----------------------------|
B|-----------------------------|
G|-----------------------------|
D|-----------------------------|
A|-4---4---4-----5---4-4-4-----|
E|-2-0-2-0-2-0---3---2-2-2-----|
* * *
e|-------------------|
B|-------------------|
G|-------------------|
D|-------------------|
A|-4---4---4------4~-|
E|-2-0-2-0-2-0----2--|

[THE END].

****************************************************************
It's in the correct order, Listen to the song for timing and stuff.

***********************************

| h Hammer-on
| x Dead note
| / Slide-up
| pb Pre-bend
| ~ Vibrato
| . Staccato
| * Palm Mut
| ^ 1/5 bend

***********************************

METAL UP YOUR ASS!

***********************************
Tunning: Standard (E A D G B e)
Murder One from Hardwired... to Self Destruct.

Standard tuning: E A D G B E

Most of this will be a single guitar line.

Please leave feedback if you can correct / add to this.

Use full power chords if you feel it should be played that way. I've gone shorter to
save time.

Figure alternatives:

e|----------------------------------------------------|
B|----------------------------------------------------|
G|----------------------------------------------------|
D|------------4-------------------4---5~-OR-3~-OR ----|
A|------------------------------------3~----3~-----3~-|
E|-12\----2-------2--------0--2--------------------1~-|

AND

e|----------------------------------------|---------------------------------------|
B|----------------------------------------|---------------------------------------|
G|----------------------------------------OR--------------------------------------|
D|----------------------------------------|---------------------------------------|
A|---4------4--5-------4--5--4---5~--2----|---4------4--5-------4--5--4--s5-s3-s4-|
E|---2---0--2--3----0--2--3--2---3~--0----|---2---0--2--3----0--2--3--2-----------|
PM PM PM PM PM PM

------------------------------------------------TAB STARTS HERE-----------------------------------------------


Intro

1 x2 (0:00-0:09)
e|----------------------------------------------------------------------------|
B|----------------------------------------------------------------------------|
G|----------0----------------0-----------------0-----------------0------------|
D|------4----------------5----------------10-----------------9----------------|
A|--2----------------3----------------8------------------7--------------------|
E|----------------------------------------------------------------------------|


2 x2 (0:09-0:13)
e|----------------------------------------------------------------------------|
B|----------------------------------------------------------------------------|
G|----------------------------------------------------------------------------|
D|--4---4---4---4----5-----4---4---4------------------------------------------|
A|--2p0-2p0-2p0-2p0--3-----2---2---2------------------------------------------|
E|----------------------------------------------------------------------------|
PM PM PM

Repeat 1 x1 (0:13-0:18)
e|----------------------------------------------------------------------------|
B|----------------------------------------------------------------------------|
G|----------0----------------0-----------------0-----------------0------------|
D|------4----------------5----------------10-----------------9----------------|
A|--2----------------3----------------8------------------7--------------------|
E|----------------------------------------------------------------------------|


Repeat 2 x2 (0:18-0:22)
e|----------------------------------------------------------------------------|
B|----------------------------------------------------------------------------|
G|----------------------------------------------------------------------------|
D|--4---4---4---4----5-----4---4---4------------------------------------------|
A|--2p0-2p0-2p0-2p0--3-----2---2---2------------------------------------------|
E|----------------------------------------------------------------------------|
PM PM PM


3 x1 (0:23-0:27)
e|----------------------------------------------------------------------------|
B|----------------------------------------------------------------------------|
G|----------0----------------0-----------------0------------------------------|
D|------4----------------5----------------10----------------------------------|
A|--2----------------3----------------8------------------7--8--7tr8-----------|
E|----------------------------------------------------------------------------|

Repeat 2 x1 (0:27-0:30)
e|----------------------------------------------------------------------------|
B|----------------------------------------------------------------------------|
G|----------------------------------------------------------------------------|
D|--4---4---4---4----5-----4---4---4------------------------------------------|
A|--2p0-2p0-2p0-2p0--3-----2---2---2------------------------------------------|
E|----------------------------------------------------------------------------|
PM PM PM


Repeat 3 x1 (0:30-0:34)
e|----------------------------------------------------------------------------|
B|----------------------------------------------------------------------------|
G|----------0----------------0-----------------0------------------------------|
D|------4----------------5----------------10----------------------------------|
A|--2----------------3----------------8------------------7--8--7tr8-----------|
E|----------------------------------------------------------------------------|

Repeat 2 x1 (0:34-0:36)
e|----------------------------------------------------------------------------|
B|----------------------------------------------------------------------------|
G|----------------------------------------------------------------------------|
D|--4---4---4---4---5-----4---4---4-------------------------------------------|
A|--2p0-2p0-2p0-2p0-3-----2---2---2-------------------------------------------|
E|----------------------------------------------------------------------------|
PM PM PM


4 x1 (0:36-0:41)
e|----------------------------------------------------------------------------|
B|----------------------------------------------------------------------------|
G|----------------------------------------------------------------------------|
D|---3---4---2---7---9~----2--------------------------------------------------|
A|---5---2---0---5---7~-OR-2--------------------------------------------------|
E|-------------------0~----0--------------------------------------------------|


Verse


5a X3 Ending after 3rd time. (0:41-0:52)
e|----------------------------------------|-----------------------------------|
B|----------------------------------------|-----------------------------------|
G|----------------------------------------|-----------------------------------|
D|------------4-------------------4--0h3~-|----4--4---3---2-------------------|
A|-----------------------------------0h3~-|----2--2---5---0-------------------|
E|-12\----2-------2--------0--2-----------|-----------------------------------|


5b X3 Ending after 3rd time. (0:52-1:02)
e|----------------------------------------|-----------------------------------|
B|----------------------------------------|-----------------------------------|
G|----------------------------------------|-----------------------------------|
D|------------4-------------------4--0h3~-|--------5--------------------------|
A|-----------------------------------0h3~-|----3-------3~-3~-3~--5--6--5------|
E|--------2-------2-------0--2------------|----------------------3--4--3------|
PM PM

Repeat 5a X3 Ending after 3rd time. (1:02-1:12)
e|----------------------------------------|-----------------------------------|
B|----------------------------------------|-----------------------------------|
G|----------------------------------------|-----------------------------------|
D|------------4-------------------4--0h3~-|----4--4---3---2-------------------|
A|-----------------------------------0h3~-|----2--2---5---0-------------------|
E|--------2-------2-------0--2------------|-----------------------------------|


x4 (1:12-1:28)
e|----------------------------------------------------------------------------|
B|----------------------------------------------------------------------------|
G|----------------------------------------------------------------------------|
D|----------------------------------------------------------------------------|
A|---4-----5----2---4---4\----------------------------------------------------|
E|---2---0-3----0---2---2\----------------------------------------------------|
PM PM?


x1 (1:28-1:39)
e|----------------------------------------------------------------------------|
B|----------------------------------------------------------------------------|
G|----------------------------------------------------------------------------|
D|--2---2---3---------2---2---3--------4---4---3---2-----4---5---6---7--------|
A|--0---0---1---5-----0---0---1---5----2---2---5---0-----2---3---4---5--------|
E|--------------3-----------------3-------------------------------------------|

X3 Ending after 3rd time. (1:39-1:53)
e|----------------------------------------|-----------------------------------|
B|----------------------------------------|-----------------------------------|
G|----------------------------------------|-----------------------------------|
D|------------4-------------------4--0h3~-|----4--4---3---2-------------------|
A|-----------------------------------0h3~-|----2--2---5---0-----5----2----4---|
E|--------2-------2-------0--2------------|---------------------3----0----2---|


(1:53-2:01)
e|----------------------------------------------------------------------------|
B|----------------------------------------------------------------------------|
G|----------------------------------------------------------------------------|
D|----------------------------------------------------------------------------|
A|---5---2-------4--------5---2---------5~-2----------------------------------|
E|---3---0-------2--------3---0---------3~-0----------------------------------|


X4 (2:01-2:21)
e|----------------------------------------|-----------------------------------|
B|----------------------------------------|-----------------------------------|
G|----------------------------------------|-----------------------------------|
D|----------------------------------------|--------5--------------------------|
A|---4------4--5-------4--5--4---5~--2----|----3-------3~-3~-3~--5--6--5------|
E|---0h2-0--2--3----0--2--3--2---3~--0----|----------------------3--4--3------|
PM PM PM PM PM PM


X3 Ending after 3rd time. (2:21-2:30)
e|----------------------------------------|-----------------------------------|
B|----------------------------------------|-----------------------------------|
G|----------------------------------------|-----------------------------------|
D|------------4-------------------4--0h3~-|----4--4---3---2-------------------|
A|-----------------------------------0h3~-|----2--2---5---0-------------------|
E|--------2-------2-------0--2------------|-----------------------------------|


(2:21-2:48)
e|----------------------------------------------------------------------------|
B|----------------------------------------------------------------------------|
G|----------------------------------------------------------------------------|
D|----------------------------------------------------------------------------|
A|---4-----5----2---4---4\----------------------------------------------------|
E|---2---0-3----0---2---2\----------------------------------------------------|
PM PM?

X1 (2:48-2:57)
e|----------------------------------------------------------------------------|
B|----------------------------------------------------------------------------|
G|----------------------------------------------------------------------------|
D|--2---2---3---------2---2---3--------4---4---3---2-----4---5---6---7--------|
A|--0---0---1---5-----0---0---1---5----2---2---5---0-----2---3---4---5--------|
E|--------------3-----------------3-------------------------------------------|


(2:57-3:09)
e|----------------------------------------|-----------------------------------|
B|----------------------------------------|-----------------------------------|
G|----------------------------------------|-----------------------------------|
D|------------4-------------------4--0h3~-|----4--4---3---2-------------------|
A|-----------------------------------0h3~-|----2--2---5---0-----5----2----4---|
E|--------2-------2-------0--2------------|---------------------3----0----2---|


(3:09-3:18)
e|----------------------------------------------------------------------------|
B|----------------------------------------------------------------------------|
G|----------------------------------------------------------------------------|
D|----------------------------------------------------------------------------|
A|---5---2-------4--------5---2---------5~-2----------------------------------|
E|---3---0-------2--------3---0---------3~-0----------------------------------|


X4 (3:18-3:39)
e|----------------------------------------|-----------------------------------|
B|----------------------------------------|-----------------------------------|
G|----------------------------------------|-----------------------------------|
D|----------------------------------------|--------5--------------------------|
A|---4------4--5-------4--5--4---5~--2----|----3-------3~-3~-3~--5--6--5------|
E|---0h2-0--2--3----0--2--3--2---3~--0----|----------------------3--4--3------|
PM PM PM PM PM PM

(3:29-2:48)
e|----------------------------------------|-----------------------------------|
B|----------------------------------------|-----------------------------------|
G|----------------------------------------|-----------------------------------|
D|------------4-------------------4--0h3~-|----4--4---3---2-------------------|
A|-----------------------------------0h3~-|----2--2---5---0-------------------|
E|--------2-------2-------0--2------------|-----------------------------------|


11 x2 (3:48-4:11)
e|------------------------------------------------|---------------------------|
B|------------------------------------------------|---------------------------|
G|------------------------------------------------|---------------------------|
D|--------0--------0----------0-------------------|---------------------------|
A|-----4---------5--------10----------------------|---------------5---4-4-4---|
E|--2---------3--------8----------7--8--7h8p7h8p7-|--2p0h2p0h2p0--3---2-2-2---|
PMPMPM
x1 x2
e|------------------------------------------------|---------------------------|
B|------------------------------------------------|---------------------------|
G|------------------------------------------------|---------------------------|
D|--------0--------0----------0-------------------|---------------------------|
A|-----4---------5--------10----------------------|---------------5---4-4-4---|
E|--2---------3--------8----------7--8--7h8p7h8p7-|--2p0h2p0h2p0--3---2-2-2---|
PMPMPM

x1
e|------------------------------------------------|---------------------------|
B|------------------------------------------------|---------------------------|
G|------------------------------------------------|---------------------------|
D|--------0--------0----------0-------------------|---------------------------|
A|-----4---------5--------10----------------------|----5~~~~--2---------------|
E|--2---------3--------8----------7--8--7h8p7h8p7-|----3~~~~--0---------------|


SOLO. Can't work it out at the moment but here's what I could get of Hetfields' Rhythm.

X5 On fifth time (4:11-4:33)
e|----------------------------------------|-----------------------------------|
B|----------------------------------------|-----------------------------------|
G|----------------------------------------|-----------------------------------|
D|----------------------------------------|-----------------------------------|
A|---4------4--5-------4--5--4---5~--2----|-----5-----2-----------------------|
E|---0h2-0--2--3----0--2--3--2---3~--0----|-----3-----0-----------------------|
PM PM PM PM PM PM

x2 On Second time (4:33-4:47)
e|----------------------------------------|-----------------------------------|
B|----------------------------------------|-----------------------------------|
G|----------------------------------------|-----------------------------------|
D|----------------------------------------|-----------------------------------|
A|--4---4-4---4-4---4-4---4-5---2---------|-----5~-----2~---------------------|
E|--2---2-2---2-2---2-2---2-3---0---------|-----3~-----0~---------------------|


X4 x2 (4:33-5:03)
e|----------------------------------------|-----------------------------------|
B|----------------------------------------|-----------------------------------|
G|----------------------------------------|-----------------------------------|
D|----------------------------------------|------5----------------------------|
A|---4------4--5-------4--5--4---5~--2----|--3-------3~-3~-3~-5-6-5---4-5-4---|
E|---2---0--2--3----0--2--3--2---3~--0----|-------------------3-4-3---2-3-2---|
PM PM PM PM PM PM

X3 Ending after 3rd time. (4:33-5:21)
e|----------------------------------------|-----------------------------------|
B|----------------------------------------|-----------------------------------|
G|----------------------------------------|-----------------------------------|
D|------------4-------------------4--0h3~-|----4--4---3---2-------------------|
A|-----------------------------------0h3~-|----2--2---5---0-------------------|
E|--------2-------2-------0--2------------|-----------------------------------|


X3 Ending after 3rd time. (5:21-5:30)
e|----------------------------------------|-----------------------------------|
B|----------------------------------------|-----------------------------------|
G|----------------------------------------|-----------------------------------|
D|------------4-------------------4--0h3~-|--4---4---4---4----5---4--4--4-----|
A|-----------------------------------0h3~-|--2p0-2p0-2p0-2p0--3---2--2--2-----|
E|--------2-------2--------0--2-----------|-----------------------------------|
PM PM PM

(5:30-5:32)
e|----------------------------------------------------------------------------|
B|----------------------------------------------------------------------------|
G|----------------------------------------------------------------------------|
D|--4---4---4---4----5-----4---4---4------------------------------------------|
A|--2p0-2p0-2p0-2p0--3-----2---2---2------------------------------------------|
E|----------------------------------------------------------------------------|
PM PM PM
(5:32-5:38)
e|-----------------------------------------------|----------------------------|
B|-----------------------------------------------|----------------------------|
G|-----------------------------------------------|----------------------------|
D|--------0--------0----------0------------------|-4---4---4---4---5--4--4--4-|
A|-----4---------5--------10---------------------|-2p0-2p0-2p0-2p0-3--2--2--2-|
E|--2---------3--------8----------7--8--7h8p7h8p7|----------------------------|
PM PM PM

(5:38-5:45)
e|--------------------------|
B|--------------------------|
G|--------------------------|
D|-4---4---4---4----5---4\--| FIN.
A|-2p0-2p0-2p0-2p0--3---2\--|
E|--------------------------|


Effects used were Clean and Distortion.
Tunning: Standard (E A D G B e)
Metallica - "Murder One"
From "Hardwired... to Self Destruct"
Tuning: E Standard
tabbed by jjhand

Note that occasional bars with 6 beats are marked 6/4, but most of the song is
4 beats per measure. Enjoy, and please rate or comment.

[clean intro] -
Rhythm Guitar
e|-----------------|------------------|-----------------|-----------------|
B|-----------------|------------------|-----------------|-----------------|
G|-----0-------0---|------0-------0---|-----0-------0---|-----0-------0---|
D|---4-------5-----|---10-------9-----|---4-------5-----|---10------9-----|
A|-2-------3-------|-8--------7-------|-2-------3-------|-8-------7-------|
E|-----------------|------------------|-----------------|-----------------|
|
| Lead Guitar
e|-2---------------|------------------|-2---------------|-----------------|
B|-0---------------|------------------|-0---------------|-----------------|
G|-----------------|------------------|-----------------|-----------------|
D|-----------------|------------------|-----------------|-----------------|
A|-----------------|------------------|-----------------|-----------------|
E|-----------------|------------------|-----------------|-----------------|



Distorted - both guitars
e|------------------------|------------------------|
B|------------------------|------------------------|
G|------------------------|------------------------|
D|-4---4---4---5---4-4-4--|-4---4---4---5---4-4-4--|
A|-2-0-2-0-2-0-3---2-2-2--|-2-0-2-0-2-0-3---2-2-2--|
E|-----------------*-*-*--|-----------------*-*-*--|


Clean Rhythm Guitar
e|-----------------|------------------|
B|-----------------|------------------|
G|-----0-------0---|------0-------0---|
D|---4-------5-----|---10-------9-----|
A|-2-------3-------|-8--------7-------|
E|-----------------|------------------|
|
|Clean Lead Guitar
e|-2---------------|------------------|
B|-0---------------|------------------|
G|-----------------|------------------|
D|-----------------|------------------|
A|-----------------|------------------|
E|-----------------|------------------|


Distorted - both guitars
e|------------------------|------------------------|
B|------------------------|------------------------|
G|------------------------|------------------------|
D|-4---4---4---5---4-4-4--|-4---4---4---5---4-4-4--|
A|-2-0-2-0-2-0-3---2-2-2--|-2-0-2-0-2-0-3---2-2-2--|
E|-----------------*-*-*--|-----------------*-*-*--|

e|-------------------------------|------------------------|
B|-------------------------------|------------------------|
G|-----0-----0-------0-----------|------------------------|
D|---4-----5------10-------------|-4---4---4---5---4-4-4--|
A|-2-----3------8------7-8-7tr8--|-2-0-2-0-2-0-3---2-2-2--|
E|-------------------------------|------------------------|

e|-------------------------------|------------------------|
B|-------------------------------|------------------------|
G|-----0-----0-------0-----------|------------------------|
D|---4-----5------10-------------|-4---4---4---5---4-4-4--|
A|-2-----3------8------7-8-7tr8--|-2-0-2-0-2-0-3---2-2-2--|
E|-------------------------------|------------------------|

e|------------------|----------------|--------------------|
B|------------------|----------------|--------------------|
G|------------------|----------------|--------------------|
D|-5---4---2---7\---|----------------|--------------------|
A|-3---2---0---5\---|-2--------------|-(2)----------------|
E|------------------|-0--------------|-(0)----------12\---|



[Verse]
e|--------------------|--------------------|-------------------|---------------------|
B|--------------------|--------------------|-------------------|---------------------|
G|--------------------|--------------------|-------------------|---------------------|
D|---4---------4-3~---|---4---------4-3~---|---4--------4-3~---|-4----4----5----2----|
A|---------------3~---|---------------3~---|--------------3~---|-2----2----3----0----|
E|-2---2---0h2--------|-2---2---0h2--------|-2---2--0h2--------|---------------------|

6/4
e|--------------------|--------------------|-------------------|------------------------|
B|--------------------|--------------------|-------------------|------------------------|
G|--------------------|--------------------|-------------------|------------------------|
D|---4---------4-3~---|---4---------4-3~---|---4--------4-3~---|---4--------------------|
A|---------------3~---|---------------3~---|--------------3~---|-3---3~---3~-3~-5-6-5---|
E|-2---2---0h2--------|-2---2---0h2--------|-2---2--0h2--------|----------------3-4-3---|
* * *

e|--------------------|--------------------|-------------------|---------------------|
B|--------------------|--------------------|-------------------|---------------------|
G|--------------------|--------------------|-------------------|---------------------|
D|---4---------4-3~---|---4---------4-3~---|---4--------4-3~---|-4----4----5----2----|
A|---------------3~---|---------------3~---|--------------3~---|-2----2----3----0----|
E|-2---2---0h2--------|-2---2---0h2--------|-2---2--0h2--------|-2----2----3---------|


Vocals begin
e|------------------|-------------------|------------------|-------------------|
B|------------------|-------------------|------------------|-------------------|
G|------------------|-------------------|------------------|-------------------|
D|------------------|-------------------|------------------|-------------------|
A|-4--------5-------|-4---4---5---------|-4--------5-------|-4---4---5---------|
E|-2------0-3-----0-|-2---2---3---------|-2------0-3-----0-|-2---2---3---------|
"One crown shines on through the sound. One crown born to lose"

e|------------------|-------------------|------------------|-------------------|
B|------------------|-------------------|------------------|-------------------|
G|------------------|-------------------|------------------|-------------------|
D|------------------|-------------------|------------------|-------------------|
A|-4--------5-------|-4---4---5---------|-4--------5-------|-4---4---5---------|
E|-2------0-3-----0-|-2---2---3---------|-2------0-3-----0-|-2---2---3---------|
"One man does not give a damn one man no excuse"

e|-----------------|-----------------|-----------------|------------------|
B|-----------------|-----------------|-----------------|------------------|
G|-----------------|-----------------|-----------------|------------------|
D|-----------------|-----------------|-----------------|------------------|
A|-7---7---8---5---|-7---7---8---5---|-9---9---10--7---|-9---10--11--12---|
E|-5---5---6---3---|-5---5---6---3---|-7---7---8---5---|-7---8---9---10---|
"Aces wild, aces high, all the aces aces till you die"

e|--------------------|--------------------|-------------------|---------------------|
B|--------------------|--------------------|-------------------|---------------------|
G|--------------------|--------------------|-------------------|---------------------|
D|---4---------4-3~---|---4---------4-3~---|---4--------4-3~---|-4----4----5----2----|
A|---------------3~---|---------------3~---|--------------3~---|-2----2----3----0----|
E|-2---2---0h2--------|-2---2---0h2--------|-2---2--0h2--------|---------------------|



[Prechorus]

6/4 4/4 again
e|-------------------------|--------------------|--------------------|
B|-------------------------|--------------------|--------------------|
G|-------------------------|--------------------|--------------------|
D|-(2)-----5-------2-------|-4------------------|-5--------2---------|
A|-(0)-----5-------2-------|-4------------------|-5--------2---------|
E|---------3-------0-------|-2------------------|-3--------0---------|
"White lights fading"

6/4
e|--------------------|----------------------------|
B|--------------------|----------------------------|
G|--------------------|----------------------------|
D|-4------------------|-5--------2---------5---3---|
A|-4------------------|-5--------2---------5---3---|
E|-2------------------|-3--------0---------3---1---|
"The iron horse rolls on and on and on"



[Chorus]
* * * * * * * * *
e|------------------------|-------------------------|
B|------------------------|-------------------------|
G|------------------------|-------------------------|
D|-4-----3--2--3--4----2--|-3--4--3--2--5-----3-----|
A|-4-----3--2--3--4----2--|-3--4--3--2--5-----3-----|
E|-2----------------------|-------------3-----1-----|
"Hear your thunder"

* * * * * * * * *
e|------------------------|-------------------------|
B|------------------------|-------------------------|
G|------------------------|-------------------------|
D|-4-----3--2--3--4----2--|-3--4--3--2--5-----3-----|
A|-4-----3--2--3--4----2--|-3--4--3--2--5-----3-----|
E|-2----------------------|-------------3-----1-----|
"Still feeding back"

* * * * * * * * *
e|------------------------|-------------------------|
B|------------------------|-------------------------|
G|------------------------|-------------------------|
D|-4-----3--2--3--4----2--|-3--4--3--2--5-----3-----|
A|-4-----3--2--3--4----2--|-3--4--3--2--5-----3-----|
E|-2----------------------|-------------3-----1-----|
"Still hear your thunder"

* * * * * * * * *
e|------------------------|------------------------|-------------------------|
B|------------------------|------------------------|-------------------------|
G|------------------------|------------------------|-------------------------|
D|-4-----3--2--3--4----2--|-3--4--3--4-----4-------|-------------------------|
A|-4-----3--2--3--4----2--|-3--4--3--4--3-----3----|-3~----3~----5--6--5-----|
E|-2----------------------|------------------------|-------------3--4--3-----|
"The man in black born to lose, living to win"



[Turnaround]
e|--------------------|--------------------|-------------------|---------------------|
B|--------------------|--------------------|-------------------|---------------------|
G|--------------------|--------------------|-------------------|---------------------|
D|---4---------4-3~---|---4---------4-3~---|---4--------4-3~---|-4----4----5----2----|
A|---------------3~---|---------------3~---|--------------3~---|-2----2----3----0----|
E|-2---2---0h2--------|-2---2---0h2--------|-2---2--0h2--------|---------------------|


[Verse 2]
e|------------------|-------------------|------------------|-------------------|
B|------------------|-------------------|------------------|-------------------|
G|------------------|-------------------|------------------|-------------------|
D|------------------|-------------------|------------------|-------------------|
A|-4--------5-------|-4---4---5---------|-4--------5-------|-4---4---5---------|
E|-2------0-3-----0-|-2---2---3---------|-2------0-3-----0-|-2---2---3---------|
"One fist hammers through the mist. One fist steady on"

e|------------------|-------------------|------------------|-------------------|
B|------------------|-------------------|------------------|-------------------|
G|------------------|-------------------|------------------|-------------------|
D|------------------|-------------------|------------------|-------------------|
A|-4--------5-------|-4---4---5---------|-4--------5-------|-4---4---5---------|
E|-2------0-3-----0-|-2---2---3---------|-2------0-3-----0-|-2---2---3---------|
"One heart die hard from the start. One heart beats its song"

e|-----------------|-----------------|-----------------|------------------|
B|-----------------|-----------------|-----------------|------------------|
G|-----------------|-----------------|-----------------|------------------|
D|-----------------|-----------------|-----------------|------------------|
A|-7---7---8---5---|-7---7---8---5---|-9---9---10--7---|-9---10--11--12---|
E|-5---5---6---3---|-5---5---6---3---|-7---7---8---5---|-7---8---9---10---|
"Murder all, murder one, give me murder second class to none"

e|--------------------|--------------------|-------------------|---------------------|
B|--------------------|--------------------|-------------------|---------------------|
G|--------------------|--------------------|-------------------|---------------------|
D|---4---------4-3~---|---4---------4-3~---|---4--------4-3~---|-4----4----5----2----|
A|---------------3~---|---------------3~---|--------------3~---|-2----2----3----0----|
E|-2---2---0h2--------|-2---2---0h2--------|-2---2--0h2--------|---------------------|


[Prechorus 2]

6/4 4/4 again
e|-------------------------|--------------------|--------------------|
B|-------------------------|--------------------|--------------------|
G|-------------------------|--------------------|--------------------|
D|-(2)-----5-------2-------|-4------------------|-5--------2---------|
A|-(0)-----5-------2-------|-4------------------|-5--------2---------|
E|---------3-------0-------|-2------------------|-3--------0---------|
"Headlights fading"

6/4
e|--------------------|----------------------------|
B|--------------------|----------------------------|
G|--------------------|----------------------------|
D|-4------------------|-5--------2---------5---3---|
A|-4------------------|-5--------2---------5---3---|
E|-2------------------|-3--------0---------3---1---|
"The iron horse rolls on and on and on"



[Chorus 2]
* * * * * * * * * *
e|------------------------|-------------------------|
B|------------------------|-------------------------|
G|------------------------|-------------------------|
D|-4-----3--2--3--4----2--|-3--4--3--2--5-----3-----|
A|-4-----3--2--3--4----2--|-3--4--3--2--5-----3-----|
E|-2----------------------|-------------3-----1-----|
"Hear your thunder"

* * * * * * * * *
e|------------------------|-------------------------|
B|------------------------|-------------------------|
G|------------------------|-------------------------|
D|-4-----3--2--3--4----2--|-3--4--3--2--5-----3-----|
A|-4-----3--2--3--4----2--|-3--4--3--2--5-----3-----|
E|-2----------------------|-------------3-----1-----|
"Still feeding back"

* * * * * * * * *
e|------------------------|-------------------------|
B|------------------------|-------------------------|
G|------------------------|-------------------------|
D|-4-----3--2--3--4----2--|-3--4--3--2--5-----3-----|
A|-4-----3--2--3--4----2--|-3--4--3--2--5-----3-----|
E|-2----------------------|-------------3-----1-----|
"Still hear your thunder"

* * * * * * * * *
e|------------------------|------------------------|-------------------------|
B|------------------------|------------------------|-------------------------|
G|------------------------|------------------------|-------------------------|
D|-4-----3--2--3--4----2--|-3--4--3--4-----4-------|-------------------------|
A|-4-----3--2--3--4----2--|-3--4--3--4--3-----3----|-3~----3~----5--6--5-----|
E|-2----------------------|------------------------|-------------3--4--3-----|
"The man in black born to lose, living to win"


e|--------------------|--------------------|-------------------|---------------------|
B|--------------------|--------------------|-------------------|---------------------|
G|--------------------|--------------------|-------------------|---------------------|
D|---4---------4-3~---|---4---------4-3~---|---4--------4-3~---|-4----4----5----2----|
A|---------------3~---|---------------3~---|--------------3~---|-2----2----3----0----|
E|-2---2---0h2--------|-2---2---0h2--------|-2---2--0h2--------|-2----2----3---------|


[Bridge]
e|----------------------------|----------------------------|
B|----------------------------|----------------------------|
G|----------------------------|----------------------------|
D|---------0------------0-----|---------0------------------|
A|-----4-------------5--------|-----10---------------------|
E|-2-------------3------------|-8--------------7-8-7tr8----|

e|--------------------------|--------------------------|
B|--------------------------|--------------------------|
G|--------------------------|--------------------------|
D|-------------------*-*-*--|-------------------*-*-*--|
A|-------------5-----4-4-4--|-------------5-----4-4-4--|
E|-2p0-2p0-2p0-3-----2-2-2--|-2p0-2p0-2p0-3-----2-2-2--|

e|----------------------------|----------------------------|
B|----------------------------|----------------------------|
G|----------------------------|----------------------------|
D|---------0------------0-----|---------0------------------|
A|-----4-------------5--------|-----10---------------------|
E|-2-------------3------------|-8--------------7-8-7tr8----|

e|--------------------------|--------------------------|
B|--------------------------|--------------------------|
G|--------------------------|--------------------------|
D|-------------------*-*-*--|-------------------*-*-*--|
A|-------------5-----4-4-4--|-------------5-----4-4-4--|
E|-2p0-2p0-2p0-3-----2-2-2--|-2p0-2p0-2p0-3-----2-2-2--|

6/4
e|----------------------------|-------------------------------------|
B|----------------------------|-------------------------------------|
G|----------------------------|-------------------------------------|
D|---------0-------------0----|---------0-----------------5----3----|
A|-----4-------------5--------|-----10--------------------5----3----|
E|-2-------------3------------|-8-------------7-8-7tr8----3----1----|



[Solo]
tremelo picking- shown as multiples of same notes for ease in reading
e|---------------------------|--------------------14h17p14-|
B|{17-16-14}-play 8x---------|{17-16-14}-play 7x-----------|
G|---------------------------|-----------------------------|
D|---------------------------|-----------------------------|
A|---------------------------|-----------------------------|
E|---------------------------|-----------------------------|

e|---------17p14--------17p14--------17p14---------|
B|-17p16p14-----17p16p14-----17p16p14-----17p16p14-|
G|-------------------------------------------------|
D|-------------------------------------------------|
A|-------------------------------------------------|
E|-------------------------------------------------|

e|------------------------------------------14-|
B|---14-17-14--------14~---17b19-b19~--14-17---|
G|-16--------16p14h16--------------------------|
D|---------------------------------------------|
A|---------------------------------------------|
E|---------------------------------------------|

e|--------------14--------------|----------------------------------|
B|-17b19---14-17--17b19---14-17-|-14----14-17-------------17______-|
G|------------------------------|----16-------14----14-16---16b18_-|
D|------------------------------|----------------16----------------|
A|------------------------------|----------------------------------|
E|------------------------------|----------------------------------|

6/4 release bend slightly and pick each time
e|------------------------------------------------------|
B|-(17)------------17---17---17---17--------------------|
G|-(16b18)---------b18r-b18r-b18r-b18r-16b18r16-14------|
D|-------------------------------------------------16~--|
A|------------------------------------------------------|
E|------------------------------------------------------|

e|---------------------------------------------|---------------------------------------|
B|---------------------------------------------|---------------------------------------|
G|------------14--------------------14---------|------------16-------------------------|
D|-14h16-16-16--16-16-16-14h16-16-16--16-16-16-|-14h16-16-16--16-14--------------------|
A|---------------------------------------------|-------------------16-15-14-12/14\12---|
E|---------------------------------------------|---------------------------------------|

e|-------------------------------------------|-------------------------------------|
B|-------------------------------------------|-------17----------------------------|
G|-16b18r16-14----16b18-16b18r16-14----16b18-|-16b18___----16b18-16b18r16-14--14---|
D|------------16-------------------16--------|------------------------------16-----|
A|-------------------------------------------|-------------------------------------|
E|-------------------------------------------|-------------------------------------|

e|----------------------------------(14)---------(14)--|
B|---------14-----------14-----------14-----------14---|
G|-14-16-17--17-14-16-17--17-14-16-17--17-14-16-17--17-|
D|-----------------------------------------------------|
A|-----------------------------------------------------|
E|-----------------------------------------------------|

e|--------(14)---------(14)---------(14)---------(14)--|----------------------------------------|
B|---------14-----------14-----------14-----------14---|----------------------------------------|
G|-14-16-17--17-14-16-17--17-14-16-17--17-14-16-17--17-|-16b18r16-14----16b18-16b18r16-14----14-|
D|-----------------------------------------------------|------------16-------------------16-----|
A|-----------------------------------------------------|----------------------------------------|
E|-----------------------------------------------------|----------------------------------------|

6/4
e|--------14-------------14------------------------------------------------------------|------|
B|----------14-14-17b19----17-14-----14-17-14--14--------------------------------------|------|
G|-16b18------------------------16b18--------17--17-16-14--14h16p14--------------------|------|
D|-------------------------------------------------------16--------16-14---------------|------|
A|----------------------------------------------------------------------16-14-12-14-12-|------|
E|-------------------------------------------------------------------------------------|14----|


[Solo - Rhythm Guitar] play similar to chorus riff:
e|-------------------------|-------------------------|
B|-------------------------|-------------------------|
G|-------------------------|-------------------------|
D|-4-----3--2--3--4-----2--|-3--4--3--2--5-----3-----|
A|-4-----3--2--3--4-----2--|-3--4--3--2--5-----3-----|
E|-2-----------------------|-------------3-----1-----|
* * * * * * * * *

e|-------------------------|-------------------------|
B|-------------------------|-------------------------|
G|-------------------------|-------------------------|
D|-4-----3--2--3--4-----2--|-3--4--3--2--5-----3-----|
A|-4-----3--2--3--4-----2--|-3--4--3--2--5-----3-----|
E|-2-----------------------|-------------3-----1-----|
* * * * * * * * *

e|-------------------------|-------------------------|
B|-------------------------|-------------------------|
G|-------------------------|-------------------------|
D|-4-----3--2--3--4-----2--|-3--4--3--2--5-----3-----|
A|-4-----3--2--3--4-----2--|-3--4--3--2--5-----3-----|
E|-2-----------------------|-------------3-----1-----|
* * * * * * * * *

6/4 4/4 again
e|------------------------------------|-----------------------|-----------------------|
B|------------------------------------|-----------------------|-----------------------|
G|------------------------------------|-----------------------|-----------------------|
D|-4-----3--2--3--4-----2--3--4--3--2-|-5----------2----------|-(2)-------------------|
A|-4-----3--2--3--4-----2--3--4--3--2-|-5----------2----------|-(2)-------------------|
E|-2----------------------------------|-3----------0----------|-(0)-------------------|
* * * * * * * * *

e|--------------------------------|--------------------------------|------------------------|
B|--------------------------------|--------------------------------|------------------------|
G|--------------------------------|--------------------------------|------------------------|
D|-4------------4--4------------4-|-4------------4--4------------4-|-5----------2-----------|
A|-4------------4--4------------4-|-4------------4--4------------4-|-5----------2-----------|
E|-2--2.2N-2.2N-2--2--2.2N-2.2N-2-|-2--2.2N-2.2N-2--2--2.2N-2.2N-2-|-3----------0-----------|

e|--------------------------------|--------------------------------|
B|--------------------------------|--------------------------------|
G|--------------------------------|--------------------------------|
D|-4------------4--4------------4-|-4------------4--4------------4-|
A|-4------------4--4------------4-|-4------------4--4------------4-|
E|-2--2.2N-2.2N-2--2--2.2N-2.2N-2-|-2--2.2N-2.2N-2--2--2.2N-2.2N-2-|

6/4
e|-------------------------------------|
B|-------------------------------------|
G|-------------------------------------|
D|-5--5--5--5--2--2--2--2--5~----3-----|
A|-5--5--5--5--2--2--2--2--5~----3-----|
E|-3--3--3--3--0--0--0--0--3~----1-----|
* * * * * * * *


[Final Chorus]
* * * * * * * * *
e|-------------------------|-------------------------|
B|-------------------------|-------------------------|
G|-------------------------|-------------------------|
D|-4-----3--2--3--4-----2--|-3--4--3--2--5-----3-----|
A|-4-----3--2--3--4-----2--|-3--4--3--2--5-----3-----|
E|-2-----------------------|-------------3-----1-----|
"Hear your thunder"

* * * * * * * * *
e|-------------------------|-------------------------|
B|-------------------------|-------------------------|
G|-------------------------|-------------------------|
D|-4-----3--2--3--4-----2--|-3--4--3--2--5-----3-----|
A|-4-----3--2--3--4-----2--|-3--4--3--2--5-----3-----|
E|-2-----------------------|-------------3-----1-----|
"Still feeding back"

* * * * * * * * *
e|-------------------------|-------------------------|
B|-------------------------|-------------------------|
G|-------------------------|-------------------------|
D|-4-----3--2--3--4-----2--|-3--4--3--2--5-----3-----|
A|-4-----3--2--3--4-----2--|-3--4--3--2--5-----3-----|
E|-2-----------------------|-------------3-----1-----|
"Still hear your thunder"

* * * * * * * * *
e|-------------------------|------------------------|-------------------------|
B|-------------------------|------------------------|-------------------------|
G|-------------------------|------------------------|-------------------------|
D|-4-----3--2--3--4-----2--|-3--4--3--4-----4-------|-------------4--5--4-----|
A|-4-----3--2--3--4-----2--|-3--4--3--4--3-----3----|-3~----3~----2--3--2-----|
E|-2-----------------------|------------------------|-------------------------|
"The man in black born to lose"

6/4
e|-------------------------|-----------------------------------|
B|-------------------------|-----------------------------------|
G|-------------------------|-----------------------------------|
D|-------------------------|----4------------------------------|
A|-5--6--------------------|-3-----3~----3~----3~---5--6--5----|
E|-3--4--3~~~~~------------|------------------------3--4--3----|
"No excuse, till the end been living to win"



[Ending]
e|--------------------|--------------------|-------------------|---------------------|
B|--------------------|--------------------|-------------------|---------------------|
G|--------------------|--------------------|-------------------|---------------------|
D|---4---------4-3~---|---4---------4-3~---|---4--------4-3~---|-4----4----5----2----|
A|---------------3~---|---------------3~---|--------------3~---|-2----2----3----0----|
E|-2---2---0h2--------|-2---2---0h2--------|-2---2--0h2--------|---------------------|

e|--------------------|--------------------|-------------------|
B|--------------------|--------------------|-------------------|
G|--------------------|--------------------|-------------------|
D|---4---------4-3~---|---4---------4-3~---|---4--------4-3~---|
A|---------------3~---|---------------3~---|--------------3~---|
E|-2---2---0h2--------|-2---2---0h2--------|-2---2--0h2--------|

e|------------------------|------------------------|
B|------------------------|------------------------|
G|------------------------|------------------------|
D|-----------------*-*-*--|-----------------*-*-*--|
A|-------------5---4-4-4--|-------------5---4-4-4--|
E|-2p0-2p0-2p0-3---2-2-2--|-2p0-2p0-2p0-3---2-2-2--|

e|-----------------------|------------------------|
B|-----------------------|------------------------|
G|-----------------------|------------------------|
D|-------0----------0----|-------0----------------|
A|----4----------5-------|----10------------------|
E|-2----------3----------|-8----------7-8-7tr8----|

e|------------------------|------------------------|
B|------------------------|------------------------|
G|------------------------|------------------------|
D|-----------------*-*-*--|------------------------|
A|-------------5---4-4-4--|---------4-4-4----------|
E|-2p0-2p0-2p0-3---2-2-2--|-2p0-2p0-2-2-2----------|




Key:
| / slide up
| \ slide down
| * palm muted notes, either above or below measure
| h hammer-on
| p pull-off
| ~ vibrato
| N natural harmonic
| tr trill, or alternating hammer-ons and pull offs as needed
| () ghost note - note hit lightly, occasionally used to show notes
that ring into the next measure



Song info
One
Metallica
2001
  • Rock
  • Speed Metal
  • Thrash
Alternative tracks
Similar songs

Hi! Hope you enjoy backing track experience.
If you want to help us in the development of the project, feel free to donate!