Turn The Page - Metallica
00:00 / 00:00
Tabs and lyrics
Tunning: Standard (E A D G B e)
TURN THE PAGE
As recorded by Metallica (cover)
(From the 1998 Album GARAGE INC)

Music by Bob Saeger

Gtr I (Eb Ab Db Gb Bb Eb)
Gtr II (Eb Ab Db Gb Bb Eb)
Gtr III (Eb Ab Db Gb Bb Eb)
Gtr IV (Eb Ab Db Gb Bb Eb)


[Intro]

Moderately Slow Q=74
4/4
Gtr II
|-------|--------------------------------|----------------------/15s====|
|-------|--------------------------------|------------------------------|
|-------|--------------------------------|------------------------------|
|-------|--------------------------------|------------------------------|
|-------|--------------------------------|------------------------------|
|-------|--------------------------------|------------------------------|
|
| Gtr I
|-------|-^0----(0)---0-(0)-0-0-0--------|-----------0-(0)-0--0---------|
|-------|-^0----(0)---0-(0)-0-0-0--------|-----------0-(0)-0--0---------|
|-------|-^0----(0)---0-(0)-0-0-0--------|-----------0-(0)-0--0---------|
|-------|-^2----(2)---2-(2)-----------2--|---------------------------2--|
|-------|-^2----(2)----------------------|---------2--------------------|
|-------|-^0----(0)---------------0h3----|-0----0-----------------0-----|


~~~~~~~~~~ ~~~~~~~~~ ~~
|-14----(14)-(14)s10---(10)--------------|------------------------------|
|------------------------------------10s=|=12---------------------------|
|----------------------------------------|----------12s==11s======7s====|
|----------------------------------------|------------------------------|
|----------------------------------------|------------------------------|
|----------------------------------------|------------------------------|
|
|-^0---------------0-0--(0)-0--0---------|-------------0-(0)-0--0-0--0--|
|-^0---------------0-0--(0)-0--0---------|-------------0-(0)-0--0-0--0--|
|-^0---------------0-0--(0)-0--0---------|-------------0-(0)-0--0-0--0--|
|-^2----------------------------------2--|-----------2------------------|
|----------------------------------------|-------2----------------------|
|--------------------------------0h3-----|--0---------------------------|


[ Verse 1]
~~~~~~~~~~~~~~~~~~~~~~~~~~~~~~~~~~
|-----------------------------|-----------------------------|
|-----------------------------|-----------------------------|
|-9---------------------------|-(9)----------------7s9s=====|
|-----------------------------|-----------------------------|
|-----------------------------|-----------------------------|
|-----------------------------|-----------------------------|
|
| ~
|-0----------------0-0--------|--------------------0--------|
|-0-------0-0-(0)--0-0--------|------------0-(0)---0--------|
|-0-------0-0-(0)--0-0--------|------------0-(0)---0--------|
|-2-------2-2-(2)----------2--|------------2-(2)---------2--|
|-2---------------------------|--------2--------------------|
|-0----0---------------0h3----|--0-------------------0h3----|


~~~~~~~~~~~~~~~~~~~~~~~~~~~~~~~~~
|----------------------------|--------------------------------|
|----------------------------|--------------------------------|
|-7--------------------------|-(7)----------------------------|
|----------------------------|-------------------------5s=====|
|----------------------------|--------------------------------|
|----------------------------|--------------------------------|
|
|----------0-(0)-0--0--------|-------0-----2-(2)-2-2-2-2------|
|------3---3-(3)-3--3--------|---------3---3-(3)-3-3-3-3------|
|------2---------2--2--------|---------2---2-(2)-2-2-2-2------|
|-0----0--------------0--0h2-|--0-------------------------0h2-|
|----------------------------|--------------------------------|
|----------------------------|--------------------------------|


~~~~~~~~~~~~~~~~~~~~~~~~~~~~~~~~~~
|-----------------------------|------------------------------|
|-----------------------------|------------------------------|
|-----------------------------|----------------------12s=====|
|-7---------------------------|-(7)--------------------------|
|-----------------------------|------------------------------|
|-----------------------------|------------------------------|
|
|-----------------------------|------------------------------|
|-----------3-(3)-2--2-2--2-2-|--------2--2-2-2--2-2---------|
|---------2-------2--2-2--2-2-|--------2--2-2-2--2-2---------|
|------2----------------------|--------2--2-2-2--2-2------2--|
|-0---------------------------|--0---------------------------|
|-----------------------------|-----------------------0h3----|


~~ ~~~~~~~~
|---------------------------------|--------------------------|
|---------------------------------|--------------------------|
|-11----(11)s=7---(7)-------------|--------------------------|
|-----------------------------7s==|=9---------(9)\-----------|
|---------------------------------|--------------------------|
|---------------------------------|--------------------------|
|
|-------------0-0--0--0---0-0-----|---------0-(0)--0--0-0----|
|-------------0-0--0--0---0-0-----|---------0-(0)--0--0-0----|
|-------------0-0--0--0---0-0-----|---------0-(0)--0--0-0----|
|---------------------------------|--------------------------|
|---------------------------------|--------------------------|
|--0--------------------------0h3-|-0------------------------|


PM PM
|----------------------------|---------------------------------|
|----------------------------|---------------------------------|
|----------------------------|---------------------------------|
|------9----9-(9)---9-9---9--|-------9----9-----9-9---9-9-9-\7-|
|------7----7-(7)---7-7---7--|-------7----7-----7-7---7-7-7-\5-|
|-0-------0------------------|-0--0-----0-----------0----------|
|
| Gtr III
|----------------------------|------------0-(0)-----0----------|
|----------------------------|------------0-(0)-----0----------|
|----------------------------|---------------------------------|
|-2-------2-2-(2)---2-----2--|-------2--------------------2p=0-|
|-2-------2-2-(2)---2--------|----2----------------------------|
|-0-------0-0-(0)---0-0h3----|-0----------------------0h3------|


|--------------------------|-----------------------------|
|--------------------------|-----------------------------|
|--------------------------|-----------------------------|
|-7----7--x-7---7-7--7--7--|-7---7-7--7-7---7-7--7-7-7-7-|
|-5----5--x-5---5-5--5--5--|-5---5-5--5-5---5-5--5-5-5-5-|
|--------------------------|-----------------------------|
|
|------2--2-2-0-2----------|------------2h3-2----2---2---|
|------3--3-3-3-3----3-----|-------3----3---3----3---3---|
|------2--2-2-2-2----------|-2-------------------2---2---|
|-0------------------------|---------------------0---0---|
|--------------------------|-----------------------------|
|--------------------------|-----------------------------|


|---------------------------|-------------------------------|
|---------------------------|-------------------------------|
|---------------------------|-------------------------/12s==|
|-2---------------------0-0-|-2--2--2--2-2---2-2---2--------|
|-0---------------------0-0-|-0--0--0--0-0---0-0---0--------|
|---------------------------|-------------------------------|
|
| ~~~~
|---------------------------|-------------------------------|
|-------2---3p2---------2h3-|------------2h3p2-2-2-2--------|
|----2----------2----2------|-2-----2--2-2-----2-2-2--------|
|-2---------------2---------|-2-----2--2-------2-2-2--------|
|-0-------------------------|-0-----0--0--------------------|
|---------------------------|---------------------------3---|


~~ ~~~~~~~~ ~
|----------------------------------|----------------------------|
|----------------------------------|----------------------------|
|-11----(11)s==7---(7)-------------|------------9\--------------|
|-------------------------------7s=|=9--------------------------|
|----------------------------------|----------------------------|
|----------------------------------|----------------------------|
|
|---------0--0---0--0--0-0---------|----------------------------|
|---------0--0---0--0--0-0---------|---------------0--0-0-0-0-0-|
|---------0--0---0--0--0-0---------|---------------0--0-0-0-0-0-|
|---------2--2---2--2--2-2------2--|------2---2-2--2--2-2-2-2-2-|
|----------------------------------|------2---2-2--2--2-2-2-2-2-|
|--0------------------------0h3----|-0----0---0-0---------------|


[ Chorus]

|----------------------------|---------------------------|
|----------------------------|---------------------------|
|----------------------------|---------------------------|
|-7----7--x-7---7-7--7---7---|----2--2--x-2---2-2--2--2--|
|-5----5--x-5---5-5--5---5---|-2-----2--x-2---2-2--2--2--|
|----------------------------|-0-----0--x-0---0-0--0--0--|
|
| PM PM PM PM PM|
|----------------------------|---------------------------|
|----------------------------|---------------------------|
|-7----7------7---7----7-7---|---------------------------|
|-7----7------7---7----7-7---|----2--2----2-----2--2--2--|
|-5----5------5---5----5-5---|-2-----2----2-----2--2--2--|
|-----------5---5----5-----0-|-0-----0--0-0-0-0-0--0--0--|


|----------------------------|-------------------------------|
|----------------------------|-------------------------------|
|----------------------------|-------------------------------|
|-7----7--x-7---7-7--7---7---|-2------2--x-2-----2-2--2---2--|
|-5----5--x-5---5-5--5---5---|-2------2--x-2-----2-2--2---2--|
|----------------------------|-0--0---0--x-0-----0-0--0---0--|
|
| PM PM PM PM PM PM|
|----------------------------|-------------------------------|
|--------------------------0-|-------------------------------|
|-7----7------7---7--7-7---0-|-------------------------------|
|-7----7------7---7--7-7---0-|-2------2----2-(2)---2------2--|
|-5----5------5---5--5-5-----|-2------2----2-(2)---2------2--|
|-----------5---5------------|-0----0-0--0-0-(0)-0-0--0-0-0--|


|-------------------------------|-----------------------------|
|-------------------------------|-----------------------------|
|-------------------------------|----2h4-2p0------------------|
|-7----7--x-7---7-7--7-7-x--x---|-2------------2--2-2---2--2--|
|-5----5--x-5---5-5--5-5-x--x---|-0------------0--0-0-0-0--0--|
|-------------------------------|-----------------------------|
|
| PM PM PM
|-------------------------------|-----------------------------|
|-------------------------------|--------2---2-3--2-----------|
|-7----7------7---7----7---(7)\-|-2------2---2-2--2-----2--2--|
|-7----7------7---7----7---(7)\-|-2------2---2-2--2-----2--2--|
|-5----5------5---5----5---(5)\-|-0---------------------0--0--|
|-----------5---5----5----------|-----------------------------|


~~
|-----------------|------------/15s==14------(14)S==10---|
|-----------------|--------------------------------------|
|-----------------|-------/12----------------------------|
|-5---5---7---7---|--------------------------------------|
|-3---3---5---5---|-7------------------------------------|
|-----------------|-0------------------------------------|
|
|-----------------|---------0------0--0-0-0--------------|
|-----------------|---------0------0--0-0-0--------------|
|-5---5---7---7---|---------0------0--0-0-0--------------|
|-5---5---7---7---|----2-----------------------------2-2-|
|-3---3---5---5---|-2------------------------------------|
|-----------------|-0--------------------------0h=3------|


|-(10)---------------------------------|
|-------10s=======12-------(12)\-------|
|--------------------------------------|
|--------------------------------------|
|--------------------------------------|
|--------------------------------------|
|
|---------------0-(0)------------------|
|---------------0-(0)------------------|
|---------------0-(0)------------------|
|----------------------------2---------|
|--------------------------------------|
|---0-------0----------0h3--------7\---|


[Verse 2]

|---------------------------|----------------------------|
|---------------------------|----------------------------|
|---------------------------|----------------------------|
|-------9----9---9-9--9--9--|--------9----9---9-9--9--9--|
|-------7----7---7-7--7--7--|--------7----7---7-7--7--7--|
|-0--0-----0---0------------|-0--0------0----------------|
|
|-------0-------------------|----------------------0-----|
|-------0-------------------|----------------------0-----|
|-------0-------------------|----------------------0-----|
|-2-------------------------|-2--2-2-2--2-2-2---2--------|
|-2-------------------------|-2--2-2-2--2-2-2---2--------|
|-0-------------------------|-0--0-0-0--0-0-0---0--------|


|-------------------------|--------------------------|
|-------------------------|--------------------------|
|-------------------------|--------------------------|
|-7------x-7--7-7--7--x-x-|-7----7--x-7--7-7--7--7---|
|-5------x-5--5-5--5--x-x-|-5----5--x-5--5-5--5--5---|
|-------------------------|--------------------------|
|
| PM|
|-------------------------|--------------------------|
|-------------------------|--------------------------|
|-7-----------------------|-7-----------------7--7\--|
|-7-----------------------|-7-----------------7--7\--|
|-5-------------------5-5-|-5-----------------5--5\--|
|-------------------------|--------------------------|


|------------------------------|--------------------------/15s==|
|------------------------------|--------------------------------|
|--------------------------2p0-|-2------------------------------|
|-2------------------------2p0-|-2----2--2-2--2---2-2-2---------|
|-0----0--0-0--0---0-0-0-------|-0----0--0-0--0---0-0-0---------|
|------------------------------|--------------------------------|
|
| PM
|------------------------------|--------------------------------|
|----------------------3p2-----|----------------------3p2-------|
|-2-----------(2)--------------|-2-----------(2)----------------|
|-2-----------(2)--------------|-2-----------(2)----------------|
|-0-----------(0)--0-0---------|-0-----------(0)----------------|
|------------------------------|------------------0-------------|


~~ ~~~
|-14-------(14)s15s14S===10S=====|=12-------------12\------------|
|--------------------------------|-------------------------------|
|--------------------------------|-------------------------------|
|--------------------------------|-------------------------------|
|--------------------------------|-------------------------------|
|--------------------------------|-------------------------------|
|
| ~~~~~~~~~
|-------0------------------------|-------------------------------|
|-------0------------------------|-------------------------------|
|-------0------------------------|-------------------------------|
|-----------------------------2--|-(2)-----------------2--2p0-0--|
|--------------------------------|-------------------------------|
|--0----------------------0h3----|------0--0--0-0--0h3-----------|


|--------------------------|-------------------------|
|--------------------------|-------------------------|
|--------------------------|-------------------------|
|------9----9--9-9--9--9-9-|-9----9--x-9--9-9--9--9--|
|------7----7--7-7--7--7-7-|-7----7--x-7--7-7--7--7--|
|-0-------0----------------|-------------------------|
|
|------0-------------------|-------------------------|
|------0-------------------|-0-----------------------|
|------0-------------------|-0-----------------------|
|--------------------------|-2-----------------------|
|--------------------------|-------------------------|
|-0------------------------|-------------------------|


|---------------------------|-----------------------------|
|---------------------------|-----------------------------|
|---------------------------|-----------------------------|
|-7----7--x-7--7-7--7-7-7---|-7----7--x-7-----7-7--7---7--|
|-5----5--x-5--5-5--5-5-5---|-5----5--x-5-----5-5--5---5--|
|---------------------------|-----------------------------|
|
| PM--|
|---------------------------|-----------------------------|
|-----------------------7-x-|-7---------------------------|
|-7---------------------7-x-|-7--------------------7------|
|-7---------------------7-x-|-7--------------------7------|
|-5---------------------5-x-|-5-------5-5-(5)------5-0-0--|
|---------------------------|-----------------------------|


|-----------------------------|---------------------------------|
|-----------------------------|----------------------------/8s==|
|-------------------------2p0-|-2-----2--0-2--------------------|
|------2--0-2-------------2p0-|-2--2-----0-2-----2-2---2--------|
|-0----0--0-0---0-0-0-0-------|------------------0-0---0--------|
|-----------------------------|---------------------------------|
|
|-----------------------------|---------------------------------|
|---------------------3-2h==3-|--------------------2h3-3p2------|
|-2---------------------------|-2-------------------------------|
|-2---------------------------|-2----------------2--------------|
|-0-------0-0-0---0-0---------|----------0---(0)----------------|
|-----------------------------|---------------------------------|


~ ~~~~~~~~~~~~~~~~~~~
|------------------------------|-----------------12------(12)\----|
|-7-----(7)S=8--(8)S===10S=====|=12-------------------------------|
|------------------------------|----------------------------------|
|------------------------------|----------------------------------|
|------------------------------|----------------------------------|
|------------------------------|----------------------------------|
|
|--------0---------------------|----------------------------------|
|--------0---------------------|----------------------------------|
|--------0---------------------|----------------------------------|
|--------2------------------2--|-(2)-------2---2------2-----------|
|------------------------------|----------------------------------|
|-0--0------------------0h3----|-----0-0h3--------0h3-----12\-----|


[Chorus]

|----------------------------|-----------------------------|
|----------------------------|-----------------------------|
|----------------------------|-----------------------------|
|-7----7--x-7---7-7--7-7-7-7-|-2--x-2-2--x-2---2-----2--2--|
|-5----5--x-5---5-5--5-5-5-5-|-2--x-2-2--x-2---2-----2--2--|
|----------------------------|-0--x-0-0--x-0---0-0-0-0--0--|
|
| PM PM PM PM PM|
|----------------------------|-----------------------------|
|----------------------------|-----------------------------|
|-7----7------7---7----7-7---|-----------------------------|
|-7----7------7---7----7-7---|----2---2----2-----2---2--2--|
|-5----5------5---5----5-5---|-2------2----2-----2---2--2--|
|-----------5---5----5-----0-|-0------0--0-0-0-0-0---0--0--|


~~~~~~~~~~~~~~~~~~~~~~~~~
|--------------------12s10-------12-|-(12)------------(12)---(12)\----------|
|--------------------------10s12----|---------------------------------------|
|-----------------------------------|-----------------------------------0---|
|-7----7--x-7---7-7-----------------|---------------------------------------|
|-5----5--x-5---5-5-----------------|---------------------------------------|
|-----------------------------------|---------------------------------------|
|
| PM PM PM PM PM PM|
|-----------------------------------|---------------------------------------|
|---------------------------------0-|---------------------------------------|
|-7----7------7---7---7--7--------0-|---------------------------------------|
|-7----7------7---7---7--7--------0-|---2------2----2--(2)-----2--------2---|
|-5----5------5---5---5--5----------|---2------2----2--(2)-----2--------2---|
|-----------5---5-------------------|---0----0-0--0-0--(0)-0---0----0-0-0---|


|------------------------------|
|------------------------------|
|------------------------------|
|-7---7--x-7---7-7--7---7------|
|-5---5--x-5---5-5--5---5------|
|------------------------------|
|
| PM PM PM
|------------------------------|
|------------------------------|
|-7---7------7---7----7---(7)\-|
|-7---7------7---7----7---(7)\-|
|-5---5------5---5----5---(5)\-|
|----------5---5----5----------|


~~~ ~~
|------------------------|------------------------------|
|------------------------|------------------------------|
|------------------------|------------------------------|
|-2----2--x-2--2-2--2--2-|-/10----10s=7S=12-------(12)\-|
|-0----0--x-0--0-0--0--0-|------------------------------|
|------------------------|------------------------------|
|
|------------------------|------------------------------|
|------2--2-3--2---------|------------------------------|
|-2----2--2-2--2----2--2-|---5-----5------7----7--------|
|-2----2--2-2--2----2--2-|---5-----5------7----7--------|
|-0-----------------0--0-|---3-----3------5----5--------|
|------------------------|------------------------------|


|-----12-12-----12\------12-(12)\-----12-12\-----12-12\--|
|-/12-------/12------/12-12-(12)\-/12--------/12---------|
|--------------------------------------------------------|
|--------------------------------------------------------|
|--------------------------------------------------------|
|--------------------------------------------------------|
|
| ~~~~~
|--------------------------------------------------------|
|--------------------------------------------------------|
|--------------------------------------------------------|
|---2------------2-----------------------------------2---|
|---2------------2---------------------------------------|
|---0------------0------------0--------0-------0h=3------|


|-/15---(15)s10S17--(17)s12-12s10-------12-(12)----(12)\-|
|---------------------------------10s12-12-(12)----(12)\-|
|--------------------------------------------------------|
|--------------------------------------------------------|
|--------------------------------------------------------|
|--------------------------------------------------------|
|
|~~~~~~ ~~ ~~~~~~~~~~
|--------------------------------------------------------|
|--------------------------------------------------------|
|--------------------------------------------------------|
|--(2)-----------2--------2-----------2-----(2)-9\-------|
|-----------------------------------------------7\-------|
|---------0h==3--------------0h=3------------------------|


[Verse 3]

PM----| PM PM| PM PM| PM
|-----------------------------|------------------------------|
|-----------------------------|------------------------------|
|-----------------------------|------------------------------|
|-------9----------9---9------|-9------9----9-----9---9--9s7-|
|-------7----------7---7--5s7-|-7------7----7-----7---7--7s5-|
|-0--0-----0-0-0-0---0----0---|-0--0-0----0---0-0---0--------|
|
| PM------| PM| PM PM|
|-------0---------------------|------------------------------|
|-------0---------------------|------------------------------|
|-----------------------------|------------------------------|
|-2---------------------------|-----------------------2--2---|
|-2------------2-------2------|-2------2----2-----2---2--2---|
|-0--------0---0-0-0---0--3p0-|-0--0-0-0--0-0-0-0-0-0-0--0---|


|--------------------------------|----------------12\-------------|
|--------------------------------|-----------/12------------------|
|--------------------------------|--------------------------------|
|-7----7-7--x-7---7-7---7------7-|-7----7-7-----------------------|
|-5----5-5--x-5---5-5---5------5-|-5----5-5-----------------------|
|--------------------------------|--------------------------------|
|
| PM| PM|
|--------------------------------|--------------------------------|
|--------------------------------|--------------------------------|
|-7--7---7--7-7-----7--(7)-7-----|-7--7-7-7----7---7--x-7--7--7\--|
|-7--7---7--7-7-----7--(7)-7-----|-7--7-7-7----7---7--x-7--7--7\--|
|-5--5---5--5-5-----5--(5)-5-----|-5--5-5-5----5---5--x-5--5--5\--|
|---------------5-5----------5-5-|--------------------------------|


~~~~~~~~~~~~~~~~~~~~~~~~~~~~~~~~
|-----------------------------|-----------------------------/15s==|
|-----------------------------|-----------------------------------|
|-----------------------------|-----------------------------------|
|-/7--------------------------|-/7--------------------(7)/--------|
|-----------------------------|-----------------------------------|
|-----------------------------|-----------------------------------|
|
|-----------------------------|-----------------------------------|
|--2--2--2--2--2-2-2-2-2-2--2-|--2-2-2--2--2-2--2-2-2--2----------|
|--2--2--2--2--2-2-2-2-2-2--2-|--2-2-2--2--2-2--2-2-2--2----------|
|--2--2--2--2--2-2-2-2-2-2--2-|--2-2-2--2--2-2--2-2-2--2----------|
|--0--0--0--0--0-0-0-0-0-0--0-|--0-0-0--0--0-0--0-0-0--0----------|
|-----------------------------|-------------------------------3p0-|


~~ ~~~~~~~~ ~~
|-14------(14)S=10--(10)-------------|---------------------------------|
|--------------------------------10s=|=12---------------------(12)\----|
|------------------------------------|---------------------------------|
|------------------------------------|---------------------------------|
|------------------------------------|---------------------------------|
|------------------------------------|---------------------------------|
|
|-----------0--------(0)-------------|---------------------------------|
|-----------0--------(0)-------------|---------------------------------|
|-----------0--------(0)----------2--|-------2-2-2-2-(2)-2-2-----------|
|--2------------------------------2--|--2----2-2-2-2-(2)-2-2-----------|
|----2-------------------------------|---------------------------------|
|------0------------------0--3p0-----|---------------------------------|


Gtr III
>
|------------------|--------|
|------------------|--------|
|------------------|--------|
|-2----------------|-(2)----|
|-2----------------|-(2)----|
|-0----------------|-(0)----|


|------------------|-----------------------------|
|------------------|-----------------------------|
|------------------|-----------------------------|
|------------------|----------------12-----(12)--|
|------------------|-----------------9b10===(9)r=|
|------------------|-----------------------------|


[Interlude]

|--------------------------------------------|
|--------------------------------------------|
|--------------------------------------------|
|-(12)-----------(12)\---7-(7)-(7)-7----(7)\-|
|--(9)------------(9)\---5h=7--(7)-5----(5)\-|
|--------------------------------------------|
|
| Gtr II
|--------------------------------------------|
|--------------------------------------------|
|--------------------------------------------|
|---7-----7--x-7-------7-7------7--7-7\------|
|---5-----5--x-5-------5-5------5--5-5\------|
|--------------------------------------------|


|----------------------------------------------|
|----------------------------------------------|
|----------------------------------------------|
|-2--------2----------------------12-----(12)--|
|-2--------------------------------9b10===(9)r=|
|-0----3p0---0-(0)-0-<3>-<4>-<5>---------------|
|
|----------------------------------------------|
|----------------------------------------------|
|----------------------------------------------|
|-2----2---x-2-----2--2-------2----2-----------|
|-2----2---x-2-----2--2-------2----2-----------|
|-0----0---x-0-----0--0-------0----0-----------|


|----------------------------------------------|
|----------------------------------------------|
|----------------------------------------------|
|-(12)-----------(12)\---7-(7)-(7)---7----(7)\-|
|--(9)------------(9)\---5h=7--(7)-5h7----(7)\-|
|----------------------------------------------|
|
|----------------------------------------------|
|----------------------------------------------|
|----------------------------------------------|
|---7-----7--x-7-------7-7------7----7-7\------|
|---5-----5--x-5-------5-5------5----5-5\------|
|----------------------------------------------|


|--------------------------------------------|
|--------------------------------------------|
|--------------------------------------------|
|-2---------2---(2)------------12-----(12)---|
|-2-----------------------------9b10===(9)r==|
|-0---0-3p0---------0-3p0-(0)----------------|
|
|--------------------------------------------|
|--------------------------------------------|
|--------------------------------------------|
|-2-----2---x-2-----2-2----2----2------------|
|-2-----2---x-2-----2-2----2----2------------|
|-0-----0---x-0-----0-0----0----0------------|


|----------------------------------------------|
|----------------------------------------------|
|----------------------------------------------|
|-(12)-----------(12)\---7-(7)-(7)---7----(7)\-|
|--(9)------------(9)\---5h=7--(7)-5h7----(7)\-|
|----------------------------------------------|
|
|----------------------------------------------|
|----------------------------------------------|
|----------------------------------------------|
|---7-----7--x-7-------7-7------7----7-7\------|
|---5-----5--x-5-------5-5------5----5-5\------|
|----------------------------------------------|


PM------|
|-----------------------------------------|
|-----------------------------------------|
|-----------------------------------------|
|-2---------2---(2)-----------12----(12)--|
|-2----------------------------9b10r=(9)--|
|-0---0-3p0---------0-0-0-0-0-------------|
|
|-----------------------------------------|
|-----------------------------------------|
|-----------------------------------------|
|-2-----2---x-2-----2-2---2----2----------|
|-2-----2---x-2-----2-2---2----2----------|
|-0-----0---x-0-----0-0---0----0----------|


~~
|-----------------------------------|
|-----------------------------------|
|-----------------------------------|
|-10---------10h12-12---------------|
|-10-----10---------9------9h10-9s7-|
|-----------------------------------|
|
|-----------------------------------|
|-----------------------------------|
|-----------------------------------|
|--5--5---5---5-----7-7-7--7----7---|
|--3--3---3---3-----5-5-5--5----5---|
|-----------------------------------|


PM|
|--------------------------------------------|
|--------------------------------------------|
|-------9--9-9-(9)\--------------------------|
|-9-----9--9-9-(9)\---x-x-12-12-12-----(12)--|
|-7-----7--7-7-(7)\---x-x-10-10--9b10===(9)r=|
|---------------------x-x--------------------|
|
| PM PM
|--------------------------------------------|
|--------------------------------------------|
|--------------------------------------------|
|-9-----9----9------9-9-9--9--9--9s======7---|
|-7-----7----7------7-7-7--7--7--7s======5---|
|----0-----0---------------------------------|


[Guitar Solo]

Gtr IV
|-----------------------------------------------------------|
|-----------15b17r=(15)---(15)---15-----(15)----------------|
|--------------------------------------------12b14====(12)r-|
|-----------------------------------------------------------|
|-----------------------------------------------------------|
|-----------------------------------------------------------|
|
| Gtr III
|-----------------------------------------------------------|
|-----------------------------------------------------------|
|-----------------------------------------------------------|
|-(12)--------------------(12)\---7-(7)--(7)--7--------(7)\-|
|--(9)---------------------(9)\---5h=7---(7)--5--------(5)\-|
|-----------------------------------------------------------|
|
| Gtr II
| PM| PM-| PM| PM|
|-----------------------------------------------------------|
|-----------------------------------------------------------|
|-----------------------------------------------------------|
|---7--------7--------------7-------------7-----------------|
|---5---5-5--5-------5--5---5-----5--5----5---------5---5---|
|-----------------------------------------------------------|


~~ PM----|
|-------------------------------------------------------|
|-------------------12--12\-----------------------------|
|-------------------12--12\-----------------------------|
|-14----------12h14-------------------------------------|
|-------------------------------------------------------|
|------------------------------------0--0---0-----------|
|
|-------------------------------------------------------|
|-------------------------------------------------------|
|-------------------------------------------------------|
|--2-----------2---------------------------12-----(12)--|
|--2----------------------------------------9b10===(9)r=|
|--0------3p0-----0-(0)--0--<3>-<4>-<5>-----------------|
|
| PM| PM| PM-| PM----|
|-------------------------------------------------------|
|-------------------------------------------------------|
|-------------------------------------------------------|
|--9------9----------9---------------7h=9---------------|
|--7------7----------7---------------7-(7)--------------|
|-----0-0------0--0----------0---0----------0-------0---|


|-------------------------------------------------------------------------------------------------|
|-------------------15b17====(15)r==(15)-------(15)-----------------------------------------------|
|---------------------------------------------------------14b16====(14)r==(14)--------------------|
|-------------------------------------------------------------------------------------------------|
|-------------------------------------------------------------------------------------------------|
|-------------------------------------------------------------------------------------------------|
|
|-------------------------------------------------------------------------------------------------|
|-------------------------------------------------------------------------------------------------|
|-------------------------------------------------------------------------------------------------|
|-(12)-----------------------------------------(12)\-------7--------(7)----(7)-----7-------(7)\---|
|--(9)------------------------------------------(9)\-------5h========7-----(7)---5h7-------(7)\---|
|-------------------------------------------------------------------------------------------------|
|
| PM--| PM---| PM------| PM--|
|-------------------------------------------------------------------------------------------------|
|-------------------------------------------------------------------------------------------------|
|-------------------------------------------------------------------------------------------------|
|---7----------------7---------------------------7--------------------------7---------------------|
|---5-------5---5----5----------------5----5-----5---------5---------5------5----------5----5-----|
|-------------------------------------------------------------------------------------------------|


|------------------------------------------------------------------------------------------------------------|
|----------------------------------------------------------------------------------------------15------------|
|12b14====(12)r==(12)------------------------------------------12h==14---14pb16r==(14)p====12--14b15---------|
|-----------------------------------14b16====(14)r==(14)-----------------------------------------------------|
|----------------------------------------------------------0-------------------------------------------------|
|------------------------------------------------------------------------------------------------------------|
|
|------------------------------------------------------------------------------------------------------------|
|------------------------------------------------------------------------------------------------------------|
|------------------------------------------------------------------------------------------------------------|
|-2----------------------------------2---------------(2)---------------------------------------12-------(12)-|
|-2---------------------------------------------------------------------------------------------9b10=====(9)r|
|-0---------------------0---3p==0--------------------------0----3p===0---(0)---------------------------------|
|
| PM---| PM------| PM--| PM------|
|------------------------------------------------------------------------------------------------------------|
|------------------------------------------------------------------------------------------------------------|
|------------------------------------------------------------------------------------------------------------|
|-9-------------------------9-------------------------9-------------------7h============9--------------------|
|-7-------------------------7-------------------------7-------------------7------------(7)-------------------|
|------------------0----0------------0---------0----------------0----0--------------------------0---------0--|


|------------------------------------------------------------------|
|--15---15---15-15-12b13==(12)r------------------------------------|
|--14--------14-14-12b13==(12)r-----------------12------14b16------|
|--------------------------------14---12---------------------------|
|----------------------------------------14-12---------------------|
|------------------------------------------------------------------|
|
|------------------------------------------------------------------|
|------------------------------------------------------------------|
|------------------------------------------------------------------|
|-(12)--------------------------(12)\-----7-(7)-(7)---7-------(7)\-|
|--(9)---------------------------(9)\-----5h=7--(7)-5h7-------(7)\-|
|------------------------------------------------------------------|
|
| PM| PM----| PM| PM---|
|------------------------------------------------------------------|
|------------------------------------------------------------------|
|------------------------------------------------------------------|
|---7---------7-------------------7--------------7-----------------|
|---5----5-5--5-----5-------5-----5-------5--5---5-------5-----5---|
|------------------------------------------------------------------|


~~ ~~~~~~~~
|------------------------------------------------------------------|
|------------------------------------------------------------------|
|-12b13--------12-14---14pb16r(14)-(14)-----(14)\------------------|
|-------14----------------------------------------7s12--12h====14--|
|------------------------------------------------------------------|
|------------------------------------------------------------------|
|
| PM----------|
|------------------------------------------------------------------|
|------------------------------------------------------------------|
|------------------------------------------------------------------|
|--2-----------------2--------------(2)-----------------12----(12)-|
|--2-----------------------------------------------------9b10r=(9)-|
|--0---------0--3p=0--------------------0-0---0---0--0-------------|
|
| PM| PM| PM| PM---|
|------------------------------------------------------------------|
|------------------------------------------------------------------|
|------------------------------------------------------------------|
|--9------------9--------------------9------------7h=9-------------|
|--7------------7--------------------7------------7-(7)------------|
|----------0-0-------0--0-----------------0---0----------0------0--|


|-------------------------------------------------------------------------------------|
|----------------------------------------0--------------------------------------------|
|-12---12---------------------12---12---------------------11--------14b16r=(14)p==12--|
|-------------------12h==14---------------------12h==14-------------------------------|
|-------------------------------------------------------------------------------------|
|-------------------------------------------------------------------------------------|
|
| ~~
|-------------------------------------------------------------------------------------|
|-------------------------------------------------------------------------------------|
|-------------------------------------------------------------------------------------|
|-10--------------------------10h==12---12--------------------------------------------|
|-10----------------10-------------------9-----------------9h==10----9s=========7-----|
|-------------------------------------------------------------------------------------|
|
| PM--| PM--| PM--| PM---------|
|-------------------------------------------------------------------------------------|
|-------------------------------------------------------------------------------------|
|-------------------------------------------------------------------------------------|
|--5-----------------5-------------------7-----------------7--------------------------|
|--3--------3---3----3---------3----3----5-------5----5----5---------5----------5-----|
|-------------------------------------------------------------------------------------|


~ ~~~~~~~~~~~~~~~~~~~~~
|----------------------------------------------------------------------------|
|-----------------12-----------12-------15b17============(15)------(15)r\----|
|--9--------------12-----------12--------------------------------------------|
|----------------------------------------------------------------------------|
|----------------------------------------------------------------------------|
|----------------------------------------------------------------------------|
|
|----------------------------------------------------------------------------|
|----------------------------------------------------------------------------|
|----------------------------------------------------------------------------|
|--9----------7h===9-------7h===9--------7h======9---------9---------9-------|
|--7------7------------7------------7----------------7-----7---------7-------|
|----------------------------------------------------------------------------|
|
| PM--| PM
|----------------------------------------------------------------------------|
|----------------------------------------------------------------------------|
|----------------------------------------------------------------------------|
|--9---------------9------------9--------9-------9---9-----9--------(9)\-----|
|--7---------------7------------7--------7-------7---7-----7--------(7)\-----|
|---------0---0------------0-------------------------------------------------|


[Out-Chorus]

Gtr II
~~ ~
|------------------------------|-------------------------------|
|------------------------------|-------------------------------|
|--------------------------7s==|=9------------------9s12s=11S==|
|-12-----------------12\-------|-------------------------------|
|------------------------------|-------------------------------|
|------------------------------|-------------------------------|
|
| Gtr III
| PM PM PM PM PM|
|------------------------------|-------------------------------|
|------------------------------|-------------------------------|
|--7----7-----7---7------7-7---|-------------------------------|
|--7----7-----7---7------7-7---|----2--2----2-----2----2---2---|
|--5----5-----5---5------5-5---|-2-----2----2-----2----2---2---|
|-----------5---5-----5------0-|-0-----0--0-0-0-0-0----0---0---|


~~~~~~~~~~~~~~~ ~~~
|------------------------12s10-------12-|
|------------------------------10s12----|
|-7----------(7)---(7)/-----------------|
|---------------------------------------|
|---------------------------------------|
|---------------------------------------|
|
| PM PM
|---------------------------------------|
|-------------------------------------0-|
|-7----7------7-----7-----7--7--------0-|
|-7----7------7-----7-----7--7--------0-|
|-5----5------5-----5-----5--5----------|
|----------5-----5----------------------|


~~~~~~
|-(12)-----12--(12)S==21\----------------|
|----------------------------------------|
|------------------------------9\---9\---|
|----------------------------------------|
|----------------------------------------|
|----------------------------------------|
|
| PM PM PM PM-|
|----------------------------------------|
|----------------------------------------|
|----------------------------------------|
|---2-------2-------2-(2)---2-------2----|
|---2-------2-------2-(2)---2-------2----|
|---0----0--0----0--0-(0)-0-0--0--0-0----|


~
|------------------------------------|-----------------------------|
|------------------------------------|---------------------10s=12--|
|-5s7----------(7)---7--7s5---7s=9---|-(9)----7----7s9-------------|
|---------------------------7--------|-----------------------------|
|------------------------------------|-----------------------------|
|------------------------------------|-----------------------------|
|
| PM PM PM
|------------------------------------|-----------------------------|
|------------------------------------|--------2--2-3---2-----------|
|---7----7------7----7----7-----(7)\-|--2-----2--2-2---2----2---2--|
|---7----7------7----7----7-----(7)\-|--2-----2--2-2---2----2---2--|
|---5----5------5----5----5-----(5)\-|--0-------------------0---0--|
|------------5-----5----5------------|-----------------------------|


~~ ~~ PM| PM| PM|
|------------------------------|-----------------------------------|
|------------------------------|-----------------------------------|
|------------------------------|----------------------------9------|
|-10--------10s12-------(12)\--|-9------7h=9------7h=9------9------|
|------------------------------|-7--7-7-7-(7)-----7-(7)-----7--7-7-|
|------------------------------|--------------0-0-------0-0--------|
|
| PM
|------------------------------|-----------------------------------|
|------------------------------|-----------------------------------|
|--5----5-------7----7---------|-----------------------------------|
|--5----5-------7----7---------|-2------2-----2-2-------2---2--2-2-|
|--3----3-------5----5---------|-2------2-----2-2-------2---2--2-2-|
|------------------------------|-0--0---0-----0-0----0--0---0--0-0-|


PM| PM| PM| PM| PM PM
|-------------------------------|----------------------------|
|-------------------------------|----------------------------|
|-------------------------------|----------------------------|
|-5------5-------7------7-------|-9----9-9----9--9-9--9--9s7-|
|-3--3-3-3---3-3-5--5-5-5---5-5-|-7----7-7----7--7-7--7--7s5-|
|-------------------------------|----0------0----------------|
|
| PM| PM
|-----------------------------0-|----------------------------|
|-----------------------------0-|----------------------------|
|-5--5-5-5-5-5-6-7--7-7-7-7-7---|----------------------------|
|-5--5-5-5-5-5-6-7--7-7-7-7-7---|-2------2----2--2-2--2--2-2-|
|-3--3-3-3-3-3-4-5--5-5-5-5-5---|-2------2----2--2-2--2--2-2-|
|-------------------------------|-0--0-0-0--0-0--0-0--0--0-0-|


PM| PM| PM| PM| PM| PM| PM| PM|
|------------------------------|-------------------------------|
|------------------------------|-------------------------------|
|------------------------------|-------------------------------|
|-5------5------5------5-------|-7------7------7-------7-------|
|-3--3-3-3--3-3-3--3-3-3---3-3-|-5--5-5-5--5-5-5---5-5-5---5-5-|
|------------------------------|-------------------------------|
|
| PM PM
|------------------------------|-------------------------------|
|------------------------------|-------------------------------|
|-5--5-5-5--5-5-5--5-5-5-5-5-5-|-7--7-7-7--7---7---7---7-7-7-7-|
|-5--5-5-5--5-5-5--5-5-5-5-5-5-|-7--7-7-7--7---7---7---7-7-7-7-|
|-3--3-3-3--3-3-3--3-3-3-3-3-3-|-5--5-5-5--5---5---5---5-5-5-5-|
|------------------------------|-------------5---5-------------|


Gtr IV
|--------------------------------|
|--------------------------------|
|--------------------------------|
|--------------------------------|
|--------------------------------|
|--------------------------------|
|
| Gtr II
| PM| PM| PM| PM|
|--------------------------------|
|--------------------------------|
|--------------------------------|
|-9------9------9------7h=9------|
|-7------7------7------7-(7)-----|
|----0-0----0-0----0-0-------0-0-|
|
| Gtr III
|--------------------------------|
|--------0----0-0----------------|
|--------0----0-0------2---------|
|--------2----2-2------2---------|
|----2---------------------------|
|-0--0-------------3p0-------0-0-|


|--------------------------------------/15-----------|
|----------------------------------------------------|
|----------------------------------------------------|
|----------------------------------------------------|
|----------------------------------------------------|
|----------------------------------------------------|
|
| PM| PM| PM|
|----------------------------------------------------|
|----------------------------------------------------|
|----------------------------------------------------|
|-7h=9-------7h==9-------7h==9------9----9\----------|
|-7-(7)------7--(7)------7--(7)-----7----7\----------|
|-------0-0---------0-0---------0-0------------------|
|
|----------------------------------------------------|
|----------------------------------------------------|
|-------4p2-(2)--------------------------------------|
|----------------2----------------------12-----(12)--|
|----------------------------------------9b10===(9)r=|
|-3p=0----------------3-(3)--0----0-0----------------|


Outro
~~~~~~~~~~~~~~~~~~~~~
|--14--------------(14)--14S10S=================|
|-----------------------------------------------|
|-----------------------------------------------|
|-----------------------------------------------|
|-----------------------------------------------|
|-----------------------------------------------|
|
| PM| PM| PM| PM|
|-----------------------------------------------|
|-----------------------------------------------|
|-----------------------------------------------|
|---7-------7--------7--------------7-----------|
|---5---5-5-5--5-5---5-------5--5---5----5--5---|
|-----------------------------------------------|
|
|-----------------------------------------------|
|-----------------------------------------------|
|-----------------------------------------------|
|-(12)-------------(12)\-----7-(7)-(7)-7---(7)\-|
|--(9)--------------(9)\-----5h=7--(7)-5---(5)\-|
|-----------------------------------------------|


~~
|-12--------------(12)\-------------------/15-----------|
|-------------------------------------------------------|
|-------------------------------------------------------|
|-------------------------------------------------------|
|-------------------------------------------------------|
|-------------------------------------------------------|
|
| PM| PM| PM-| PM----|
|-------------------------------------------------------|
|-------------------------------------------------------|
|-------------------------------------------------------|
|--9------9---------9--------------7h==9----------------|
|--7------7---------7--------------7--(7)---------------|
|-----0-0-----0-0----------0---0------------0-------0---|
|
|-------------------------------------------------------|
|-------------------------------------------------------|
|-------------------------------------------------------|
|--2----------2----------------------------12-----(12)--|
|--2----------------------------------------9b10===(9)r=|
|--0------3p0---0--(0)--0-<3>-<4>-<5>-------------------|


~~~~
|--14--------------(14)S========10\-------------|
|-------------------------------------8s10s=====|
|-----------------------------------------------|
|-----------------------------------------------|
|-----------------------------------------------|
|-----------------------------------------------|
|
| PM| PM| PM| PM|
|-----------------------------------------------|
|-----------------------------------------------|
|-----------------------------------------------|
|---7-------7--------7-----------7--------------|
|---5---5-5-5--5-5---5----5--5---5-------5--5---|
|-----------------------------------------------|
|
|-----------------------------------------------|
|-----------------------------------------------|
|-----------------------------------------------|
|-(12)-------------(12)\--7-(7)-(7)---7----(7)\-|
|--(9)--------------(9)\--5h=7--(7)-5h7----(7)\-|
|-----------------------------------------------|


~~
|-------------------24-------------------/15-----------|
|-12------------12/-----24s======10\-------------------|
|------------------------------------------------------|
|------------------------------------------------------|
|------------------------------------------------------|
|------------------------------------------------------|
|
| PM| PM| PM| PM----|
|------------------------------------------------------|
|------------------------------------------------------|
|------------------------------------------------------|
|--9------9----------9------------7h==9----------------|
|--7------7----------7------------7--(7)---------------|
|-----0-0-----0--0-----------0-0-----------0-------0---|
|
|------------------------------------------------------|
|------------------------------------------------------|
|------------------------------------------------------|
|--2----------2-----(2)-------------------12-----(12)--|
|--2---------------------------------------9b10===(9)r=|
|--0----0-3p0--------------0-3p0-(0)-------------------|


~~~~ ~~~~~~~~~~
|--14-------(14)s=17---(17)---------(17)S====10s=====|
|----------------------------------------------------|
|----------------------------------------------------|
|----------------------------------------------------|
|----------------------------------------------------|
|----------------------------------------------------|
|
| PM| PM| PM| PM|
|----------------------------------------------------|
|----------------------------------------------------|
|----------------------------------------------------|
|---7---------7----------7------------7--------------|
|---5---5-5---5----5-5---5----5--5----5-------5--5---|
|----------------------------------------------------|
|
|----------------------------------------------------|
|----------------------------------------------------|
|----------------------------------------------------|
|-(12)-----------------(12)\--7-(7)--(7)---7----(7)\-|
|--(9)------------------(9)\--5h=7---(7)-5h7----(7)\-|
|----------------------------------------------------|


~~
|-12------------------------(12)\-----------------|
|-------------------------------------------------|
|-------------------------------------------------|
|-------------------------------------------------|
|-------------------------------------------------|
|-------------------------------------------------|
|
| PM| PM| PM| PM---|
|-------------------------------------------------|
|-------------------------------------------------|
|-------------------------------------------------|
|--9------9--------9----------7h===9--------------|
|--7------7--------7----------7---(7)-------------|
|-----0-0-----0-0-------0-0------------0------0---|
|
| PM----------|
|-------------------------------------------------|
|-------------------------------------------------|
|-------------------------------------------------|
|--2----------2---(2)-----------------12----(12)--|
|--2-----------------------------------9b10r=(9)--|
|--0----0-3p0---------0-0-0---0----0--------------|


H.=H
~~~
|-------------------------------------------|
|-------------------------------------------|
|-------------------------------------------|
|-/10--------------------------10S=====5s===|
|-------------------------------------------|
|-------------------------------------------|
|
|-------------------------------------------|
|-------------------------------------------|
|-------------------------------------------|
|---5--5-5--5--5--5--5-----5----5------5----|
|---3--3-3--3--3--3--3-----3----3------3----|
|-------------------------------------------|
|
| PM
|-------------------------------------------|
|-------------------------------------------|
|-------------------------------------------|
|--10------10-------10----10--(10)----10h12-|
|--10------10----10-------10--(10)-10-10----|
|----------------------12-------------------|


~~~~~~~~~~~~~~~
|--------------------------------------------|
|--------------------------------------------|
|--------------------------------------------|
|-12--[12]--[12]------([12])--12--12S====0---|
|--------------------------------------------|
|--------------------------------------------|
|
|---------------------------------------15S==|
|--------------------------------------------|
|--------------------------------------------|
|--7----------7----------7-----7---7---------|
|--5----------5----------5-----5---5---------|
|--------------------------------------------|
|
|--------------------------------------------|
|--------------------------------------------|
|--------------------------------------------|
|-12---------12---------12----12--12----12s9-|
|--9----------9----------9-----9---9h10--9s7-|
|------------------10------------------------|


Gtr II
~~ ~~~~~~~~ ~~~~~~~~~~~~~~~~~~~~
|-14----(14)S=10--(10)---------|---------------|------------------*|
|------------------------8h10s=|=12------------|-(12)------(12)\--*|
|------------------------------|---------------|------------------*|
|------------------------------|---------------|------------------*|
|------------------------------|---------------|------------------*|
|------------------------------|---------------|------------------*|
|
| Gtr III
|------------------------------|---------------|------------------*|
|------------------------------|---------------|------------------*|
|------------------------------|---------------|------------------*|
|--9---------------------------|-(9)-----------|--(9)-------------*|
|--7---------------------------|-(7)-----------|--(7)-------------*|
|--0---------------------------|-(0)-----------|--(0)-------------*|



************************************

| x Dead note
| (n) Ghost note
| h Hammer-on
| p Pull-off
| > Accented note
| b Bend
| pb Pre-bend
| / Slide up
| \ Slide down

************************************
Tunning: Standard (E A D G B e)


Turn The Page
Metallica (originally recorded by bob seger)
a LooX pro tab

intro:
D#||------------------|--0~------0~-0~--0~-------|--------------10/-15\-|--14-----14\10~-------10/-|
A#||------------------|--0~------0~-0~0~0~-------|----------------------|--------------------------|
F#||------------------|--0~------0~---0~---------|----------------------|--------------------------|
C#||------------------|--2~------2~-----------2~-|----------------------|--------------------------|
G#||------------------|--2~------2~--------------|----------------------|--------------------------|
D#||------------------|--0~------0~-------0h3~---|----------------------|--------------------------|



---------------------------|-------------------|---------------0~-------|
--12~----------------------|-------------------|----------0~---0~-------|
----------12\-11---11\7\---|--9~---------------|----------0~------------|
---------------------------|--9~---------------|---------------------2~-|
---------------------------|-------------------|------------------------|
---------------------------|-------------------|--0~-------------0h3~---|



------------0~-----0~--------|-------0~----2~-2~--2~-------|--------------------------|
--------3~-----3~--3~--3~----|---------3~--3~-3~3~3~3~-----|------------3~-2~-----2~2~|
-----2~-2~-----2~2~--2~------|-----2~---------------2~-----|----------2~---2~-2~--2~2~|
--0~---------------------0~2~|--0~---------------------0h2~|-------2~-----------------|
-----------------------------|-----------------------------|--0~----------------------|
-----------------------------|-----------------------------|--------------------------|


verse:
------------------------|------------------------|--------------------|-------------------------|
------------------------|------------------------|--------------------|-------------------------|
--------------11/12-12\-|--11-----11\7~-------7/-|--9~-----------9\---|--9----9--9-9---9--9--9--|
------------------------|---------------------7/-|--9~-----------9\---|--9----9--9-9---9--9--9--|
------------------------|------------------------|--------------------|--7----7--7-7---7--7--7--|
------------------------|------------------------|--------------------|--0----0--0-0---0--0--0--|



------------------------------|---------------------------|-------------------------------|
------------------------------|---------------------------|-------------------------------|
--9--9-9-9--9-9--9-9--9-9-9-7-|--7----7----7-x-7-7--7--7--|--7--7-7-7----7-x-7-7--7-7-7---|
--9--9-9-9--9-9--9-9--9-9-9-7-|--7----7----7-x-7-7--7--7--|--7--7-7-7----7-x-7-7--7-7-7---|
--7--7-7-7--7-7--7-7--7-7-7-5-|--5----5--0-5-x-5-5--5--5--|--5--5-5-5----5-x-5-5--5-5-5-0-|
--0--0-0-0--0-0--0-0--0-0-0---|--------------x------------|------------0---x--------------|


chorus:
---------------------|----------------------------|------------------------|--------------------|
---------------------|----------------------------|------------------------|--------------------|
--2--------------2-2-|--2--2--2--2-2--2-2--2--12\-|--11~----11\7~----------|--9--------9\-------|
--2--------------2-2-|--2--2--2--2-2--2-2--2------|---------------------7/-|--9-----------------|
--0--------------0-0-|--0--0--0--0-0--0-0--0------|------------------------|--------------------|
---------------------|----------------------------|------------------------|--------------------|



----------------------------|----------------------------|----------------------------|
----------------------------|----------------------------|----------------------------|
--7----7--x-7-x-7-7--7--7-x-|-----------x------------x-x-|--7----7--x-7-x-7-7--7--7-x-|
--7----7--x-7-x-7-7--7--7-x-|--2-----2--x-2--2-2--2--x-x-|--7----7--x-7-x-7-7--7--7-x-|
--5----5--x-5-x-5-5--5--5-x-|--2-----2--x-2--2-2--2--x-x-|--5----5--x-5-x-5-5--5--5-x-|
----------x---x-----------x-|--0--0--0--x-0--0-0--0--x-x-|----------x---x-----------x-|



----------------------------|---------------------------|----------------------------|
----------------------------|---------------------------|---------3------------------|
-----------x------------7-7-|--7----7--x-7--7-7--7-7--7-|---------2------------------|
--2--2--2--x-2--2-2--2--7-7-|--7----7--x-7--7-7--7-7--7-|--7--7-7-2-7--7--7-7--7--7--|
--2--2--2--x-2--2-2--2--5-5-|--5----5--x-5--5-5--5-5--5-|--7--7-7-0-7--7--7-7--7--7--|
--0--0--0--x-0--0-0--0------|----------x----------------|--5--5-5---5--5--5-5--5--5--|



-------------------------|-----------15\-14~----14\10~-|------------------------|
-------------------------|-----------------------------|----10/-----12~---12\---|
--5----5--5/6/7----7--7\-|--------12\------------------|------------------------|
--5----5--5/6/7----7--7\-|-----------------------------|------------------------|
--3----3--3/4/5----5--5\-|-----------------------------|------------------------|
-------------------------|--0--------------------------|------------------------|


verse:
-------------------------|------------------------------|---------------------------|
-------------------------|------------------------------|---------------------------|
--9----9--9-9---9--9--9--|--9--9-9-9--9-9--9-9--9-9-9-7-|--7----7----7-x-7-7--7--7--|
--9----9--9-9---9--9--9--|--9--9-9-9--9-9--9-9--9-9-9-7-|--7----7----7-x-7-7--7--7--|
--7----7--7-7---7--7--7--|--7--7-7-7--7-7--7-7--7-7-7-5-|--5----5--0-5-x-5-5--5--5--|
--0----0--0-0---0--0--0--|--0--0-0-0--0-0--0-0--0-0-0---|--------------x------------|



-------------------------------|---------------------|-----------------------15\-|
-------------------------------|---------------------|---------------------------|
--7--7-7-7----7-x-7-7--7-7-7---|--2--------------2-2-|--2----2--0-2--0-2--2------|
--7--7-7-7----7-x-7-7--7-7-7---|--2--------------2-2-|--2----2--0-2--0-2--2------|
--5--5-5-5----5-x-5-5--5-5-5-0-|--0--------------0-0-|--0----0----0----0--0------|
------------0---x--------------|---------------------|---------------------------|



--14~---14/--15-14--14\-10---10/|--12~-------12----12\---|-------------------------|
--------------------------------|------------------------|-------------------------|
--------------------------------|------------------------|--9----9--9-9---9--9--9--|
--------------------------------|------------------------|--9----9--9-9---9--9--9--|
--------------------------------|------------------------|--7----7--7-7---7--7--7--|
--------------------------------|------------------------|--0----0--0-0---0--0--0--|



------------------------------|---------------------------|-------------------------------|
------------------------------|---------------------------|-------------------------------|
--9--9-9-9--9-9--9-9--9-9-9-7-|--7----7----7-x-7-7--7--7--|--7--7-7-7----7-x-7-7--7-7-7---|
--9--9-9-9--9-9--9-9--9-9-9-7-|--7----7----7-x-7-7--7--7--|--7--7-7-7----7-x-7-7--7-7-7---|
--7--7-7-7--7-7--7-7--7-7-7-5-|--5----5--0-5-x-5-5--5--5--|--5--5-5-5----5-x-5-5--5-5-5-0-|
--0--0-0-0--0-0--0-0--0-0-0---|--------------x------------|------------0---x--------------|


chorus:
---------------------|--------------------------|---------------------------|
---------------------|--------2---2----------8\-|--7---7/8--8--8----10--10/-|
--2--------------2-2-|--2-----2---2--2-2--2-----|---------------------------|
--2--------------2-2-|--2--2--2---2--2-2--2-----|---------------------------|
--0--------------0-0-|--0-----0---0--0-0--0-----|---------------------------|
---------------------|--------------------------|---------------------------|



-------------------------|---------------------------|-----------------0------------|
--12~--------------------|---------------------------|-----------------0-----0------|
-------------------------|--7----7------7-7--7-7-7-7-|---------0----0--0-0---0------|
-------------------------|--7----7------7-7--7-7-7-7-|---------2----2--2-2-2-2------|
-------------------------|--5----5------5-5--5-5-5-5-|--2--x-2-2--x-2----2-2-2------|
------------12~----12\-0-|-----------5---------------|--0------0----0----0-0-0--0-0-|



---------------------12\10---12~|----------12--12\-------|-----------------------------|
---------------------------1----|------------------------|-----------------------------|
--7--7--7----7--7-7-------------|--------------------0---|--7-----7----7--7-7-7-7--7-7-|
--7--7--7----7--7-7-------------|------------------------|--7--7--7--7-7--7-7-7-7--7-7-|
--5--5--5----5--5-5-------------|----------------------0-|--5-----5--5-5--5-5-5-5--5-5-|
-----------5--------------------|------------------------|-----------------------------|



---------------------------|-------------------------|
---------------------------|-------------------------|
--2----2----2--2-2--2--0-0-|--5~---5--5\-7~---7--0-0-|
--2----2--x-2--2-2--2--0-0-|-------------------------|
--0----0----0--0-0--0------|-------------------------|
---------------------------|-------------------------|



-----12-12----12\10----12-12\-12-12----12-12\-|--15--15\-17\--12-12\10----12--12\--|
--12-------12-------12--------12-12-12--------|------------------------12-12--12\--|
----------------------------------------------|------------------------------------|
----------------------------------------------|------------------------------------|
----------------------------------------------|------------------------------------|
----------------------------------------------|------------------------------------|



---------------------------|----------------------------|---------------------------|
---------------------------|----------------------------|---------------------------|
---------------------------|----------x---------------7-|--7---7-7------------7---7-|
--2--2--2---2--2-2--2--2-2-|--2----2--x-2--2-2--2-2-2-7-|--7---7-7--x-x--x-x--7---7-|
--2--2--2---2--2-2--2--2-2-|--2----2--x-2--2-2--2-2-2-5-|--5---5-5------------5-----|
--0--0--0---0--0-0--0--0-0-|--0----0--x-0--0-0--0-0-0---|---------------------5-----|



-----------12---12\-------|-------------------|-------------------14/15\-|
-----------12---12\-------|-------------------|--------------------------|
--7--7-7-7/---------------|--2~---------------|--0-2~----------2\--------|
--7--7-7-7/---------------|-------------------|--------------------------|
--5--5-5-5/---------------|-------------------|--------------------------|
--------------------------|-------------------|--------------------------|


wait:
--14----14\-10~-----------|----------------------|-------------------|
----------------------10/-|--12~-----------12\---|-------------------|
--------------------------|----------------------|-------------------|
--------------------------|----------------------|--2----------------|
--------------------------|----------------------|--2----------------|
--------------------------|----------------------|--0----------------|

staaaaart:
--------------------|---------------------------|-------------------------|
--------------------|---------------------------|-------------------------|
--------------------|---------------------------|-------------------------|
----------------12--|--12---------12\7-----7--7\|--2--------2---------12--|
----------------9b--|--9----------9\-5h7-7-7--7\|--2------------------9b--|
--------------------|---------------------------|--0----3p0-----0---------|



---------------------------|-----------------------------|----------------------------|
---------------------------|-----------------------------|----------------------------|
---------------------------|-----------------------------|----------------------------|
--12~----------------7-7-7\|--2---------2------------12--|--12~-------12\--7----7---7\|
--9~---------12\7----5h7-7\|--2----------------------9b--|--9~--------9\-0-5h7--5h7-7\|
-------------9\-5h7--------|--0---0-3p0-----0-3p0-0------|----------------------------|



-----------------------------|---------------------------------|----------------------------|
-----------------------------|---------------------------------|----------------------------|
-----------------------------|---------------------------------|----------------------------|
--2--------2-------------12--|----------10h12-12----12----12\9-|--9----9--9-9-----------12--|
--2------------2---------9r--|--10~-----------9-----9h-10-9\-7-|--7----7--7-7---x-x-x-x-9b--|
--0----3p0-----0-0-0-0-0-----|--8~-----------------------------|----------------x-x-x-x-----|


guitar solo:
------------------------|------------------------------|---------------------------|
------15r-----15---12b--|----------------12-12\--------|-----x-15r-----------------|
------------------------|----------------12-12\--------|-----x---------14r--14-14--|
------------------------|--14~-----12h14---------------|---------------------------|
------------------------|-----------------------12-----|---------------------------|
------------------------|------------------------------|---------------------------|



--------------------------------|----------------------------------------|
----------------12----------15--|--15--15~-15-15-12b-------------12------|
--12r-----9r--0-12h14-14-12-14b-|--14--14~-14-14-12b----12----11-12--14b-|
--------------0-----------------|--------------------14-12---------------|
--------------------------------|--------------------x-----14------------|
--------------------------------|----------------------------------------|



-------------------------------------|-----------------------------------------------|
-------------------------------------|-----------------------------------------------|
--12--------12-14--14r---14\---------|--12-12\--------12-12--------------14-14r14p12-|
-----14~-14-----------------7/-12h14-|----------12h14-----------12h14-12-------------|
-------------------------------------|----------------------14-----------------------|
-------------------------------------|-----------------------------------------------|



------------------------------|--------------------|---------------------------|
-------------------15b-15b----|--15----------------|-------0--0----------------|
--------12-12--12-------------|--------------------|--9~--------9~--9--12--11\-|
--14~-------------------------|--------------------|---------------------------|
------------------------------|--------------------|---------------------------|
------------------------------|--------------------|---------------------------|



------------------12\10----12~|---------12/20\-----------|-----------------------|
-------------7/12-------12----|----------------x-x-2--2--|-----------------------|
--7~---------7----------------|----------------x-x-2--2--|--7~-----------7\5---9~|
------------------------------|--------------------------|-------------------7---|
------------------------------|--------------------------|-----------------------|
------------------------------|--------------------------|-----------------------|


just flow:
---------------------|-----------------------|---------------------------------|
---------------------|-----------------------|---------------------------------|
------7----9----2/---|--5~-----5--5/7~----7\-|---------------------------------|
---------------------|-----------------------|--7h9--9-7h9-----7h9-----7h9-----|
---------------------|-----------------------|--7----7-7-------7-------7---7-7-|
---------------------|-----------------------|-------------0-0-----0-0---------|



-------------------------------|------------------------------|------------------------------|
-------------------------------|------------------------------|------------------------------|
-------------------------------|--------------9--------9--9\7-|------------------------------|
--5--5-5-5--5-5-5/7-7-7-7--7-7-|--7h9----9----9--9-9---9--9\7-|--5--5-5-5--5-5-2--2-2-5--5-5-|
--3--3-3-3--3-3-3/5-5-5-5--5-5-|--7----7-7----7--7-7---7--7\5-|--3--3-3-3--3-3-3--3-3-3--3-3-|
-------------------------------|------------0--------0--------|------------------------------|


outro:
----------------------------------|----------------------------------|----------------15\-|
----------------------------------|----------------------------------|--------------------|
----------------------------------|----------------------------------|--------------------|
--5h7-----5h7-----5h7-----5h7-----|--7h9-----7h9-----7h9-----7h9-----|--------------------|
--5---5-5-5---5-5-5---5-5-5---5-5-|--7-------7-------7-------7-------|--------------------|
----------------------------------|------0-0-----0-0-----0-0-----0-0-|--------------------|



--14----------10\---10/-|--12~-----12--12\-----15\-|--14~---------14\-10\------|
------------------------|----------12--12\---------|----------------------8/10/|
------------------------|--------------------------|---------------------------|
------------------------|--------------------------|---------------------------|
------------------------|--------------------------|---------------------------|
------------------------|--------------------------|---------------------------|



--12-------12/19\-----15\-|--14----14/17-17------17\-10/-|--12~----------------|
--12-------12/19\---------|------------------------------|---------------------|
--------------------------|------------------------------|---------------------|
--------------------------|------------------------------|------------------7\-|
--------------------------|------------------------------|---------------------|
--------------------------|------------------------------|---------------------|



----------------------|--------------------15-14-|------14\-10--------------|------|t|
----------------------|--------------------------|----------------10/-12\---|------|h|
--5~-----------5\-----|--7----7~-----7--7\-------|--------------------------|------|e|
------------------5\4-|--------------------------|--------------------------|------|e|
----------------------|--------------------------|--------------------------|---x--|n|
----------------------|--------------------------|--------------------------|------|d|



On a long and lonesome highway east of omaha
You can listen to the engines moaning out as one note song
You think about the woman or the girl you knew the night before

But your thoughts will soon be wandering the way they always do
When you're riding sixteen hours and there's nothing much to do
And you don't feel much like riding, you just wish the trip was through

Here I am - on the road again
There I am - up on the stage
Here I go - playing star again
There I go - turn the page

So you walk into this restaurant strung out from the road
And you feel the eyes upon you, as you're shaking off the cold
You pretend it doesn't bother you, but you just want to explode

Yeah, most times you can't hear 'em talk, other times you can
All the same old clichés, "is it woman? is it man?"
And you always seem outnumbered, you don't dare make a stand
Make your stand

Here I am - on the road again
There I am - up on the stage
Here I go - playing star again
There I go - turn the page

Oo-ooh, out there in the spotlight, you're a million miles away
Every ounce of energy you try to give away
As the sweat pours out your body like the music that you play, yeah

Later in the evening, you lie awake in bed
With the echoes of the amplifiers ringing in your head
You smoke the day's last cigarette, remembering what she said
What she said

He-ey

Yeah
And here I am - on the road again
There I am - up on a stage
Here I go - playing star again
There I go - turn the page
There I go - turn that page
There I go, yeah, yeah
There I go, yeah, yeah
There I go, yeah
There I go, yeah
There I go, oo-oo-ooh
There I go
And I'm gone


Tunning: Half-step down (D# G# C# F# A# D#)

Metallica
Turn The Page - guitar tab
ALBUM GARAGE INC.
ORIGINALLY BY BOB SEGER



h = HAMMER-ON
p = PULL OF
/ = SLIDE
b = BEND
r = RELEASE BEND
x = DEAD NOTE

Tuned 1/2 step down

Guitar 1 (with Tremolo) JAMES

D#||------------------|--0-------0--0---0--------|------------0--0--0-----|
A#||------------------|--0-------0--0-0-0--------|------------0--0--0-----|
F#||------------------|--0-------0----0----------|---------------0--0-----|
C#||------------------|--2-------2------------2--|------------------------|
G#||------------------|--2-------2---------------|----------2-------------|
D#||------------------|--0-------0--------0h3----|--0----0----------------|



--0-------0--0--0--------|------------0--0-------0--|
--0-------0--0--0--------|------------0--0----0--0--|
--0-------0--0--0--------|----------0-0--0--0-------|
--2----------------------|--------------------------|
--2-------------------2--|-------2------------------|
--0---------------0h3----|--0----0------------------|



--0---------------0--------|---------------0--------|
--0----0--0-0---0-0--------|----------0----0--------|
--0----0----0--------------|----------0-------------|
--2---------------------2--|---------------------2--|
--2------------------------|------------------------|
--0-----------------0h3----|--0--------------0h3----|



------------0------0---------|-------0-----2--2---2--------|
--------3------3---3---3-----|---------3---3--3-3-3-3------|
-----2--2------2-2---2-------|-----2----------------2------|
--0----------------------0-2-|--0----------------------0h2-|
-----------------------------|-----------------------------|
-----------------------------|-----------------------------|



--------------------------|---------------------------|
------------3--2------2-2-|-------2----2-----2--------|
----------2----2--2---2-2-|-------2--2-2---2-2--------|
-------2------------------|------------------------2--|
--0-----------------------|--0------------------------|
--------------------------|--------------------0h3----|



-----------0--0-----0-----|-----------0--0-----------|------------------|
---------0-0--0---0-------|-----------0--0--0------0-|------------------|
---------0-0--------------|-----------0--0--0-0--0---|------------------|
--------------------------|-------------------2------|------------------|
--------------------------|--------------------------|------------------|
--0-------------------0h3-|--0----0------------------|------------------|
DISTORTION

|---------------------------|------------0-----0---------|
|-----------0---0-0---------|------------0---0-0---------|
|-----------0---0-0---------|----------------0-----------|
|--2--------2---2-2-----2---|-------2----------------2p0-|
|--2------2-2---2-2---------|-------2--2-----------------|
|--0------0-0---0-0-0h3---0-|--0----0--0---------0h3-----|



-------2---2-2-2--2-------|-------2--2-2-2-2---------|
-------3---3-3-3--3-3--3--|--3----3--3-3-3-3---3-----|
-------2---2-2-2--2-2-----|--2----2--2-2-2-2---2-----|
--0----0---0-0-0--0-0-----|----------0-0-0-0---0--0--|
--0-----------------------|-----------------------0--|
--------------------------|--------------------------|



----------------------------|------------------------------|
--------2---3p2---------2h3-|--------------2h3-2--2-2-2----|
--2--2--2---2---2-2--2------|--2--2-2-2--2-2---2--2-2-2----|
--2--2--2---------2--2------|--2--2-2-2--2----------2-2----|
--0------------------0------|--0--0-0-0--0-----------------|
----------------------------|---------------------------3b-|



-----------0-0--0---------|---------------0--0-0--0-0-|
-------0---0-0--0---------|---------------0--0-0--0-0-|
-------0---0-0--0---------|---------------0--0-0--0-0-|
-------2---2-2--2---------|--------------------2--2-2-|
-------2---------------2--|-------2---2-2-------------|
--0----0-----------0h3----|--0----0---0-0-------------|



--2----2-------------------|-----0----------------------|
--3----3-----3--3----3-3---|-----0----------------------|
--2----2-----2--2----2-2---|-----0----------------------|
--0----0-----0--0--0-0-0---|--2--2--2----2----2--2------|
-----------0-0--0--------0-|--2--2--2----2----2--2------|
---------------------------|--0--0--0--0-0--0-0--0--0h3-|



--------------------2--2---|----------------------------|
--3----3-----3---3--3--3-0-|--0----0--0-0-0---0--0---0--|
--2----2-----2---2--2--2---|--0----0--0-0-0---0--0---0--|
--0----0-----0---0--0--0---|--2----2--2-2-2---2--2---2--|
-----------0---0----0--0---|--2----2--2-2-2---2--2---2--|
---------------------------|--0----0--0-0-0-0-0--0-0-0--|



---------------------------|------------------------|--------------------------|
--3----3--3---3--3----3----|-------2---3--2---------|------------------------0-|
--2----2--2---2--2----2----|--2----2---2--2---2--2--|--5----5--5/6-7----7--7-0-|
--0----0--0---0--0--0-0----|--2----2------2---2--2--|--5----5--5/6-7----7--7---|
--0----0--0-0-0--0-------0-|--0----0------0---0--0--|--3----3--3/4-5----5--5---|
---------------------------|------------------------|--------------------------|



--------0---0-0-0-0---------|------------0-0------------|-------0------------|
-----0--0---0-0-0-0---------|------------0-0------------|-------0------------|
-----0------0-0-0-0---------|------------0-0------------|-------0------------|
--2--2-------------------2--|---------------------2-----|--------------------|
--2-------------------------|---------------------------|--2-----------------|
--0------------------0h3----|--0--0--0--------0h3----3b-|--0-----------------|



------------------0----|---------------------|------------------------|
------------------0----|---------------------|------------------------|
------------------0----|--7------------------|--7----7--------7---7---|
-----------------------|--7------------------|--7----7--------7---7---|
--2----2---2-2---------|--5--------------x-x-|--5----5--------5p0-5p0-|
--0----0---0-0---------|-----------------x-x-|------------------------|



-------------------------|-------------------------|--------0---------------|
------------------3p2----|-----------------3p2-2---|--------0---------------|
--2----2-----------------|--2--------------------2-|--------0---------------|
--2----2--------------2--|--2----------------------|--------2------------2--|
--0----0------0-0-----0--|--0----------0-0---------|------------------------|
-------------------------|-------------------------|--0--0-----------0h3----|



-------------------------|-------0------------|------------------0----|
---------------------0---|-------0------------|------------------0----|
---------------------0---|-------0------------|------------------0----|
-----------------2---0---|--------------------|-----------------------|
-------------------------|--2-----------------|--2----2---2-2---------|
----0----0-0-0h3---------|--0-----------------|--0----0---0-0---------|



---------------------|------------------------|-------------------------|
---------------------|------------------------|------------------3p2----|
--7------------------|--7----7--------7---7---|--2----2-----------------|
--7------------------|--7----7--------7---7---|--2----2--------------2--|
--5--------------x-x-|--5----5--------5p0-5p0-|--0----0------0-0-----0--|
-----------------x-x-|------------------------|-------------------------|



------------------------|--------0---------------|-----------------------------|
--------------2h3-3-2---|--------0---------------|-----------------------------|
--2---------------------|--------0---------------|-----------------0-0---------|
--2---------2-----------|-----2--2------------2--|--------2--------2-2-2-2-2-2-|
--0---------------------|------------------------|---------------------2-2-2-2-|
------------------------|--0--------------0h3----|---0h-3------0h3-----0-0-0-0-|



--2----2-------------------|-----0----------------------|
--3----3-----3--3----3-3---|-----0----------------------|
--2----2-----2--2----2-2---|-----0----------------------|
--0----0-----0--0--0-0-0---|--2--2--2----2----2--2------|
-----------0-0--0--------0-|--2--2--2----2----2--2------|
---------------------------|--0--0--0--0-0--0-0--0--0h3-|



--------------------2--2---|----------------------------|
--3----3-----3---3--3--3-0-|--0----0--0-0-0---0--0---0--|
--2----2-----2---2--2--2---|--0----0--0-0-0---0--0---0--|
--0----0-----0---0--0--0---|--2----2--2-2-2---2--2---2--|
-----------0---0----0--0---|--2----2--2-2-2---2--2---2--|
---------------------------|--0----0--0-0-0-0-0--0-0-0--|



---------------------------|------------------------|
--3----3--3---3--3----3----|-------2---3--2---------|
--2----2--2---2--2----2----|--2----2---2--2---2--2--|
--0----0--0---0--0--0-0----|--2----2------2---2--2--|
--0----0--0-0-0--0-------0-|--0----0------0---0--0--|
---------------------------|------------------------|



---------------------------|-----------------------|
-------------------7-7--7/-|-----------------------|
--5---5-5------7---7-7--7/-|-----------------------|
--5---5-5----6-7-----7--7/-|-------2------------2--|
--3---3-3--0-4-5-----5--5/-|--2----2---------------|
---------------5-----5--5/-|--0----0--------0h3----|



-----------------------------|-------0-----------------|
-----------------------------|-------0-----------------|
-----------------------0-----|-------0-----------------|
--------2---2-----2--2-2-----|--2----2---2---2--2--2-2-|
-------------------------2-2-|--2----2---2---2--2--2-2-|
----0h3-------0h3--------0-0-|--0----0---0---0--0--0-0-|



----------------------------|---------------------------|
----------------------------|---------------------------|
--------------------------x-|--7--7--7--7-7-7------7----|
--2---2-2--2-2--2-2--2--2-x-|--7--7--7--7-7-7------7----|
--2---2-2--2-2--2-2--2--2-x-|--5--5--5--5-5-5--0---5--0-|
--0---0-0--0-0--0-0--0--0-x-|----------------------5----|



-----------------------------|----------------------------|
--7--7-7---------------------|--2--2--2--2--2-2--2-2-2--2-|
--7--7-7-7--7-7-7--7--7-7-7--|--2--2--2--2--2-2--2-2-2--2-|
--7--7-7-7--7-7-7--7--7-7-7--|--2--2--2--2--2-2--2-2-2--2-|
--5--5-5-5--5-5-5--5--5-5-5--|--0--0--0--0--0-0--0-0-0--0-|
----------------5--5--5-5----|----------------------------|



------------------------------|-------0------------------|
--2--2--2-2-2--2-2-2--2-2-----|-------0------------------|
--2--2--2-2-2--2-2-2--2-2-----|-------0--------------1-1-|
--2--2--2-2-2--2-2-2--2-2-----|--2----2-----2-2------1-1-|
--0--0--0-0-0--0-0-0--0-0-----|--2----2-----2-2------1-1-|
--------------------------3p0-|--0----0-----0-0--3p0-0-0-|



-------------------------|-------------------|------------------|
-------------------------|-------------------|------------------|
-----------1---1-1--1----|-------------------|------------------|
--2----2-2-1---1-1--1----|--2----------------|------------------|
--2----2-2-1---1-1--1----|--2----------------|------------------|
--0----0-0-0---0-0--0----|--0----------------|------------------|



------------------|------------------|------------------|------------------|
------------------|------------------|------------------|------------------|
------------------|------------------|------------------|------------------|
------------------|------------------|------------------|------------------|
------------------|------------------|------------------|------------------|
------------------|------------------|------------------|------------------|



------------------|--------------------|---------------------------|
------------------|--------------------|---------------------------|
------------------|--------------------|---------------------------|
------------------|---------------12b--|-r12---------12/7-----7--7/|
------------------|----------------9b--|-r9----------9/-5h7-7-7--7/|
------------------|--------------------|---------------------------|



-------------------------|---------------------------|
-------------------------|---------------------------|
-------------------------|---------------------------|
--2--------2--------12b--|-r2-----------------7-7-7/|
--2------------------9b--|-r9----------12/7----5h7-7/|
--0----3p0-----0---------|-------------9/-5h7--------|



-----------------------------|----------------------------|
-----------------------------|----------------------------|
-----------------------------|----------------------------|
--2---------2-----------12b--|-r12--------12/--7----7---7/|
--2----------------------9b--|-r9---------9/-0-5h7--5h7-7/|
--0---0-3p0-----0-3p0-0------|----------------------------|



-----------------------------|---------------------------------|
-----------------------------|---------------------------------|
-----------------------------|---------------------------------|
--2--------2-------------12--|----------10h12-12----12----12/9-|
--2------------2---------9r--|--10------------9-----9h-10-9/-7-|
--0----3p0-----0-0-0-0-0-----|--8------------------------------|



----------------------------|---------------------------|
----------------------------|---------------------------|
----------------------------|---------------------------|
--9----9--9-9-----------12--|--12---------12/7-----7--7/|
--7----7--7-7---x-x-x-x-9b--|--9----------9/-5h7-7-7--7/|
----------------x-x-x-x-----|---------------------------|



-------------------------|---------------------------|
-------------------------|---------------------------|
-------------------------|---------------------------|
--2--------2---------12--|--12-----------------7-7-7/|
--2------------------9b--|--9----------12/7----5h7-7/|
--0----3p0-----0---------|-------------9/-5h7--------|



-----------------------------|----------------------------|
-----------------------------|----------------------------|
-----------------------------|----------------------------|
--2---------2------------12--|--12--------12/--7----7---7/|
--2----------------------9b--|--9---------9/-0-5h7--5h7-7/|
--0---0-3p0-----0-3p0-0------|----------------------------|



-----------------------------|-------------------------------------|
-----------------------------|-------------------------------------|
-----------------------------|-------------------------------------|
--2--------2-------------12--|--------------10h12-12----12----12/9-|
--2------------2---------9r--|--10----10-10-------9-----9h-10-9/-7-|
--0----3p0-----0-0-0-0-0-----|--8-----8--8-------------------------|



--------------------------------|--2----2-------------------|
--------------------------------|--3----3-----3--3----3-3---|
-----------9-----9-----9-9--9-9-|--2----2-----2--2----2-2---|
--7h9--7h9---7h9---7h9---9--9-9-|--0----0-----0--0--0-0-0---|
--7----7-----7-----7-----7--7-7-|-----------0-0--0--------0-|
--------------------------------|---------------------------|



-----0----------------------|--------------------2--2---|
-----0----------------------|--3----3-----3---3--3--3-0-|
-----0----------------------|--2----2-----2---2--2--2---|
--2--2--2----2----2--2------|--0----0-----0---0--0--0---|
--2--2--2----2----2--2------|-----------0---0----0--0---|
--0--0--0--0-0--0-0--0--0h3-|---------------------------|



----------------------------|---------------------------|
--0----0--0-0-0---0--0---0--|--3----3--3---3--3----3----|
--0----0--0-0-0---0--0---0--|--2----2--2---2--2----2----|
--2----2--2-2-2---2--2---2--|--0----0--0---0--0--0-0----|
--2----2--2-2-2---2--2---2--|--0----0--0-0-0--0-------0-|
--0----0--0-0-0-0-0--0-0-0--|---------------------------|



------------------------|--------------------------|
-------2---3--2---------|------------------------0-|
--2----2---2--2---2--2--|--5----5--5/6-7----7--7-0-|
--2----2------2---2--2--|--5----5--5/6-7----7--7---|
--0----0------0---0--0--|--3----3--3/4-5----5--5---|
------------------------|--------------------------|



-----------------------------|------------------------------|
-----------------------------|------------------------------|
-----------------------------|--5--5-5-5--5/6-7--7-7-7--7---|
--2--2--2--2-2----2--2-2-2-2-|--5--5-5-5--5/6-7--7-7-7--7---|
--2--2--2--2-2----2--2-2-2-2-|--3--3-3-3--3/4-5--5-5-5--5---|
--0--0--0--0-0--0-0--0-0-0-0-|----------------------------0-|



------------------------------|----------------------------|
------------------------------|----------------------------|
------------------------------|--5--5--5--5-5-5-5-5--5--5--|
--2-2-2-2-2--2-2--2-2--2--2-2-|--5--5--5--5-5-5-5-5--5--5--|
--2-2-2-2-2--2-2--2-2--2--2-2-|--3--3--3--3-3-3-3-3--3--3--|
--0-0-0-0-0--0-0--0-0--0--0-0-|----------------------------|



--------------------------|-------0-----0------------|
--------------------------|-------0-----0------------|
--7--7--7--7--7--7--7--7--|-------0-----0-----1------|
--7--7--7--7--7--7--7--7--|--2----2---2-2-----1------|
--5--5--5--5--5--5--5--5--|--2----2---2-2-----1------|
--------------------------|--0----0---0-0--0--0--0-0-|



--------------------------------|---------------------------|
------0-------------------------|---------------------------|
------0-2-----------------------|---------------------------|
--------2--2-2-2------------12--|--12---------12/7-----7--7/|
----------------------------9b--|--9----------9/-5h7-7-7--7/|
--3p0------------3p0-0-0-0------|---------------------------|



-------------------------|---------------------------|
-------------------------|---------------------------|
-------------------------|---------------------------|
--2--------2---------12--|--12-----------------7-7-7/|
--2------------------9b--|--9----------12/7----5h7-7/|
--0----3p0-----0---------|-------------9/-5h7--------|



-----------------------------|----------------------------|
-----------------------------|----------------------------|
-----------------------------|----------------------------|
--2---------2------------12--|--12--------12/--7----7---7/|
--2----------------------9b--|--9---------9/-0-5h7--5h7-7/|
--0---0-3p0-----0-3p0-0------|----------------------------|



-----------------------------|------------------------------------|
-----------------------------|------------------------------------|
-----------------------------|------------------------------------|
--2--------2-------------12--|--10----10---10------------------12-|
--2------------2---------9r--|--10----10---10-10--10--10-10-10-9--|
--0----3p0-----0-0-0-0-0-----|--8-----8----8--8---8---8-----8-----|



----------------------------------|-------------------|------------------||
----------------------------------|-------------------|------------------||
----------------------------------|--9----------------|------------------||
--12----12---0-12--12--12----12/9-|--9----------------|------------------||
--9-----9------9---9---9/-10-9/-7-|--7----------------|------------------||
----------------------------------|-------------------|------------------||



Guitar 2 Kirk distortion

D#||------------------|------------------|--------------10/-15/-|
A#||------------------|------------------|----------------------|
F#||------------------|------------------|----------------------|
C#||------------------|------------------|----------------------|
G#||------------------|------------------|----------------------|
D#||------------------|------------------|----------------------|



--14-----14/10--------10/-|---------------------------|-------------------|
--------------------------|--12-----------------------|-------------------|
--------------------------|----------12/-11---11/7/---|--9----------------|
--------------------------|---------------------------|--9----------------|
--------------------------|---------------------------|-------------------|
--------------------------|---------------------------|-------------------|



---------------------|-------------------|-------------------|
---------------------|-------------------|-------------------|
--------------7/9/---|--7----------------|-------------------|
---------------------|-------------------|--------------5/---|
---------------------|-------------------|-------------------|
---------------------|-------------------|-------------------|



-------------------|------------------------|------------------------|
-------------------|------------------------|------------------------|
-------------------|--------------11/12-12/-|--11-----11/7--------7/-|
--7----------------|------------------------|---------------------7/-|
-------------------|------------------------|------------------------|
-------------------|------------------------|------------------------|



--------------------|-------------------------|------------------------------|
--------------------|-------------------------|------------------------------|
--9------------9/---|--9----9--9-9---9--9--9--|--9--9-9-9--9-9--9-9--9-9-9-7-|
--9------------9/---|--9----9--9-9---9--9--9--|--9--9-9-9--9-9--9-9--9-9-9-7-|
--------------------|--7----7--7-7---7--7--7--|--7--7-7-7--7-7--7-7--7-7-7-5-|
--------------------|--0----0--0-0---0--0--0--|--0--0-0-0--0-0--0-0--0-0-0---|



---------------------------|-------------------------------|
---------------------------|-------------------------------|
--7----7----7-x-7-7--7--7--|--7--7-7-7----7-x-7-7--7-7-7---|
--7----7----7-x-7-7--7--7--|--7--7-7-7----7-x-7-7--7-7-7---|
--5----5--0-5-x-5-5--5--5--|--5--5-5-5----5-x-5-5--5-5-5-0-|
--------------x------------|------------0---x--------------|



---------------------|----------------------------|------------------------|
---------------------|----------------------------|------------------------|
--2--------------2-2-|--2--2--2--2-2--2-2--2--12/-|--11-----11/7-----------|
--2--------------2-2-|--2--2--2--2-2--2-2--2------|---------------------7/-|
--0--------------0-0-|--0--0--0--0-0--0-0--0------|------------------------|
---------------------|----------------------------|------------------------|



--------------------|----------------------------|----------------------------|
--------------------|----------------------------|----------------------------|
--9--------9/-------|--7----7--x-7-x-7-7--7--7-x-|-----------x------------x-x-|
--9-----------------|--7----7--x-7-x-7-7--7--7-x-|--2-----2--x-2--2-2--2--x-x-|
--------------------|--5----5--x-5-x-5-5--5--5-x-|--2-----2--x-2--2-2--2--x-x-|
--------------------|----------x---x-----------x-|--0--0--0--x-0--0-0--0--x-x-|



----------------------------|----------------------------|
----------------------------|----------------------------|
--7----7--x-7-x-7-7--7--7-x-|-----------x------------7-7-|
--7----7--x-7-x-7-7--7--7-x-|--2--2--2--x-2--2-2--2--7-7-|
--5----5--x-5-x-5-5--5--5-x-|--2--2--2--x-2--2-2--2--5-5-|
----------x---x-----------x-|--0--0--0--x-0--0-0--0------|



---------------------------|----------------------------|
---------------------------|---------3------------------|
--7----7--x-7--7-7--7-7--7-|---------2------------------|
--7----7--x-7--7-7--7-7--7-|--7--7-7-2-7--7--7-7--7--7--|
--5----5--x-5--5-5--5-5--5-|--7--7-7-0-7--7--7-7--7--7--|
----------x----------------|--5--5-5---5--5--5-5--5--5--|



-------------------------|-----------15/-14-----14/10--|
-------------------------|-----------------------------|
--5----5--5/6/7----7--7/-|--------12/------------------|
--5----5--5/6/7----7--7/-|-----------------------------|
--3----3--3/4/5----5--5/-|-----------------------------|
-------------------------|--0--------------------------|



------------------------|-------------------------|
----10/-----12----12/---|-------------------------|
------------------------|--9----9--9-9---9--9--9--|
------------------------|--9----9--9-9---9--9--9--|
------------------------|--7----7--7-7---7--7--7--|
------------------------|--0----0--0-0---0--0--0--|



------------------------------|---------------------------|
------------------------------|---------------------------|
--9--9-9-9--9-9--9-9--9-9-9-7-|--7----7----7-x-7-7--7--7--|
--9--9-9-9--9-9--9-9--9-9-9-7-|--7----7----7-x-7-7--7--7--|
--7--7-7-7--7-7--7-7--7-7-7-5-|--5----5--0-5-x-5-5--5--5--|
--0--0-0-0--0-0--0-0--0-0-0---|--------------x------------|



-------------------------------|---------------------|
-------------------------------|---------------------|
--7--7-7-7----7-x-7-7--7-7-7---|--2--------------2-2-|
--7--7-7-7----7-x-7-7--7-7-7---|--2--------------2-2-|
--5--5-5-5----5-x-5-5--5-5-5-0-|--0--------------0-0-|
------------0---x--------------|---------------------|



-----------------------15/-|--14----14/--15-14--14/-10---10/|
---------------------------|--------------------------------|
--2----2--0-2--0-2--2------|--------------------------------|
--2----2--0-2--0-2--2------|--------------------------------|
--0----0----0----0--0------|--------------------------------|
---------------------------|--------------------------------|



--12--------12----12/---|-------------------------|
------------------------|-------------------------|
------------------------|--9----9--9-9---9--9--9--|
------------------------|--9----9--9-9---9--9--9--|
------------------------|--7----7--7-7---7--7--7--|
------------------------|--0----0--0-0---0--0--0--|



------------------------------|---------------------------|
------------------------------|---------------------------|
--9--9-9-9--9-9--9-9--9-9-9-7-|--7----7----7-x-7-7--7--7--|
--9--9-9-9--9-9--9-9--9-9-9-7-|--7----7----7-x-7-7--7--7--|
--7--7-7-7--7-7--7-7--7-7-7-5-|--5----5--0-5-x-5-5--5--5--|
--0--0-0-0--0-0--0-0--0-0-0---|--------------x------------|



-------------------------------|---------------------|
-------------------------------|---------------------|
--7--7-7-7----7-x-7-7--7-7-7---|--2--------------2-2-|
--7--7-7-7----7-x-7-7--7-7-7---|--2--------------2-2-|
--5--5-5-5----5-x-5-5--5-5-5-0-|--0--------------0-0-|
------------0---x--------------|---------------------|



--------------------------|---------------------------|
--------2---2----------8/-|--7---7/8--8--8----10--10/-|
--2-----2---2--2-2--2-----|---------------------------|
--2--2--2---2--2-2--2-----|---------------------------|
--0-----0---0--0-0--0-----|---------------------------|
--------------------------|---------------------------|



-------------------------|---------------------------|
--12---------------------|---------------------------|
-------------------------|--7----7------7-7--7-7-7-7-|
-------------------------|--7----7------7-7--7-7-7-7-|
-------------------------|--5----5------5-5--5-5-5-5-|
------------12-----12/-0-|-----------5---------------|



-----------------0------------|---------------------12/10---12-|
-----------------0-----0------|---------------------------1----|
---------0----0--0-0---0------|--7--7--7----7--7-7-------------|
---------2----2--2-2-2-2------|--7--7--7----7--7-7-------------|
--2--x-2-2--x-2----2-2-2------|--5--5--5----5--5-5-------------|
--0------0----0----0-0-0--0-0-|-----------5--------------------|



----------12--12/-------|-----------------------------|
------------------------|-----------------------------|
--------------------0---|--7-----7----7--7-7-7-7--7-7-|
------------------------|--7--7--7--7-7--7-7-7-7--7-7-|
----------------------0-|--5-----5--5-5--5-5-5-5--5-5-|
------------------------|-----------------------------|



---------------------------|-------------------------|
---------------------------|-------------------------|
--2----2----2--2-2--2--0-0-|--5----5--5/-7----7--0-0-|
--2----2--x-2--2-2--2--0-0-|-------------------------|
--0----0----0--0-0--0------|-------------------------|
---------------------------|-------------------------|



-----12-12----12/10----12-12/-12-12----12-12/-|
--12-------12-------12--------12-12-12--------|
----------------------------------------------|
----------------------------------------------|
----------------------------------------------|
----------------------------------------------|



--15--15/-17/--12-12/10----12--12/--|---------------------------|
------------------------12-12--12/--|---------------------------|
------------------------------------|---------------------------|
------------------------------------|--2--2--2---2--2-2--2--2-2-|
------------------------------------|--2--2--2---2--2-2--2--2-2-|
------------------------------------|--0--0--0---0--0-0--0--0-0-|



----------------------------|---------------------------|
----------------------------|---------------------------|
----------x---------------7-|--7---7-7------------7---7-|
--2----2--x-2--2-2--2-2-2-7-|--7---7-7--x-x--x-x--7---7-|
--2----2--x-2--2-2--2-2-2-5-|--5---5-5------------5-----|
--0----0--x-0--0-0--0-0-0---|---------------------5-----|



-----------12---12/-------|-------------------|-------------------14/15/-|
-----------12---12/-------|-------------------|--------------------------|
--7--7-7-7/---------------|--2----------------|--0-2-----------2/--------|
--7--7-7-7/---------------|-------------------|--------------------------|
--5--5-5-5/---------------|-------------------|--------------------------|
--------------------------|-------------------|--------------------------|



--14----14/-10------------|----------------------|------------------|
----------------------10/-|--12------------12/---|------------------|
--------------------------|----------------------|------------------|
--------------------------|----------------------|------------------|
--------------------------|----------------------|------------------|
--------------------------|----------------------|------------------|



------------------|------------------|------------------|------------------|
------------------|------------------|------------------|------------------|
------------------|------------------|------------------|------------------|
------------------|------------------|------------------|------------------|
------------------|------------------|------------------|------------------|
------------------|------------------|------------------|------------------|



------------------|------------------|------------------|
------------------|------------------|------------------|
------------------|------------------|------------------|
------------------|------------------|------------------|
------------------|------------------|------------------|
------------------|------------------|------------------|



----------------------------|--------------------------|
----------------------------|--------------------------|
--7----7--7-7--7-7--7-7-7---|----------x---------------|
--7----7--7-7--7-7--7-7-7---|--2----2--x-2--2-2--2--2/-|
--5----5--5-5--5-5--5-5-5---|--2----2--x-2--2-2--2--2/-|
--------------------------0-|--0----0--x-0--0-0--0--0--|



----------------------------|--------------------------|
----------------------------|--------------------------|
--7----7--7-7--7-7--7-7-7---|----------x---------------|
--7----7--7-7--7-7--7-7-7---|--2----2--x-2--2-2--2--2/-|
--5----5--5-5--5-5--5-5-5---|--2----2--x-2--2-2--2--2/-|
--------------------------0-|--0----0--x-0--0-0--0--0--|



----------------------------|---------------------------|
----------------------------|---------------------------|
--7----7--7-7--7-7--7-7-7---|----------x------------x-x-|
--7----7--7-7--7-7--7-7-7---|--2----2--x-2--2-2--2--x-x-|
--5----5--5-5--5-5--5-5-5---|--2----2--x-2--2-2--2--x-x-|
--------------------------0-|--0----0--x-0--0-0--0--x-x-|



-----------------------------|-----------------------------|
-----------------------------|-----------------------------|
--5--5-5-5--5-x-7--7-7-7--7--|--------9----9--9-9--9-9-9/7-|
--5--5-5-5--5-x-7--7-7-7--7--|--2--2--9----9--9-9--9-9-9/7-|
--3--3-3-3--3-x-5--5-5-5--5--|--2--2--7----7--7-7--7-7-7/5-|
--------------x--------------|--0--0-----0-----------------|



----------------------------|--------------------------|
----------------------------|--------------------------|
--7----7--7-7--7-7--7-7-7---|----------x---------------|
--7----7--7-7--7-7--7-7-7---|--2----2--x-2--2-2--2--2/-|
--5----5--5-5--5-5--5-5-5---|--2----2--x-2--2-2--2--2/-|
--------------------------0-|--0----0--x-0--0-0--0--0--|



----------------------------|--------------------------|
----------------------------|--------------------------|
--7----7--7-7--7-7--7-7-7---|----------x---------------|
--7----7--7-7--7-7--7-7-7---|--2----2--x-2--2-2--2--2/-|
--5----5--5-5--5-5--5-5-5---|--2----2--x-2--2-2--2--2/-|
--------------------------0-|--0----0--x-0--0-0--0--0--|



----------------------------|---------------------------|
----------------------------|---------------------------|
--7----7--7-7--7-7--7-7-7---|----------x------------x-x-|
--7----7--7-7--7-7--7-7-7---|--2----2--x-2--2-2--2--x-x-|
--5----5--5-5--5-5--5-5-5---|--2----2--x-2--2-2--2--x-x-|
--------------------------0-|--0----0--x-0--0-0--0--x-x-|



------------------------------|--------------------------------|
------------------------------|--------------------------------|
------------------------------|-----------9-----9-----9-9--9-9-|
--3h5-----5------7--7--7------|--7h9--7h9---7h9---7h9---9--9-9-|
--3---3-3-3--3-3-5--5--5--5-6-|--7----7-----7-----7-----7--7-7-|
------------------------------|--------------------------------|



----------------------|---------------------------|
----------------------|-------0--0----------------|
--7------------7/4--7/|--9---------9---9--12--11/-|
----------------------|---------------------------|
----------------------|---------------------------|
----------------------|---------------------------|



------------------12/10----12-|---------12/20/-----------|
-------------7/12-------12----|----------------x-x-2--2--|
--7----------7----------------|----------------x-x-2--2--|
------------------------------|--------------------------|
------------------------------|--------------------------|
------------------------------|--------------------------|



-----------------------|---------------------|-----------------------|
-----------------------|---------------------|-----------------------|
--7------------7/5---9-|------7----9----2/---|--5------5--5/7-----7/-|
-------------------7---|---------------------|-----------------------|
-----------------------|---------------------|-----------------------|
-----------------------|---------------------|-----------------------|



---------------------------------|-------------------------------|
---------------------------------|-------------------------------|
---------------------------------|-------------------------------|
--7h9--9-7h9-----7h9-----7h9-----|--5--5-5-5--5-5-5/7-7-7-7--7-7-|
--7----7-7-------7-------7---7-7-|--3--3-3-3--3-3-3/5-5-5-5--5-5-|
-------------0-0-----0-0---------|-------------------------------|



------------------------------|------------------------------|
------------------------------|------------------------------|
--------------9--------9--9/7-|------------------------------|
--7h9----9----9--9-9---9--9/7-|--5--5-5-5--5-5-2--2-2-5--5-5-|
--7----7-7----7--7-7---7--7/5-|--3--3-3-3--3-3-3--3-3-3--3-3-|
------------0--------0--------|------------------------------|



----------------------------------|----------------------------------|
----------------------------------|----------------------------------|
----------------------------------|----------------------------------|
--5h7-----5h7-----5h7-----5h7-----|--7h9-----7h9-----7h9-----7h9-----|
--5---5-5-5---5-5-5---5-5-5---5-5-|--7-------7-------7-------7-------|
----------------------------------|------0-0-----0-0-----0-0-----0-0-|



----------------------------------|----------------------------|
----------------------------------|----------------------------|
----------------------------------|--7----7--7-7--7-7--7-7-7---|
--7h9-----7h9-----7h9-----7h9-----|--7----7--7-7--7-7--7-7-7---|
--7-------7-------7-------7---7---|--5----5--5-5--5-5--5-5-5---|
------0-0-----0-0-----0-0-------0-|--------------------------0-|



--------------------------|----------------------------|
--------------------------|----------------------------|
----------x---------------|--7----7--7-7--7-7--7-7-7---|
--2----2--x-2--2-2--2--2/-|--7----7--7-7--7-7--7-7-7---|
--2----2--x-2--2-2--2--2/-|--5----5--5-5--5-5--5-5-5---|
--0----0--x-0--0-0--0--0--|--------------------------0-|



--------------------------|----------------------------|
--------------------------|----------------------------|
----------x---------------|--7----7--7-7--7-7--7-7-7---|
--2----2--x-2--2-2--2--2/-|--7----7--7-7--7-7--7-7-7---|
--2----2--x-2--2-2--2--2/-|--5----5--5-5--5-5--5-5-5---|
--0----0--x-0--0-0--0--0--|--------------------------0-|



---------------------------|------------------------------------|
---------------------------|------------------------------------|
----------x------------x-x-|------------------------------------|
--2----2--x-2--2-2--2--x-x-|--10----10---10------------------12-|
--2----2--x-2--2-2--2--x-x-|--10----10---10-10--10--10-10-10-9--|
--0----0--x-0--0-0--0--x-x-|--8-----8----8--8---8---8-----8-----|



----------------------------------|-------------------|------------------||
----------------------------------|-------------------|------------------||
----------------------------------|--9----------------|------------------||
--12----12---0-12--12--12----12/9-|--9----------------|------------------||
--9-----9------9---9---9/-10-9/-7-|--7----------------|------------------||
----------------------------------|-------------------|------------------||

------------------------|------------------------------|
------15r-----15---12b--|----------------12-12/--------|
------------------------|----------------12-12/--------|
------------------------|--14------12h14---------------|
------------------------|-----------------------12-----|
------------------------|------------------------------|



---------------------------|--------------------------------|
-----x-15r-----------------|----------------12----------15--|
-----x---------14r--14-14--|--12r-----9r--0-12h14-14-12-14b-|
---------------------------|--------------0-----------------|
---------------------------|--------------------------------|
---------------------------|--------------------------------|



----------------------------------------|-------------------------------------|
--15--15--15-15-12b-------------12------|-------------------------------------|
--14--14--14-14-12b----12----11-12--14b-|--12--------12-14--14r---14/---------|
--------------------14-12---------------|-----14--14-----------------7/-12h14-|
--------------------x-----14------------|-------------------------------------|
----------------------------------------|-------------------------------------|



-----------------------------------------------|------------------------------|
-----------------------------------------------|-------------------15b-15b----|
--12-12/--------12-12--------------14-14r14p12-|--------12-12--12-------------|
----------12h14-----------12h14-12-------------|--14--------------------------|
----------------------14-----------------------|------------------------------|
-----------------------------------------------|------------------------------|



--------------------|------------------|------------------|------------------|
--15----------------|------------------|------------------|------------------|
--------------------|------------------|------------------|------------------|
--------------------|------------------|------------------|------------------|
--------------------|------------------|------------------|------------------|
--------------------|------------------|------------------|------------------|



------------------|------------------|------------------|------------------|
------------------|------------------|------------------|------------------|
------------------|------------------|------------------|------------------|
------------------|------------------|------------------|------------------|
------------------|------------------|------------------|------------------|
------------------|------------------|------------------|------------------|



------------------|------------------|------------------|------------------|
------------------|------------------|------------------|------------------|
------------------|------------------|------------------|------------------|
------------------|------------------|------------------|------------------|
------------------|------------------|------------------|------------------|
------------------|------------------|------------------|------------------|



------------------|----------------15/-|--14----------10/---10/-|
------------------|--------------------|------------------------|
------------------|--------------------|------------------------|
------------------|--------------------|------------------------|
------------------|--------------------|------------------------|
------------------|--------------------|------------------------|



--12------12--12/-----15/-|--14----------14/-10/------|
----------12--12/---------|----------------------8/10/|
--------------------------|---------------------------|
--------------------------|---------------------------|
--------------------------|---------------------------|
--------------------------|---------------------------|



--12-------12/19/-----15/-|--14----14/17-17------17/-10/-|--12-----------------|
--12-------12/19/---------|------------------------------|---------------------|
--------------------------|------------------------------|---------------------|
--------------------------|------------------------------|------------------7/-|
--------------------------|------------------------------|---------------------|
--------------------------|------------------------------|---------------------|



----------------------|--------------------15-14-|------14/-10--------------|
----------------------|--------------------------|----------------10/-12/---|
--5------------5/-----|--7----7------7--7/-------|--------------------------|
------------------5/4-|--------------------------|--------------------------|
----------------------|--------------------------|--------------------------|
----------------------|--------------------------|--------------------------|



-------------------||
-------------------||
-------------------||
-------------------||
----------------x--||
-------------------||
Song info
Turn The Page
Metallica
2001
  • Rock
  • Classic Rock
  • Heavy Metal
Alternative tracks
Similar songs
Promised Land - Elvis Presley
Transylvania - Iron Maiden
Fast as a Shark - Accept
Purgatory - Iron Maiden
Oh Sherrie - Steve Perry

Hi! Hope you enjoy backing track experience.
If you want to help us in the development of the project, feel free to donate!