Daddy Brother Lover Little Boy - Mr. Big
00:00 / 00:00
Tabs and lyrics
Tunning: Standard (E A D G B e)
MR. BIG - DADDY, BROTHER, LOVER, LITTLE BOY
===========================================

TAB
===


mute... ...... ..
e|---------------------|
b|---------------------|
1. g|---------------------| Repeat
d|-------5-------5-----| 4 times
a|-------5-------5-----|
e|---3-3---3-3-3---3---|

vib.....
|-----------------------------------|
|-----------------------------------|
2. |--5-----5--5--3..(3)-5p3h5---------| Repeat
|--5-----5--5--3..(3)-5p3h5---------| 2 times
|-----------------------------------|
|----3-3--------------------3-3-3---|


|-------------------------------|
|-------------------------------|
|--3.(3)-5-----333-5-----3h5----|
3. |--3.(3)-5-----333-5-----3h5----|
|-------------------------------|
|----------3-3-------3-3--------|


|--3-----3----8------8----------|
|--3-3-----3--8--8-----8--------|
|--5---5------10--10------------|
4. |--5----------10----------------|
|--3----------8-----------------|
|-------------------------------|



Repeat part 2 again two times.

Repeat part 1.

Repeat part 3.

vib...... ......
|-------------------------------------------------|
|-------------------------------------------------|
|-------------------------------------------------|
5. |--5-5---------5-------5-------5-5..(5)-3..(3)----| Repeat 4 times.
|--5-5---------5-------5-------5-5..(5)-3..(3)----|
|--3---3-3-3-3---3-3-3---3-3-3--------------------|


|------------------------------------------------------------------------------
|--------------------------------------11--------10------13----11----10-11-----
|--8-----8------8-----8-----8/10-10----10---10---10------10-10-10----10-10-----
6. |--8-----8------8-----8-----8/10-10----10---10---10---10----10----10-10----10--
|--6-----6--6-6---6-6---6-6-------8--8----8----8----8--------------------------
|------------------------------------------------------------------------------


---------------------------------------------------|
---------------------------------------------------|
---8-----------------------------------------------|
---8---------8-----8-----8-------------7--7-7--7---|
---6---------8-----8-----8-------------7--7-7--7---|
-------6---6---6-6---6-6---6-8-6-5---5-------------|



|---------------------------------------------------------------------------|
|------------------------------------6-3------------------------------------|
7. |----------------------------------------6-5-3------------------------------|
|--------3---3-5-5.(5)-------------------------5-3---5-3--------------------|
|--3-4-5---5-----5.(5)-----------------------------5-----5-3----------------|
|----------------3.(3)---------------------------------------6-3....(3)-----|


Repeat part 2 twice.

Repeat part 1.

Repeat part 3.

Repeat part 5 four times

Repeat part 6.
double timed alternate picking
............
|---------------------------------------------------------------------------
|------------------------------------6-3------------------------------------ This is a variation
9. |----------------------------------------6-5-3------------------------------ on part 7.
|--------3---3-5-5.(5)-------------------------5-3---5-4-3------------------
|--3-4-5---5-----5.(5)-----------------------------5-------5-4-3-1----------
|----------------3.(3)---------------------------------------------1..(1)---

pick pick
scrape vib scrape vib wierd harmonics
...... ....... ......... ........ .........................
---------------------------------------------------------5..(5)-----------|
---------------------------------------------------------5..(5)-----------|
--------------------------------------------------------------------------|
-2..(2)-------------------------------------------------------------------|
-2..(2)-------/5..(5)-------------/7..(7)---------------------------------|
-0..(0)-------------------------------------------------------------------|


THE SOLO
========

play this part double speed. palm muting
...............
|-----------------------------------------------------------------------------
|-----------------------------------------------------------------------------
7. |--21p19p17---16----------19p17p16----14--------------------------------------
|-----------19---19-17-16----------17----17-16-14-----------------------------
|-------------------------------------------------19p17p15----14--------------
|----------------------------------------------------------17----17-15-14-12--



*Alternate picking from here on
-------------17-19-17h19p17----------22-19-17-----------------------------
--17---19-20----------------20-19-17----------20-19-17--------------------
-------------------------------------------------------19-17-16----------- *Start with a downstroke.
----------------------------------------------------------------19-17-16--
--------------------------------------------------------------------------
--------------------------------------------------------------------------


---------------------------------------12-15-12-14-15-14-12-19p15p12--12-15-19-
-------------------------------------------------------------------------------
----------14-17-14-16-17-16-14-12-14-16-----------------------------16---------
-14-16-17----------------------------------------------------------------------
-------------------------------------------------------------------------------
-------------------------------------------------------------------------------





-20p17----19p17--19p15----17p15--19p17p15----------19p15----17p15--17p14----15p14-
-------19--------------17-----------------19-17-15-------17--------------15-------
----------------------------------------------------------------------------------
----------------------------------------------------------------------------------
----------------------------------------------------------------------------------
----------------------------------------------------------------------------------

vib
....
-17p15p14-------------------12-15-12-14-15-14-12-10-12-14-12-10---------------------------------|
----------17-15-13-12-13-15-------------------------------------13-12-10------------------------|
-------------------------------------------------------------------------12-11-9----------------|
---------------------------------------------------------------------------------12-10-9-12\14--|
------------------------------------------------------------------------------------------------|
------------------------------------------------------------------------------------------------|

THE DRILL SOLO
==============
*Each note constantly picked by drill
|--------------------------------------------------|
|--------------------------------------------------|
8. |---11---12-----11---12-----11---12---12b14--12----|
|--------------------------------------------------| Play 2 times
|--------------------------------------------------|
|--------------------------------------------------|
|--------------------------------------------------|

vib if you can manage feed back from drill
........ .........
|---------------------------------------------------------------------------------------------|
|---------------------------------------------------------------------------------------------|
9. |--7---9---11---12---14---11---12---14---17....(17)-16-14-12-16-14-12-11-14-12-11-9-7---------|
|---------------------------------------------------------------------------------------------|
|---------------------------------------------------------------------------------------------|
|---------------------------------------------------------------------------------------------|
|---------------------------------------------------------------------------------------------|


Repeat part 6 twice.

Repeat part 7.

Repeat part 8 four times, but on the 2nd and 4th time
stick in that fast desending tiplet as seen in part 9.

The very last part of the song consists F5, G5, and a C5 chord


Lafit


************************************

mute = plam mute
h = hammer on
p = pull off
vib = vibrato, suprisingly
3...(3) = a sustained note.
/\ = slide

*************************************
Song info
Daddy Brother Lover Little Boy
Mr. Big
2001
  • Rock
  • Hard Rock
Alternative tracks
Similar songs
All Alone - Joe satriani
Livin on a prayer - Bon Jovi
Forever Young - Tyketto
Down By The River - Neil Young
Trouble - Whitesnake

Hi! Hope you enjoy backing track experience.
If you want to help us in the development of the project, feel free to donate!