Green Tinted Sixties Mind - Mr. Big
00:00 / 00:00
Tabs and lyrics
Tunning: Standard (E A D G B e)
Green - tinted sixties mind
Mr.Big

Transcribed by Sócrates

This is my version of GREEN by Mr.Big, I transcribed
the solo part
I hope you enjoy it;)



[Intro]

h po h po po h h h tap po po tap h h
e|-0^2^0--|--0^7^5^0-|------0^5-|-^7-(12)-^7^5--|--(17)-^10^12^17---|
B|-------0|----------|----------|---------------|-------------------|
G|--------|----------|--2^4-----|---------------|-------------------|
D|--------|----------|----------|---------------|-------------------|
A|--------|----------|----------|---------------|-------------------|
E|--------|----------|----------|---------------|-------------------|

+---------- +--------
| 1,2,3 | 4
h po po h h tap | h h |
e|--5^7-(16)-^4-|--^0^4^7-(12)-s/-16-s\-12^7^4-|--s/-16/---------|
B|--------------|---------------|--------------|-----------------|
G|--------------|---------------|--------------|-----------------|
D|--------------|---------------|--------------|-----------------|
A|--------------|---------------|--------------|-----------------|
E|--------------|---------------|--------------|-----------------|

E Esus4
e|---------------|----------------|---------------|-----------------------|
B|----9----------|---------*------|------10-------|----------(10)---------|
G|----9----------|---------*------|------9--------|----------(9)----------|
D|----9----------|---------*------|------9--------|----------(9)----------|
A|----7----------|---------*------|------7--------|----------(7)----------|
E|---------------|----------------|---------------|-----------------------|

D5 E5
e|---------------|----------------|---------------|-----------------------|
B|---------------|----------------|---------------|-----------------------|
G|----7----------|---------*------|------9--------|--------(9)------------|
D|----7----------|---------*------|------9--------|--------(9)------------|
A|----5----------|---------*------|------7--------|--------(7)------------|
E|---------------|----------------|---------------|-----------------------|

E Esus4
e|---------------|----------------|---------------|--0--------------------|
B|---------------|----------------|---------------|----0------------------|
G|----1----------|---------*------|------2--------|------2----------------|
D|----2----------|---------*------|------2--------|-----------------------|
A|----2----------|---------*------|------2--------|-----------------------|
E|---------------|----------------|---------------|-----------------------|

B5 A5 B5 A5
e|-----------------------------------|
B|-----------------------------------|
G|----4--2--4--2-(2)-----------------|
D|----4--2--4--2-(2)-----------------|
A|----2--0--2--0-(0)-----------------|
E|-----------------------------------|


[Verse]

She just...
~~~~~~
e|----------(12)----------|
B|--------------(12)------|
G|---9--------------------|
D|---9--------------------|
A|---7--------------------|
E|---0--------------------|

This is like a pre-chorus:
That's reaching...
. . . . . . . . . . . . . . .
e|------5-------4---------------------------------------3-3-3-----2---|
B|------5-------5------5-------5-------9----------------3-3-3-----3---|
G|------4-------4------4-------4-------9-----8--8--8----0-0-0-----2---|
D|--0-0---0-0-0--------6-------6-------9-----9--9--9----0-0-0--0--0---|
A|-----------------4-4---4-4-4-4-------7-----9--9--9------------------|
E|---------------------------------7-7----7--7--7--7--7---------------|


[Chorus]

. . . . . . . . . . . . . . .
e|----------------------------------------------------------------(12)--|
B|------0-------0--------2-------2------0------0---2--------(12)--------|
G|------1-------1--------2-------2------1------1---2--------------------|
D|------2-------2--------4-------4------2------2---2--------------------|
A|------2-------2--------4-------4------2------2---0--------------------|
E|--0-0---0-0-0------2-2---2-2-2----4-4---4-4-4-------------------------|

. . . . . . . . . .
e|----------------------------------------------------|
B|------5-------5------5--------5--2------2-------4---|
G|------4-------4------4--------4--1------2-------4---|
D|------6-------6------4--------4--2------2-------4---|
A|--4-4---4-4-4----2-2----2-2-2----1------0-------2---|
E|----------------------------------------------------|


[Solo]
let ring

e|------------------|----------------------|-----------------|
B|------------------|----------------------|-----------------|
G|--/13-14-[13------|---/13-14-[13-----13--|--/13-14-[13-----|
D|-------------14]--|--------------14]-14--|-------------14]-|
A|------------------|----------------------|-----------------|
E|------------------|----------------------|-----------------|
| rhythm pm on (6) pm on (5)... |
E|------------------|----------------------|-----------------|
B|-----5--------5---|---------5----5-------|------5-------5--|
G|-----4--------4---|---------4----4-------|------4-------4--|
D|-----6--------6---|---------6----6-------|------6-------6--|
A|------------------|----------------------|--4-4---4-4-4---4|
E|--0-0---0-0-0---0-|--0-0-0---------------|-----------------|

1+
e|--------------------|-----------------------|-----------------------|
B|----------------<15>|-----------------------|------------------12---|
G|--/13-14-[13--------|--/13-14-[<13>---------|--/13-14-[13------13---|
D|-------------14]----|---------------14]-----|-------------14]--14---|
A|--------------------|-----------------------|-----------------------|
E|--------------------|-----------------------|-----------------------|
| pm on (5) |
e|--------------------|-----------------------|-----------------------|
B|--------5---5-------|--------5---------5----|---------5----5--------|
G|--------4---4-------|--------4---------4----|---------4----4--------|
D|--------6---6-------|--------6---------6----|---------6----6--------|
A|--4-4-4-------------|---5-5-----5-5-5----5--|--5-5-5----------------|
E|--------------------|-----------------------|-----------------------|

5/8
~~~~
e|------------------|-----------------|----------------|------------------|
B|------------------|-----------------|----------------|------------------|
G|------------------|-----------------|----------------|------------------|
D|---/13-14-13------|---/13-14-13-----|---/13-14-13----|--/13-14-13-------|
A|-------------14\--|-------------14\-|-------------14\|--------------14\-|
E|------------------|-----------------|----------------|------------------|
| pm on (5) pm on (6) |
e|------------------|-----------------|----------------|------------------|
B|--------4---------|-------4---------|--------4-------|--------4---------|
G|--------4---------|-------4---------|--------4-------|--------4---------|
D|--------4---------|-------4---------|--------4-------|--------4---------|
A|--2-2-2---2--------|0-0-0---0-------|----------------|------------------|
E|------------------|-----------------|--4-4-4---4-----|--3-3-3---3-------|

~~~~~ ~~~~~~~ 3/4
½+-
e|-------------------|--------------------|------------------------------|
B|-------------------|--------------------|----------16----14^16^14------|
G|--/15-16-15--------|---/15-16-15--------|--/15-16-----------------16---|
D|---------------16\-|----------------16\-|------------------------------|
A|-------------------|--------------------|------------------------------|
E|-------------------|--------------------|------------------------------|
| pm on (6) |
e|-------------------|--------------------|------------------------------|
B|---------2---------|---------2----------|--------2---------------------|
G|---------3---------|---------3----------|--------3---------------------|
D|---------4---------|---------4----------|--------4---------------------|
A|---------4---------|---------4----------|--------4---------------------|
E|---2-2-2---2-------|--2-2-2----2--------|--2-2-2---2-2-----------------|

1+- 1+
e|--------------------------||
B|--------------14--17---17-||
G|--15----15-16-------------||
D|-----16-------------------||
A|--------------------------||
E|--------------------------||
| ||
E|--------------------------||
B|--------------------------||
G|--------------------------||
D|--------------------------||
A|--------------------------||
E|--2-2-2-2-2-2-2-2---------||



************************************

() = natural harmonics
<> = artificial harmonics
~~ = vibrato
.. = palm mute
^ = pull-off & hammer-on
1+- = bend & release
[ ] = let ring the notes

************************************
Song info
Green Tinted Sixties Mind
Mr. Big
2001
  • Rock
  • Hard Rock
Alternative tracks
Similar songs
Switch 625 - Def Leppard
Cochise - Audioslave
Tribute - Tenacious D
Live And Let Die - Guns N' Roses

Hi! Hope you enjoy backing track experience.
If you want to help us in the development of the project, feel free to donate!