Tompkins Square Park - Mumford and Sons
00:00 / 00:00
Tabs and lyrics
Tunning: Standard (E A D G B e)
-------------------------------------------------------------------------------
Tompkins Square Park - Mumford & Sons
-------------------------------------------------------------------------------
Tabbed by: Bart Vonk

Tuning: Standard

[Intro]

Guitar I
e|-1-----5-----5-----5------6------------------------------------------------------|
B|-1-----5-----6-----5------6------------------------------------------------------|
G|-2-----5-----7-----5------7------------------------------------------------------|
D|-3-----7-----7-----7--7---8------------------------------------------------------|
A|-3-----7-----5-----7--7---8------------------------------------------------------|
E|-1-----5-----------5---5--6------------------------------------------------------|

Guitar II
e|--------10-------------------10----13-12-8---------------------------------|
B|-----------13----10-------------13-----------------------------------------|
G|----/10-------12---------/10-----------------------------------------------|
D|-12-------------------12---------------------------------------------------|
A|---------------------------------------------------------------------------|
E|---------------------------------------------------------------------------|

e|-8-10---------8-10-12-----8-10--------------13-----------------------------|
B|------10-----------------------10------------------------------------------|
G|---------------------------------------------------------------------------|
D|---------------------------------------------------------------------------|
A|---------------------------------------------------------------------------|
E|---------------------------------------------------------------------------|


[Verse]

e|-1-----5-----5-----5-----6-----1-----5-----5-----5-----6-------------------|
B|-1-----5-----6-----5-----6-----1-----5-----6--6--5-----6-------------------|
G|-2-----5-----7-----5-----7-----2-----5-----7--7--5-----7-------------------|
D|-3-----7-----7-----7-----8-----3-----7-----7--7--7-----8-------------------|
A|-3-----7-----5-----7-----8-----3-----7-----5-----7-----8-------------------|
E|-1-----5-----------5-x5--6-----1-----5-----------5-x5--6-------------------|


[Chorus]

Guitar I
e|-6-----5-----3---------------6-----5-----3---------------------------------|
B|-6-----6-----5---------------6-----6-----5---------------------------------|
G|-7-----7-----5---------------7-----7-----5---------------------------------|
D|-8-----7-----5---------------8-----7-----5---------------------------------|
A|-8-----5-----3---------------8-----5-----3---------------------------------|
E|-6---------------------------6---------------------------------------------|

Guitar II
e|-/13-12------------------8-10------------8---------------------------------|
B|--------15-13-10------10------8--------6---\11-----------------------------|
G|-------------------------------------5-------------------------------------|
D|---------------------------------------------------------------------------|
A|---------------------------------------------------------------------------|
E|---------------------------------------------------------------------------|

e|-/13-12------------------8-10------------8---------------------------------|
B|--------15-13-10------10------8--------6---6-------------------------------|
G|-------------------------------------5-------------------------------------|
D|---------------------------------------------------------------------------|
A|---------------------------------------------------------------------------|
E|---------------------------------------------------------------------------|


[Verse]

e|-1-----5-----5-----5-----6-----1--1--5--5--5--------5--5-------6-----------|
B|-1-----5-----6-----5-----6-----1--1--5--5--6--6-----5----5-----6-----------|
G|-2-----5-----7-----5-----7-----2--2--5--5--7----7---5------5---7-----------|
D|-3-----7-----7-----7-----8-----3--3--7--7--7------7-7--------7-8-----------|
A|-3-----7-----5-----7-----8-----3--3--7-----5--------7----------8-----------|
E|-1-----5-----------5-x5--6-----1-----5--------------5----------6-----------|


[Chorus]

Guitar I
e|-6-----5-----3---------------6-----5-----3---------------------------------|
B|-6-----6-----5---------------6-----6-----5---------------------------------|
G|-7-----7-----5---------------7-----7-----5---------------------------------|
D|-8-----7-----5---------------8-----7-----5---------------------------------|
A|-8-----5-----3---------------8-----5-----3---------------------------------|
E|-6---------------------------6---------------------------------------------|

e|-6-----5-----3---------------6-----5-----3---------------------------------|
B|-6-----6-----5---------------6-----6-----5---------------------------------|
G|-7-----7-----5---------------7-----7-----5---------------------------------|
D|-8-----7-----5---------------8-----7-----5---------------------------------|
A|-8-----5-----3---------------8-----5-----3---------------------------------|
E|-6---------------------------6---------------------------------------------|

Guitar II
e|-/13-12------------------8-10------------8---------------------------------|
B|--------15-13-10------10------8--------6---\11-----------------------------|
G|-------------------------------------5-------------------------------------|
D|---------------------------------------------------------------------------|
A|---------------------------------------------------------------------------|
E|---------------------------------------------------------------------------|

e|-/13-12------------------8-10------------8---------------------------------|
B|--------15-13-10------10------8--------6---\11-----------------------------|
G|-------------------------------------5-------------------------------------|
D|---------------------------------------------------------------------------|
A|---------------------------------------------------------------------------|
E|---------------------------------------------------------------------------|

e|-/13-12------------------8-10------------8---------------------------------|
B|--------15-13-10------10------8--------6---\11-----------------------------|
G|-------------------------------------5-------------------------------------|
D|---------------------------------------------------------------------------|
A|---------------------------------------------------------------------------|
E|---------------------------------------------------------------------------|

e|-/13-12------------------8-10------------8/10------------------------------|
B|--------15-13-10------10------8--------6-----------------------------------|
G|-------------------------------------5-------------------------------------|
D|---------------------------------------------------------------------------|
A|---------------------------------------------------------------------------|
E|---------------------------------------------------------------------------|


[Bridge]

Guitar I
e|-3-----5-----3-----3-----3-----5-----1-----3-----6-----6-------------------|
B|-3-----6-----5-----3-----3-----6-----1-----3-----6-----6-------------------|
G|-3-----7-----5-----3-----3-----7-----2-----3-----7-----7-------------------|
D|-5-----7-----5-----5-----5-----7-----3-----5-----8-----8-------------------|
A|-5-----5-----3-----5-----5-----5-----3-----5-----8-----8-------------------|
E|-3-----------------3-----3-----------1-----3-----6-----6-------------------|

e|-6-----5-----3-----3---------6-----5-----3-----3---------------------------|
B|-6-----6-----5-----5---------6-----6-----5-----5---------------------------|
G|-7-----7-----5-----5---------7-----7-----5-----5---------------------------|
D|-8-----7-----5-----5---------8-----7-----5-----5---------------------------|
A|-8-----5-----3-----3---------8-----5-----3-----3---------------------------|
E|-6---------------------------6---------------------------------------------|


Guitar II
e|--------------|-----------------|
B|--------------|-----------------|
G|-9/10-9-------|-9/10-10-9-------|
D|--------12-10-|-----------12-10-| x6
A|--------------|-----------------|
E|--------------|-----------------|


[Solo]
e|---------------------------------------------------------------------------|
B|---------------------------------------------------------------------------|
G|-14-14-14-14-14-14-14-14---14-14-14-14-12-12-12-12---10-10-10-10-10-10-10-9|
D|---------------------------------------------------------------------------|
A|---------------------------------------------------------------------------|
E|---------------------------------------------------------------------------|

e|---------------------------------------------------------------------------|
B|---------------------------------------------------------------------------|
G|-9-9-9-9\7-7-7-7-7\5---5-5-5-5-5-5-5-5---7-7-7-7-7-7-7-7-------------------|
D|---------------------------------------------------------------------------|
A|---------------------------------------------------------------------------|
E|---------------------------------------------------------------------------|

e|---------------------------------------------------------------------------|
B|----------------------------------------------11-11-11-11-11-11-11-11------|
G|-9-9-9-9-10-10-10-10---12-12-7-7-9-9-10-\15--------------------------------|
D|---------------------------------------------------------------------------|
A|---------------------------------------------------------------------------|
E|---------------------------------------------------------------------------|

e|---------------------------------------------------------------------------|
B|-13-13-13-11-11-10-10-10---10-10-10-10-10-10-10-10---11-11-11-10-10-8-8-8--|
G|---------------------------------------------------------------------------|
D|---------------------------------------------------------------------------|
A|---------------------------------------------------------------------------|
E|---------------------------------------------------------------------------|

e|---------------------------------------------------------------------------|
B|--8-8-8-8-8-8-8-8---10-10-10-10-10-10-10-10---11-11-11-11-13-13-13-13------|
G|---------------------------------------------------------------------------|
D|---------------------------------------------------------------------------|
A|---------------------------------------------------------------------------|
E|---------------------------------------------------------------------------|

e|---------------------------------------------------------------------------|
B|-15-15-15-15-17-17-17-17---------------------------------------------------|
G|---------------------------------------------------------------------------|
D|---------------------------------------------------------------------------|
A|---------------------------------------------------------------------------|
E|---------------------------------------------------------------------------|


[Chorus]

Guitar I
e|-6-----5-----3-----3---------6-----5-----3-----3---------------------------|
B|-6-----6-----5-----5---------6-----6-----5-----5---------------------------|
G|-7-----7-----5-----5---------7-----7-----5-----5---------------------------|
D|-8-----7-----5-----5---------8-----7-----5-----5---------------------------|
A|-8-----5-----3-----3---------8-----5-----3-----3---------------------------|
E|-6---------------------------6---------------------------------------------|

Guitar II
e|-12-13-12-----------12-12-13-----------12-13-12------------12-12-13--------|
B|----------15-13--------------15-13--------------15-13---------------15-13--|
G|---------------------------------------------------------------------------|
D|---------------------------------------------------------------------------|
A|---------------------------------------------------------------------------|
E|---------------------------------------------------------------------------|

e|-12-13-12-----------12-12-13-----------12-13-12------------12-12-13--------|
B|----------15-13--------------15-13--------------15-13---------------15-13--|
G|---------------------------------------------------------------------------|
D|---------------------------------------------------------------------------|
A|---------------------------------------------------------------------------|
E|---------------------------------------------------------------------------|


************************************

| / slide up
| \ slide down
| h hammer-on
| p pull-off
| ~ vibrato
| + harmonic
| x Mute note
| b Bend
| pb Pre-bend
| br Bend release
| pbr Pre-bend release
| brb Bend release bend

************************************
Song info
Tompkins Square Park
Mumford and Sons
2001
  • Folk, World, & Country
  • Rock
  • Alternative Rock
Similar songs
Fascination Street - The Cure
For Reasons Unknown - The Killers
World I Know - Collective Soul
Waters Edge - Seven Mary Three
2 2 5 - Radiohead

Hi! Hope you enjoy backing track experience.
If you want to help us in the development of the project, feel free to donate!