Panic Station - Muse
00:00 / 00:00
Tabs and lyrics
Tunning: Nashville (E A D G B E)
[Chorus]
E|-------------------------------|-------------------------------|
B|-------------------------------|-------------------------------|
G|-------------------------------|-------------------------------|
D|---14--14-14--14---14---14-14--|--14--14-14--14---14---14-14---|
A|-------------------------------|-------------------------------|
E|---12--12-12--12---12---12-12--|--12--12-12--12---12---12-12---|

E|---12--12-12--12---12---12-12--|--12--12-12--12---12---12-12---|
B|---12--12-12--12---12---12-12--|--12--12-12--12---12---12-12---|
G|---12--12-12--12---12---12-12--|--12--12-12--12---12---12-12---|
D|---14--14-14--14---14---14-14--|--14--14-14--14---14---14-14---|
A|-------------------------------|-------------------------------|
E|-------------------------------|-------------------------------|

[Pre-Verse/Verse]
E|---------------------------------|---------------------------------|
B|---------------------------------|---------------------------------|
G|---------------------12----------|--------------------12-----------|
D|------------12-13-14----14-12-14-|-----------12-13-14----14-12-14--|
A|---14-12-14----------------------|---14-12-14----------------------|
E|-12------------------------------|-12------------------------------|

E|---------------------------------|------------------------------------|
B|---------------------------------|--12-12-12-12---14-14-14-14-14-14---|
G|---------------------12----------|--12-12-12-12---14-14-14-14-14-14---|
D|------------12-13-14----14-12-14-|--12-12-12-12---14-14-14-14-14-14---|
A|---14-12-14----------------------|------------------------------------|
E|-12------------------------------|------------------------------------|

[Break/Solo]
(Type thing)
E|--------------------------------|
B|--------------------------------|
G|--------------------------------|
D|--------------------------------|(x8)
A|--------------------------------|
E|-12-0-11-0-10-0-9-0-8-0-7-0-3-0-|

E|-------------------------------------------------------------------------|
B|-12-12----------12-12-12----------12-14-14----------14-13-13----------13-|
G|------12------12--------12------12--------14------14--------12------12---|
D|--------14--14------------12--12------------14--14------------14--14-----|
A|----------14----------------14----------------16----------------15-------|
E|-------------------------------------------------------------------------|
(x4)

E|--------------------------------------------|
B|---17-----12--15------12--14---10--13-------|
G|---19b----14b-17b-----14b-16b--12b-15b------|(x2)
D|--------------------------------------------|
A|--------------------------------------------|
E|--------------------------------------------|


************************************

| b Bend

************************************
Tunning: Standard (E A D G B e)
-------------------------------------------------------------------------------
Panic Station - Muse
-------------------------------------------------------------------------------
Tabbed by: Keith Farrell


Tuning: Standard

[Intro Bass & Guitar parts]

e|-----------------------------------12-12-12-12-|
B|-----------------------------------12-12-12-12-|
G|-----------------------------------12-12-12-12-|X2
D|----------------7/9----------------------------|
A|----------------5/7----------------------------|
E|-12/0--0--0--0--------0--0--0--0---------------|


[Verse]

e|----------------------------------12-12-12-12-|
B|----------------------------------12-12-12-12-|
G|----------------------------------12-12-12-12-|X2
D|--------------7/9-----------------------------|
A|--------------5/7-----------------------------|
E|-----0--0--0--------0--0--0--0----------------|

e|--------------------------------------------------------------------------12-12-12-12-|
B|--------------------------------------------------------------------------12-12-12-12-|
G|------------------------------------2-2-2-2-------------------------------12-12-12-12-|
D|----------------13\-----------------5-5-5-5------------7/9----------------------------|
A|----------------11\-----------------5-5-5-5------------5/7----------------------------|
E|-----5--5--5--------3--3--3--3----------------0--0--0--------0--0--0--0---------------|


[Chorus]

(Bass 0:28)

G|---------------------------------------------------------------------------|
D|---2---2---2---2---5---5---5---5---7---7---7---9---10---10----12----14-----|
A|---------------------------------------------------------------------------|
E|-0---0---0---0---3---3---3---3---5---5---5---7---8----8----10----12--------|


(Guitar 0:38)

e|-7-7-x-x--7-7-x-7-x-7---7-7-x-x--7-7-x-7-x-7---9--9--x-x--9--9--x-9--x-8~--|
B|-8-8-x-x--8-8-x-8-x-8---8-8-x-x--8-8-x-8-x-8---10-10-x-x--10-10-x-10-x-8~--|
G|-9-9-x-x--9-9-x-9-x-9---9-7-x-x--7-7-x-7-x-7---9--9--x-x--9--9--x-9--x-9~~-|
D|---------------------------------------------------------------------------|
A|---------------------------------------------------------------------------|
E|---------------------------------------------------------------------------|


(Riff 0:48)

e|---------------------------------------------------------------------------|
B|---------------------------------------------------------------------------|
G|--9\--9---------9-----------12--7h9---------9-----------12--7h9------------|
D|--9\-----9--12-----9h12/14-----------9--12-----9h12/14---------------------|
A|--7\-----------------------------------------------------------------------|
E|--0x-----------------------------------------------------------------------|

e|-------------------------------12-12-12-12-15-15-15-15---------------------|
B|-------------------------------12-12-12-12-15-15-15-12---------------------|
G|----------9-----------12--7h9--12-12-12-12-12-12-12-12---------------------|
D|--9---12-----9h12/14-------------------------------------------------------|
A|---------------------------------------------------------------------------|
E|---------------------------------------------------------------------------|


[Verse 2]
(is the same as first i think with riff^ possibly playing in background)


e|----------------------------------12-12-12-12-|
B|----------------------------------12-12-12-12-|
G|----------------------------------12-12-12-12-|X2
D|--------------7/9-----------------------------|
A|--------------5/7-----------------------------|
E|-----0--0--0--------0--0--0--0----------------|

e|--------------------------------------------------------------------------12-12-12-12-|
B|--------------------------------------------------------------------------12-12-12-12-|
G|------------------------------------2-2-2-2-------------------------------12-12-12-12-|
D|----------------13\-----------------5-5-5-5------------7/9----------------------------|
A|----------------11\-----------------5-5-5-5------------5/7----------------------------|
E|-----5--5--5--------3--3--3--3----------------0--0--0--------0--0--0--0---------------|


[Chorus]

e|-7-7-x-x--7-7-x-7-x-7---7-7-x-x--7-7-x-7-x-7---9--9--x-x--9--9--x-9--x-9---|
B|-8-8-x-x--8-8-x-8-x-8---8-8-x-x--8-8-x-8-x-8---10-10-x-x--10-10-x-10-x-10--|
G|-9-9-x-x--9-9-x-9-x-9---9-7-x-x--7-7-x-7-x-7---9--9--x-x--9--9--x-9--x-9---|
D|---------------------------------------------------------------------------|
A|---------------------------------------------------------------------------|
E|---------------------------------------------------------------------------|

e|-8-8-x-x--8-8-x-8-x-8------------------------------------------------------|
B|-8-8-x-x--8-8-x-8-x-8------------------------------------------------------|
G|-9-9-x-x--9-9-x-9 x-9------------------------------------------------------|
D|---------------------------------------------------------------------------|
A|---------------------------------------------------------------------------|
E|---------------------------------------------------------------------------|

e|-7-7-x-x--7-7-x-7-x-7---7-7-x-x--7-7-x-7-x-7---9--9--x-x--9--9--x-9--x-8~--|
B|-8-8-x-x--8-8-x-8-x-8---8-8-x-x--8-8-x-8-x-8---10-10-x-x--10-10-x-10-x-8~--|
G|-9-9-x-x--9-9-x-9-x-9---9-7-x-x--7-7-x-7-x-7---9--9--x-x--9--9--x-9--x-9~~-|
D|---------------------------------------------------------------------------|
A|---------------------------------------------------------------------------|
E|---------------------------------------------------------------------------|

or riff is also played over chorus a bit different to last time:

e|---------------------------------------------------------------------------|
B|---------------------------------------------------------------------------|
G|----9---------9-----------12--7h9---------9-----------12--7h9--------------|
D|-------9--12-----9h12/14-----------9--12-----9h12/14-----------------------|
A|---------------------------------------------------------------------------|
E|---------------------------------------------------------------------------|

e|---------------------------------------------------------------------------|
B|---------------------------------------------------------------------------|
G|----------9-----------14--7h9---------9-----------11--7h9------------------|
D|--9---12-----9h12/14-----------9--12-----9h12/14---------------------------|
A|---------------------------------------------------------------------------|
E|---------------------------------------------------------------------------|


e|---------------------------------------------------------------------------|
B|---------------------------------------------------------------------------|
G|----9---------9-----------12--7h9---------9-----------12--7h9--------------|
D|-------9--12-----9h12/14-----------9--12-----9h12/14-----------------------|
A|---------------------------------------------------------------------------|
E|---------------------------------------------------------------------------|

e|---------------------------------------------------------------------------|
B|---------------------------------------------------------------------------|
G|----------9-----------14--7h9---------9-----------11~~~--------------------|
D|--9---12-----9h12/14-----------9--12-----9h12/14---------------------------|
A|---------------------------------------------------------------------------|
E|---------------------------------------------------------------------------|


[Solo]

e|----------------------------------|--------------------------------|
B|----------------------------------|--------------------------------|
G|----------------------------------|--------------------------------|x3
D|----------------------------------|--------------------------------|
A|----------------------------------|--------------------------------|
E|-12-0-11-0-10-0-9-0-8-0-7-0-6-7-0-|-0-12-0-11-0-10-0-9-0-8-0-6-7---|

e|----------------------------------|--------------------------------|
B|----------------------------------|--------------------------------|
G|----------------------------------|--------------------------------|
D|----------------------------------|--------------------------------|
A|----------------------------------|--------------------------------|
E|-12-0-11-0-10-0-9-0-8-0-7-0-6-7-0-|-0-12-0-11-0-10-0-9-0-8-0-6-7---|

e|------------------------------------------|------------------------------------------|
B|--12----------------------------12--------|-12---------------------------12----------|
G|------12------------------12---------12---|-----12------------------12-------12------|
D|----------14--------14--------------------|----------12--------12--------------------|
A|---------------14-------------------------|---------------14-------------------------|
E|------------------------------------------|------------------------------------------|
>X4
e|------------------------------------------|------------------------------------------|
B|-14---------------------------14----------|-13---------------------------13----------|
G|-----14------------------14-------14------|-----12------------------12-------12------|
D|----------14--------14--------------------|----------14--------14--------------------|
A|---------------16-------------------------|---------------15-------------------------|
E|------------------------------------------|------------------------------------------|


[Last Chorus]
(solo and riff at same time)

e|------------------------------------------|------------------------------------------|
B|--12----------------------------12--------|-12---------------------------12----------|
G|------12------------------12---------12---|-----12------------------12-------12------|
D|----------14--------14--------------------|----------12--------12--------------------|
A|---------------14-------------------------|---------------14-------------------------|
E|------------------------------------------|------------------------------------------|
>X4
e|------------------------------------------|------------------------------------------|
B|-14---------------------------14----------|-13---------------------------13----------|
G|-----14------------------14-------14------|-----12------------------12-------12------|
D|----------14--------14--------------------|----------14--------14--------------------|
A|---------------16-------------------------|---------------15-------------------------|
E|------------------------------------------|------------------------------------------|

or

e|---------------------------------------------------------------------------|
B|---------------------------------------------------------------------------|
G|----9---------9-----------12--7h9---------9-----------12--7h9--------------|
D|-------9--12-----9h12/14-----------9--12-----9h12/14-----------------------|
A|---------------------------------------------------------------------------|
E|---------------------------------------------------------------------------|

e|---------------------------------------------------------------------------|
B|---------------------------------------------------------------------------|
G|----------9-----------14--7h9---------9-----------11--7h9------------------|
D|--9---12-----9h12/14-----------9--12-----9h12/14---------------------------|
A|---------------------------------------------------------------------------|
E|---------------------------------------------------------------------------|


e|---------------------------------------------------------------------------|
B|---------------------------------------------------------------------------|
G|----9---------9-----------12--7h9---------9-----------12--7h9--------------|
D|-------9--12-----9h12/14-----------9--12-----9h12/14-----------------------|
A|---------------------------------------------------------------------------|
E|---------------------------------------------------------------------------|

e|---------------------------------------------------------------------------|
B|---------------------------------------------------------------------------|
G|----------9-----------14--7h9---------9-----------11~~~--------------------|
D|--9---12-----9h12/14-----------9--12-----9h12/14---------------------------|
A|---------------------------------------------------------------------------|
E|---------------------------------------------------------------------------|


[Chorus repeat]

e|---------------------------------------------------------------------------|
B|---------------------------------------------------------------------------|
G|---21~------16-------19~-------16-------18~--------17~---------------------|x2
D|---------------------------------------------------------------------------|
A|---------------------------------------------------------------------------|
E|---------------------------------------------------------------------------|


[Outro]

e|----------------------------------12-12-12-12-|
B|----------------------------------12-12-12-12-|
G|----------------------------------12-12-12-12-|X2
D|--------------7/9-----------------------------|
A|--------------5/7-----------------------------|
E|-----0--0--0--------0--0--0--0----------------|


************************************

| x Dead note
| h Hammer-on
| / Slide up
| \ Slide down
| ~ Vibrato

************************************
Tunning: Standard (E A D G B e)
[Verse 1]
(yeah there's nothing here)

[Chorus 1]
(at 0:37)
(half-way through chorus)
e|---7---7---x-x-7-7-7-7---x-7-7---x-7-7---x-x-7-7-7-7---x-7-7------|
B|---8---8---x-x-8-8-8-8---x-8-8---x-8-8---x-x-8-8-8-8---x-8-8------|
G|---9---9---x-x-9-9-9-9---x-9-9---x-9-9---x-x-9-9-9-9---x-9-9------|
D|------------------------------------------------------------------|
A|------------------------------------------------------------------|
E|------------------------------------------------------------------|

e|--x-9--9----x-x-9--9--9--9----9--9--x-8---------------|
B|--x-10-10---x-x-10-10-10-10---10-10-x-8--(let ring)---|
G|--x-9--9----x-x-9--9--9--9----9--9--x-9---------------|
D|--------------------------------------10--------------|
A|------------------------------------------------------|
E|------------------------------------------------------|

e|------------------------------------------------------------------------------------|
B|------------------------------------------------------------------------------------|
G|---9------9--------9-12---7h9--------9--------9-12---7h9--------9--------9-12---7h9-|
D|-----9-12-----9-12--------------9-12-----9-12--------------9-12-----9-12------------|
A|------------------------------------------------------------------------------------|
E|------------------------------------------------------------------------------------|

e|---12-12-12-12---15-15-15-15-----|
G|---12-12-12-12---15-15-15-15-----|
D|---12-12-12-12---16-16-16-16-----|
A|---------------------------------|
E|---------------------------------|

Verse 2:

again, take a break

[Chorus 2]
(at 1:25) (half-way through chorus)
e|---7---7---x-x-7-7-7-7---x-7-7---x-7-7---x-x-7-7-7-7---x-7-7------|
B|---8---8---x-x-8-8-8-8---x-8-8---x-8-8---x-x-8-8-8-8---x-8-8------|
G|---9---9---x-x-9-9-9-9---x-9-9---x-9-9---x-x-9-9-9-9---x-9-9------|
D|------------------------------------------------------------------|
A|------------------------------------------------------------------|
E|------------------------------------------------------------------|

e|--x-9--9----x-x-9--9--9--9----9--9--x-8---------------|
B|--x-10-10---x-x-10-10-10-10---10-10-x-8--(let ring)---|
G|--x-9--9----x-x-9--9--9--9----9--9--x-9---------------|
D|--------------------------------------10--------------|
A|------------------------------------------------------|
E|------------------------------------------------------|

[Solo 1]
e|--------------------------------------|-------------------------------|
B|--------------------------------------|-------------------------------|
G|--------------------------------------|-------------------------------|
D|--------------------------------------|-------------------------------|
A|--------------------------------------|-------------------------------|
E|-12-0-11-0-10-0-9-0-8-0-7-0-6h7-0-0-12|-11-0-10-0-9-0-8-0-7-0-6h7---0-|

e|--------------------------------------|-------------------------------|
B|--------------------------------------|-------------------------------|
G|--------------------------------------|-------------------------------|
D|--------------------------------------|-------------------------------|
A|--------------------------------------|-------------------------------|
E|-12-0-11-0-10-0-9-0-8-0-7-0-6h7-0-0-12|-11-0-10-0-9-0-8-0-7-0-6h7---0-|

e|-----------------------------------|-----------------------------------|
B|-----------------------------------|-----------------------------------|
G|-----------------------------------|-----------------------------------|
D|-----------------------------------|-----------------------------------|
A|-----------------------------------|-----------------------------------|
E|-12-0-10-0-8-0-7-0-6-0-5-0-4h5---0-|-12-0-10-0-8-0-7-0-6-0-5-0-4h5---0-|

e|--------------------------------------|---------------------|
B|--------------------------------------|---------------------|
G|--------------------------------------|---------------------|
D|--------------------------------------|---------------------|
A|--------------------------------------|---------------------|
E|-12-0-11-0-10-0-9-0-8-0-7-0-6h7-0-0-12|-11-0-10-0-9-0-8-0-7-|

[Solo 2]
e|-------------------------------------------------------------------------|
B|-12-12-12----------12---12----------12---14----------14---13----------13-|
G|---------12------12-------12------12-------14------14-------12------12---|
D|-----------14--14-----------12--12-----------14--14-----------14--14-----|
A|-------------14---------------14---------------16---------------15-------|
E|-------------------------------------------------------------------------|

e|-------------------------------------------------------------------|
B|-12----------12---12----------12---14----------14---13----------13-|
G|---12------12-------12------12-------14------14-------12------12---|
D|-----14--14-----------12--12-----------14--14-----------14--14-----|
A|-------14---------------14---------------16---------------15-------|
E|-------------------------------------------------------------------|

[Chorus 3]
e|-------------------------------------------------------------------|
B|-12----------12---12----------12---14----------14---13----------13-|
G|---12------12-------12------12-------14------14-------12------12---|
D|-----14--14-----------12--12-----------14--14-----------14--14-----|
A|-------14---------------14---------------16---------------15-------|
E|-------------------------------------------------------------------|

e|-------------------------------------------------------------------|
B|-12----------12---12----------12---14----------14---13----------13-|
G|---12------12-------12------12-------14------14-------12------12---|
D|-----14--14-----------12--12-----------14--14-----------14--14-----|
A|-------14---------------14---------------16---------------15-------|
E|-------------------------------------------------------------------|

e|---------------------------------------------------------------------------|
B|---17---12-15---12-14---12-13---12-17---12-15---12-14---12-13-(let ring)---|
G|---------------------------------------------------------------------------|
D|---------------------------------------------------------------------------|
A|---------------------------------------------------------------------------|
E|---------------------------------------------------------------------------|

[Outro]
(bass plays main part)
e|--------------7-7-7-7------------------------7-7-7-7---|
B|--------------9-9-9-9------------------------9-9-9-9---|
G|--------------9-9-9-9------------------------9-9-9-9---|
D|-------------------------------------------------------|
A|-------------------------------------------------------|
E|-------------------------------------------------------|


************************************

| x Dead note
| h Hammer-on


************************************
Song info
Panic Station
Muse
2001
  • Rock
  • Alternative Rock
Alternative tracks
Similar songs
Swing Swing - All American Rejects
This Picture - Placebo
Shimmer And Shine - Ben Harper
Just - Radiohead

Hi! Hope you enjoy backing track experience.
If you want to help us in the development of the project, feel free to donate!